  0
SECTION
  2
HEADER
  9
$ACADVER
  1
AC1015
  9
$ACADMAINTVER
 70
     6
  9
$DWGCODEPAGE
  3
ANSI_1252
  9
$INSBASE
 10
0.0
 20
0.0
 30
0.0
  9
$EXTMIN
 10
0.0
 20
0.0
 30
0.0
  9
$EXTMAX
 10
841.0
 20
594.0
 30
0.0
  9
$LIMMIN
 10
0.0
 20
0.0
  9
$LIMMAX
 10
841.0
 20
594.0
  9
$ORTHOMODE
 70
     0
  9
$REGENMODE
 70
     1
  9
$FILLMODE
 70
     1
  9
$QTEXTMODE
 70
     0
  9
$MIRRTEXT
 70
     1
  9
$LTSCALE
 40
1.0
  9
$ATTMODE
 70
     1
  9
$TEXTSIZE
 40
2.5
  9
$TRACEWID
 40
1.0
  9
$TEXTSTYLE
  7
Standard
  9
$CLAYER
  8
0
  9
$CELTYPE
  6
ByLayer
  9
$CECOLOR
 62
   256
  9
$CELTSCALE
 40
1.0
  9
$DISPSILH
 70
     0
  9
$DIMSCALE
 40
1.0
  9
$DIMASZ
 40
2.5
  9
$DIMEXO
 40
1.0
  9
$DIMDLI
 40
3.75
  9
$DIMRND
 40
0.0
  9
$DIMDLE
 40
0.0
  9
$DIMEXE
 40
1.0
  9
$DIMTP
 40
0.0
  9
$DIMTM
 40
0.0
  9
$DIMTXT
 40
2.5
  9
$DIMCEN
 40
2.5
  9
$DIMTSZ
 40
0.0
  9
$DIMTOL
 70
     0
  9
$DIMLIM
 70
     0
  9
$DIMTIH
 70
     1
  9
$DIMTOH
 70
     1
  9
$DIMSE1
 70
     0
  9
$DIMSE2
 70
     0
  9
$DIMTAD
 70
     1
  9
$DIMZIN
 70
     0
  9
$DIMBLK
  1

  9
$DIMASO
 70
     1
  9
$DIMSHO
 70
     1
  9
$DIMPOST
  1

  9
$DIMAPOST
  1

  9
$DIMALT
 70
     0
  9
$DIMALTD
 70
     3
  9
$DIMALTF
 40
0.0393700787
  9
$DIMLFAC
 40
1.0
  9
$DIMTOFL
 70
     1
  9
$DIMTVP
 40
0.0
  9
$DIMTIX
 70
     0
  9
$DIMSOXD
 70
     0
  9
$DIMSAH
 70
     0
  9
$DIMBLK1
  1

  9
$DIMBLK2
  1

  9
$DIMSTYLE
  2
ISO-25
  9
$DIMCLRD
 70
     0
  9
$DIMCLRE
 70
     0
  9
$DIMCLRT
 70
     0
  9
$DIMTFAC
 40
1.0
  9
$DIMGAP
 40
1.524
  9
$DIMJUST
 70
     0
  9
$DIMSD1
 70
     0
  9
$DIMSD2
 70
     0
  9
$DIMTOLJ
 70
     0
  9
$DIMTZIN
 70
     0
  9
$DIMALTZ
 70
     0
  9
$DIMALTTZ
 70
     0
  9
$DIMUPT
 70
     0
  9
$DIMDEC
 70
     2
  9
$DIMTDEC
 70
     2
  9
$DIMALTU
 70
     2
  9
$DIMALTTD
 70
     3
  9
$DIMTXSTY
  7
Standard
  9
$DIMAUNIT
 70
     0
  9
$DIMADEC
 70
     2
  9
$DIMALTRND
 40
0.0
  9
$DIMAZIN
 70
     0
  9
$DIMDSEP
 70
    44
  9
$DIMATFIT
 70
     3
  9
$DIMFRAC
 70
     0
  9
$DIMLDRBLK
  1

  9
$DIMLUNIT
 70
     2
  9
$DIMLWD
 70
    -2
  9
$DIMLWE
 70
    -2
  9
$DIMTMOVE
 70
     0
  9
$LUNITS
 70
     2
  9
$LUPREC
 70
     2
  9
$SKETCHINC
 40
1.0
  9
$FILLETRAD
 40
10.0
  9
$AUNITS
 70
     0
  9
$AUPREC
 70
     2
  9
$MENU
  1
.
  9
$ELEVATION
 40
0.0
  9
$PELEVATION
 40
0.0
  9
$THICKNESS
 40
0.0
  9
$LIMCHECK
 70
     0
  9
$CHAMFERA
 40
10.0
  9
$CHAMFERB
 40
10.0
  9
$CHAMFERC
 40
20.0
  9
$CHAMFERD
 40
0.0
  9
$SKPOLY
 70
     0
  9
$TDCREATE
 40
2457457.424921806
  9
$TDUCREATE
 40
2457457.383255139
  9
$TDUPDATE
 40
2457457.424923252
  9
$TDUUPDATE
 40
2457457.383256586
  9
$TDINDWG
 40
0.0000000116
  9
$TDUSRTIMER
 40
0.0000000116
  9
$USRTIMER
 70
     1
  9
$ANGBASE
 50
0.0
  9
$ANGDIR
 70
     0
  9
$PDMODE
 70
     0
  9
$PDSIZE
 40
-1.0
  9
$PLINEWID
 40
0.0
  9
$SPLFRAME
 70
     0
  9
$SPLINETYPE
 70
     6
  9
$SPLINESEGS
 70
     8
  9
$HANDSEED
  5
36A
  9
$SURFTAB1
 70
     6
  9
$SURFTAB2
 70
     6
  9
$SURFTYPE
 70
     6
  9
$SURFU
 70
     6
  9
$SURFV
 70
     6
  9
$UCSBASE
  2

  9
$UCSNAME
  2

  9
$UCSORG
 10
0.0
 20
0.0
 30
0.0
  9
$UCSXDIR
 10
1.0
 20
0.0
 30
0.0
  9
$UCSYDIR
 10
0.0
 20
1.0
 30
0.0
  9
$UCSORTHOREF
  2

  9
$UCSORTHOVIEW
 70
     0
  9
$UCSORGTOP
 10
0.0
 20
0.0
 30
0.0
  9
$UCSORGBOTTOM
 10
0.0
 20
0.0
 30
0.0
  9
$UCSORGLEFT
 10
0.0
 20
0.0
 30
0.0
  9
$UCSORGRIGHT
 10
0.0
 20
0.0
 30
0.0
  9
$UCSORGFRONT
 10
0.0
 20
0.0
 30
0.0
  9
$UCSORGBACK
 10
0.0
 20
0.0
 30
0.0
  9
$PUCSBASE
  2

  9
$PUCSNAME
  2

  9
$PUCSORG
 10
0.0
 20
0.0
 30
0.0
  9
$PUCSXDIR
 10
1.0
 20
0.0
 30
0.0
  9
$PUCSYDIR
 10
0.0
 20
1.0
 30
0.0
  9
$PUCSORTHOREF
  2

  9
$PUCSORTHOVIEW
 70
     0
  9
$PUCSORGTOP
 10
0.0
 20
0.0
 30
0.0
  9
$PUCSORGBOTTOM
 10
0.0
 20
0.0
 30
0.0
  9
$PUCSORGLEFT
 10
0.0
 20
0.0
 30
0.0
  9
$PUCSORGRIGHT
 10
0.0
 20
0.0
 30
0.0
  9
$PUCSORGFRONT
 10
0.0
 20
0.0
 30
0.0
  9
$PUCSORGBACK
 10
0.0
 20
0.0
 30
0.0
  9
$USERI1
 70
     0
  9
$USERI2
 70
     0
  9
$USERI3
 70
     0
  9
$USERI4
 70
     0
  9
$USERI5
 70
     0
  9
$USERR1
 40
0.0
  9
$USERR2
 40
0.0
  9
$USERR3
 40
0.0
  9
$USERR4
 40
0.0
  9
$USERR5
 40
0.0
  9
$WORLDVIEW
 70
     1
  9
$SHADEDGE
 70
     3
  9
$SHADEDIF
 70
    70
  9
$TILEMODE
 70
     1
  9
$MAXACTVP
 70
    64
  9
$PINSBASE
 10
0.0
 20
0.0
 30
0.0
  9
$PLIMCHECK
 70
     0
  9
$PEXTMIN
 10
1.0000000000E+20
 20
1.0000000000E+20
 30
1.0000000000E+20
  9
$PEXTMAX
 10
-1.0000000000E+20
 20
-1.0000000000E+20
 30
-1.0000000000E+20
  9
$PLIMMIN
 10
0.0
 20
0.0
  9
$PLIMMAX
 10
420.0
 20
297.0
  9
$UNITMODE
 70
     0
  9
$VISRETAIN
 70
     1
  9
$PLINEGEN
 70
     0
  9
$PSLTSCALE
 70
     1
  9
$TREEDEPTH
 70
  3020
  9
$CMLSTYLE
  2
Standard
  9
$CMLJUST
 70
     0
  9
$CMLSCALE
 40
20.0
  9
$PROXYGRAPHICS
 70
     1
  9
$MEASUREMENT
 70
     1
  9
$CELWEIGHT
370
    -1
  9
$ENDCAPS
280
     0
  9
$JOINSTYLE
280
     0
  9
$LWDISPLAY
290
     1
  9
$INSUNITS
 70
     4
  9
$HYPERLINKBASE
  1

  9
$STYLESHEET
  1

  9
$XEDIT
290
     1
  9
$CEPSNTYPE
380
     0
  9
$PSTYLEMODE
290
     1
  9
$FINGERPRINTGUID
  2
{8C333ED0-94CB-4037-AD4D-F8F7A982BF7F}
  9
$VERSIONGUID
  2
{FAEB1C32-E019-11D5-929B-00C0DF256EC4}
  9
$EXTNAMES
290
     1
  9
$PSVPSCALE
 40
0.0
  9
$OLESTARTUP
290
     0
  0
ENDSEC
  0
SECTION
  2
CLASSES
  0
CLASS
  1
ACDBDICTIONARYWDFLT
  2
AcDbDictionaryWithDefault
  3
ObjectDBX Classes
 90
        0
280
     0
281
     0
  0
CLASS
  1
VISUALSTYLE
  2
AcDbVisualStyle
  3
ObjectDBX Classes
 90
     4095
280
     0
281
     0
  0
CLASS
  1
MATERIAL
  2
AcDbMaterial
  3
ObjectDBX Classes
 90
     1153
280
     0
281
     0
  0
CLASS
  1
ACDBPLACEHOLDER
  2
AcDbPlaceHolder
  3
ObjectDBX Classes
 90
        0
280
     0
281
     0
  0
CLASS
  1
LAYOUT
  2
AcDbLayout
  3
ObjectDBX Classes
 90
        0
280
     0
281
     0
  0
ENDSEC
  0
SECTION
  2
TABLES
  0
TABLE
  2
VPORT
  5
8
330
0
100
AcDbSymbolTable
 70
     1
  0
VPORT
  5
29
330
8
100
AcDbSymbolTableRecord
100
AcDbViewportTableRecord
  2
*Active
 70
     0
 10
0.0
 20
0.0
 11
1.0
 21
1.0
 12
420.5
 22
297.0
 13
0.0
 23
0.0
 14
10.0
 24
10.0
 15
10.0
 25
10.0
 16
0.0
 26
0.0
 36
1.0
 17
0.0
 27
0.0
 37
0.0
 40
594.0
 41
1.4158249158
 42
50.0
 43
0.0
 44
0.0
 50
0.0
 51
0.0
 71
     0
 72
  2000
 73
     1
 74
     3
 75
     0
 76
     0
 77
     0
 78
     0
281
     0
 65
     1
110
0.0
120
0.0
130
0.0
111
1.0
121
0.0
131
0.0
112
0.0
122
1.0
132
0.0
 79
     0
146
0.0
  0
ENDTAB
  0
TABLE
  2
LTYPE
  5
5
330
0
100
AcDbSymbolTable
 70
     6
  0
LTYPE
  5
14
330
5
100
AcDbSymbolTableRecord
100
AcDbLinetypeTableRecord
  2
ByBlock
 70
     0
  3

 72
    65
 73
     0
 40
0.0
  0
LTYPE
  5
15
330
5
100
AcDbSymbolTableRecord
100
AcDbLinetypeTableRecord
  2
ByLayer
 70
     0
  3

 72
    65
 73
     0
 40
0.0
  0
LTYPE
  5
16
330
5
100
AcDbSymbolTableRecord
100
AcDbLinetypeTableRecord
  2
Continuous
 70
     0
  3
Solid line
 72
    65
 73
     0
 40
0.0
  0
LTYPE
  5
3F
330
5
100
AcDbSymbolTableRecord
100
AcDbLinetypeTableRecord
  2
HIDDEN
 70
     0
  3
Hidden __ __ __ __ __ __ __ __ __ __ __ __ __ __
 72
    65
 73
     2
 40
1.905
 49
1.27
 74
     0
 49
-0.635
 74
     0
  0
LTYPE
  5
40
330
5
100
AcDbSymbolTableRecord
100
AcDbLinetypeTableRecord
  2
PHANTOM
 70
     0
  3
Phantom ______  __  __  ______  __  __  ______
 72
    65
 73
     6
 40
12.7
 49
6.35
 74
     0
 49
-1.27
 74
     0
 49
1.27
 74
     0
 49
-1.27
 74
     0
 49
1.27
 74
     0
 49
-1.27
 74
     0
  0
LTYPE
  5
41
330
5
100
AcDbSymbolTableRecord
100
AcDbLinetypeTableRecord
  2
CENTER
 70
     0
  3
Center ____ _ ____ _ ____ _ ____ _ ____ _ ____
 72
    65
 73
     4
 40
10.16
 49
6.35
 74
     0
 49
-1.27
 74
     0
 49
1.27
 74
     0
 49
-1.27
 74
     0
  0
LTYPE
  5
42
330
5
100
AcDbSymbolTableRecord
100
AcDbLinetypeTableRecord
  2
CENTERX2
 70
     0
  3
Center (2x) ________  __  ________  __  _____
 72
    65
 73
     4
 40
20.32
 49
12.7
 74
     0
 49
-2.54
 74
     0
 49
2.54
 74
     0
 49
-2.54
 74
     0
  0
LTYPE
  5
43
330
5
100
AcDbSymbolTableRecord
100
AcDbLinetypeTableRecord
  2
DOT2
 70
     0
  3
Dot (.5x) ........................................
 72
    65
 73
     2
 40
0.635
 49
0.0
 74
     0
 49
-0.635
 74
     0
  0
ENDTAB
  0
TABLE
  2
LAYER
  5
2
330
0
100
AcDbSymbolTable
 70
     5
  0
LAYER
  5
10
330
2
100
AcDbSymbolTableRecord
100
AcDbLayerTableRecord
  2
0
 70
     0
 62
     7
  6
Continuous
370
    -3
390
F
  0
LAYER
  5
44
330
2
100
AcDbSymbolTableRecord
100
AcDbLayerTableRecord
  2
FORMAT
 70
     0
 62
     7
  6
Continuous
370
    -3
390
F
  0
LAYER
  5
45
330
2
100
AcDbSymbolTableRecord
100
AcDbLayerTableRecord
  2
PROTOTYPE
 70
     0
 62
     7
  6
Continuous
370
    -3
390
F
  0
LAYER
  5
46
330
2
100
AcDbSymbolTableRecord
100
AcDbLayerTableRecord
  2
TECH_TEXT
 70
     0
 62
     7
  6
Continuous
370
    -3
390
F
  0
LAYER
  5
47
330
2
100
AcDbSymbolTableRecord
100
AcDbLayerTableRecord
  2
TOOLING_TABLE
 70
     0
 62
    -7
  6
Continuous
370
    -3
390
F
  0
ENDTAB
  0
TABLE
  2
STYLE
  5
3
330
0
100
AcDbSymbolTable
 70
     2
  0
STYLE
  5
11
330
3
100
AcDbSymbolTableRecord
100
AcDbTextStyleTableRecord
  2
Standard
 70
     0
 40
0.0
 41
1.0
 50
0.0
 71
     0
 42
2.5
  3
txt
  4

  0
STYLE
  5
52
330
3
100
AcDbSymbolTableRecord
100
AcDbTextStyleTableRecord
  2
SLDTEXTSTYLE0
 70
     0
 40
0.0
 41
0.605
 50
0.0
 71
     0
 42
0.2
  3
TXT
  4

  0
ENDTAB
  0
TABLE
  2
VIEW
  5
6
330
0
100
AcDbSymbolTable
 70
     0
  0
ENDTAB
  0
TABLE
  2
UCS
  5
7
330
0
100
AcDbSymbolTable
 70
     0
  0
ENDTAB
  0
TABLE
  2
APPID
  5
9
330
0
100
AcDbSymbolTable
 70
     1
  0
APPID
  5
12
330
9
100
AcDbSymbolTableRecord
100
AcDbRegAppTableRecord
  2
ACAD
 70
     0
  0
ENDTAB
  0
TABLE
  2
DIMSTYLE
  5
A
330
0
100
AcDbSymbolTable
 70
     1
100
AcDbDimStyleTable
  0
DIMSTYLE
105
27
330
A
100
AcDbSymbolTableRecord
100
AcDbDimStyleTableRecord
  2
ISO-25
 70
     0
 41
2.5
 42
0.625
 43
3.75
 44
1.25
 73
     0
 74
     0
 77
     1
 78
     8
140
2.5
141
2.5
143
0.0393700787
147
0.625
171
     3
172
     1
178
     0
271
     2
272
     2
274
     3
278
    44
283
     0
284
     8
340
11
  0
ENDTAB
  0
TABLE
  2
BLOCK_RECORD
  5
1
330
0
100
AcDbSymbolTable
 70
     9
  0
BLOCK_RECORD
  5
1F
330
1
100
AcDbSymbolTableRecord
100
AcDbBlockTableRecord
  2
*Model_Space
340
22
  0
BLOCK_RECORD
  5
1B
330
1
100
AcDbSymbolTableRecord
100
AcDbBlockTableRecord
  2
*Paper_Space
340
1E
  0
BLOCK_RECORD
  5
23
330
1
100
AcDbSymbolTableRecord
100
AcDbBlockTableRecord
  2
*Paper_Space0
340
26
  0
BLOCK_RECORD
  5
F1
330
1
100
AcDbSymbolTableRecord
100
AcDbBlockTableRecord
  2
SW_CENTERMARKSYMBOL_0
340
0
102
{BLKREFS
331
134
102
}
  0
BLOCK_RECORD
  5
1C0
330
1
100
AcDbSymbolTableRecord
100
AcDbBlockTableRecord
  2
SW_CENTERMARKSYMBOL_1
340
0
102
{BLKREFS
331
1CB
102
}
  0
BLOCK_RECORD
  5
322
330
1
100
AcDbSymbolTableRecord
100
AcDbBlockTableRecord
  2
SW_CENTERMARKSYMBOL_2
340
0
102
{BLKREFS
331
32D
102
}
  0
BLOCK_RECORD
  5
32E
330
1
100
AcDbSymbolTableRecord
100
AcDbBlockTableRecord
  2
SW_CENTERMARKSYMBOL_3
340
0
102
{BLKREFS
331
339
102
}
  0
BLOCK_RECORD
  5
33A
330
1
100
AcDbSymbolTableRecord
100
AcDbBlockTableRecord
  2
SW_CENTERMARKSYMBOL_4
340
0
102
{BLKREFS
331
345
102
}
  0
BLOCK_RECORD
  5
346
330
1
100
AcDbSymbolTableRecord
100
AcDbBlockTableRecord
  2
SW_CENTERMARKSYMBOL_5
340
0
102
{BLKREFS
331
351
102
}
  0
BLOCK_RECORD
  5
352
330
1
100
AcDbSymbolTableRecord
100
AcDbBlockTableRecord
  2
SW_CENTERMARKSYMBOL_6
340
0
102
{BLKREFS
331
35D
102
}
  0
BLOCK_RECORD
  5
35E
330
1
100
AcDbSymbolTableRecord
100
AcDbBlockTableRecord
  2
SW_CENTERMARKSYMBOL_7
340
0
102
{BLKREFS
331
369
102
}
  0
ENDTAB
  0
ENDSEC
  0
SECTION
  2
BLOCKS
  0
BLOCK
  5
20
330
1F
100
AcDbEntity
  8
0
100
AcDbBlockBegin
  2
*Model_Space
 70
     0
 10
0.0
 20
0.0
 30
0.0
  3
*Model_Space
  1

  0
ENDBLK
  5
21
330
1F
100
AcDbEntity
  8
0
100
AcDbBlockEnd
  0
BLOCK
  5
1C
330
1B
100
AcDbEntity
 67
     1
  8
0
100
AcDbBlockBegin
  2
*Paper_Space
 70
     0
 10
0.0
 20
0.0
 30
0.0
  3
*Paper_Space
  1

  0
ENDBLK
  5
1D
330
1B
100
AcDbEntity
 67
     1
  8
0
100
AcDbBlockEnd
  0
BLOCK
  5
24
330
23
100
AcDbEntity
  8
0
100
AcDbBlockBegin
  2
*Paper_Space0
 70
     0
 10
0.0
 20
0.0
 30
0.0
  3
*Paper_Space0
  1

  0
ENDBLK
  5
25
330
23
100
AcDbEntity
  8
0
100
AcDbBlockEnd
  0
BLOCK
  5
F2
330
F1
100
AcDbEntity
  8
0
100
AcDbBlockBegin
  2
SW_CENTERMARKSYMBOL_0
 70
     0
 10
0.0
 20
0.0
 30
0.0
  3
SW_CENTERMARKSYMBOL_0
  1

  0
ARC
  5
F4
330
F1
100
AcDbEntity
  8
FORMAT
 62
     0
100
AcDbCircle
 10
56.4458062738
 20
-136.2722310454
 30
0.0
 40
147.4999999999999
100
AcDbArc
 50
112.5
 51
113.471114907
  0
ARC
  5
F5
330
F1
100
AcDbEntity
  8
FORMAT
 62
     0
100
AcDbCircle
 10
56.4458062738
 20
-136.2722310454
 30
0.0
 40
147.4999999999999
100
AcDbArc
 50
111.528885093
 51
112.5
  0
ARC
  5
F6
330
F1
100
AcDbEntity
  8
FORMAT
 62
     0
100
AcDbCircle
 10
56.4458062738
 20
-136.2722310454
 30
0.0
 40
147.4999999999999
100
AcDbArc
 50
67.5
 51
68.471114907
  0
ARC
  5
F7
330
F1
100
AcDbEntity
  8
FORMAT
 62
     0
100
AcDbCircle
 10
56.4458062738
 20
-136.2722310454
 30
0.0
 40
147.4999999999999
100
AcDbArc
 50
66.528885093
 51
67.5
  0
ARC
  5
F8
330
F1
100
AcDbEntity
  8
FORMAT
 62
     0
100
AcDbCircle
 10
56.4458062738
 20
-136.2722310454
 30
0.0
 40
147.4999999999999
100
AcDbArc
 50
22.5
 51
23.471114907
  0
ARC
  5
F9
330
F1
100
AcDbEntity
  8
FORMAT
 62
     0
100
AcDbCircle
 10
56.4458062738
 20
-136.2722310454
 30
0.0
 40
147.4999999999999
100
AcDbArc
 50
21.528885093
 51
22.5
  0
ARC
  5
FA
330
F1
100
AcDbEntity
  8
FORMAT
 62
     0
100
AcDbCircle
 10
56.4458062738
 20
-136.2722310454
 30
0.0
 40
147.5
100
AcDbArc
 50
337.5
 51
338.471114907
  0
ARC
  5
FB
330
F1
100
AcDbEntity
  8
FORMAT
 62
     0
100
AcDbCircle
 10
56.4458062738
 20
-136.2722310454
 30
0.0
 40
147.5
100
AcDbArc
 50
336.528885093
 51
337.5
  0
ARC
  5
FC
330
F1
100
AcDbEntity
  8
FORMAT
 62
     0
100
AcDbCircle
 10
56.4458062738
 20
-136.2722310454
 30
0.0
 40
147.5000000000001
100
AcDbArc
 50
292.5
 51
293.471114907
  0
ARC
  5
FD
330
F1
100
AcDbEntity
  8
FORMAT
 62
     0
100
AcDbCircle
 10
56.4458062738
 20
-136.2722310454
 30
0.0
 40
147.5000000000001
100
AcDbArc
 50
291.528885093
 51
292.5
  0
ARC
  5
FE
330
F1
100
AcDbEntity
  8
FORMAT
 62
     0
100
AcDbCircle
 10
56.4458062738
 20
-136.2722310454
 30
0.0
 40
147.5000000000001
100
AcDbArc
 50
247.5
 51
248.471114907
  0
ARC
  5
FF
330
F1
100
AcDbEntity
  8
FORMAT
 62
     0
100
AcDbCircle
 10
56.4458062738
 20
-136.2722310454
 30
0.0
 40
147.5000000000001
100
AcDbArc
 50
246.528885093
 51
247.5
  0
ARC
  5
100
330
F1
100
AcDbEntity
  8
FORMAT
 62
     0
100
AcDbCircle
 10
56.4458062738
 20
-136.2722310454
 30
0.0
 40
147.5000000000001
100
AcDbArc
 50
202.5
 51
203.471114907
  0
ARC
  5
101
330
F1
100
AcDbEntity
  8
FORMAT
 62
     0
100
AcDbCircle
 10
56.4458062738
 20
-136.2722310454
 30
0.0
 40
147.5000000000001
100
AcDbArc
 50
201.528885093
 51
202.5
  0
ARC
  5
102
330
F1
100
AcDbEntity
  8
FORMAT
 62
     0
100
AcDbCircle
 10
56.4458062738
 20
-136.2722310454
 30
0.0
 40
147.5
100
AcDbArc
 50
157.5
 51
158.471114907
  0
ARC
  5
103
330
F1
100
AcDbEntity
  8
FORMAT
 62
     0
100
AcDbCircle
 10
56.4458062738
 20
-136.2722310454
 30
0.0
 40
147.5
100
AcDbArc
 50
156.528885093
 51
157.5
  0
ARC
  5
104
330
F1
100
AcDbEntity
  8
FORMAT
 62
     0
100
AcDbCircle
 10
56.4458062738
 20
-136.2722310454
 30
0.0
 40
147.4999999999999
100
AcDbArc
 50
24.442229814
 51
65.557770186
  0
ARC
  5
105
330
F1
100
AcDbEntity
  8
FORMAT
 62
     0
100
AcDbCircle
 10
56.4458062738
 20
-136.2722310454
 30
0.0
 40
147.4999999999999
100
AcDbArc
 50
69.442229814
 51
110.557770186
  0
ARC
  5
106
330
F1
100
AcDbEntity
  8
FORMAT
 62
     0
100
AcDbCircle
 10
56.4458062738
 20
-136.2722310454
 30
0.0
 40
147.5
100
AcDbArc
 50
339.442229814
 51
20.557770186
  0
ARC
  5
107
330
F1
100
AcDbEntity
  8
FORMAT
 62
     0
100
AcDbCircle
 10
56.4458062738
 20
-136.2722310454
 30
0.0
 40
147.5
100
AcDbArc
 50
294.442229814
 51
335.557770186
  0
ARC
  5
108
330
F1
100
AcDbEntity
  8
FORMAT
 62
     0
100
AcDbCircle
 10
56.4458062738
 20
-136.2722310454
 30
0.0
 40
147.5000000000001
100
AcDbArc
 50
249.442229814
 51
290.557770186
  0
ARC
  5
109
330
F1
100
AcDbEntity
  8
FORMAT
 62
     0
100
AcDbCircle
 10
56.4458062738
 20
-136.2722310454
 30
0.0
 40
147.5000000000001
100
AcDbArc
 50
204.442229814
 51
245.557770186
  0
ARC
  5
10A
330
F1
100
AcDbEntity
  8
FORMAT
 62
     0
100
AcDbCircle
 10
56.4458062738
 20
-136.2722310454
 30
0.0
 40
147.4999999999999
100
AcDbArc
 50
114.442229814
 51
155.557770186
  0
ARC
  5
10B
330
F1
100
AcDbEntity
  8
FORMAT
 62
     0
100
AcDbCircle
 10
56.4458062738
 20
-136.2722310454
 30
0.0
 40
147.5000000000001
100
AcDbArc
 50
159.442229814
 51
200.557770186
  0
LINE
  5
10C
330
F1
100
AcDbEntity
  8
FORMAT
 62
     0
100
AcDbLine
 10
0.0
 20
0.0
 30
0.0
 11
-0.9567085809
 21
2.3096988313
 31
0.0
  0
LINE
  5
10D
330
F1
100
AcDbEntity
  8
FORMAT
 62
     0
100
AcDbLine
 10
0.0
 20
0.0
 30
0.0
 11
0.9567085809
 21
-2.3096988313
 31
0.0
  0
LINE
  5
10E
330
F1
100
AcDbEntity
  8
FORMAT
 62
     0
100
AcDbLine
 10
-1.9134171618
 20
4.6193976626
 30
0.0
 11
-5.7402514855
 21
13.8581929877
 31
0.0
  0
LINE
  5
10F
330
F1
100
AcDbEntity
  8
FORMAT
 62
     0
100
AcDbLine
 10
1.9134171618
 20
-4.6193976626
 30
0.0
 11
5.7402514855
 21
-13.8581929877
 31
0.0
  0
LINE
  5
110
330
F1
100
AcDbEntity
  8
FORMAT
 62
     0
100
AcDbLine
 10
112.8916125477
 20
0.0
 30
0.0
 11
113.8483211286
 21
2.3096988313
 31
0.0
  0
LINE
  5
111
330
F1
100
AcDbEntity
  8
FORMAT
 62
     0
100
AcDbLine
 10
112.8916125477
 20
0.0
 30
0.0
 11
111.9349039668
 21
-2.3096988313
 31
0.0
  0
LINE
  5
112
330
F1
100
AcDbEntity
  8
FORMAT
 62
     0
100
AcDbLine
 10
114.8050297095
 20
4.6193976626
 30
0.0
 11
118.6318640332
 21
13.8581929877
 31
0.0
  0
LINE
  5
113
330
F1
100
AcDbEntity
  8
FORMAT
 62
     0
100
AcDbLine
 10
110.9781953859
 20
-4.6193976626
 30
0.0
 11
107.1513610622
 21
-13.8581929877
 31
0.0
  0
LINE
  5
114
330
F1
100
AcDbEntity
  8
FORMAT
 62
     0
100
AcDbLine
 10
192.7180373193
 20
-79.8264247716
 30
0.0
 11
195.0277361505
 21
-78.8697161907
 31
0.0
  0
LINE
  5
115
330
F1
100
AcDbEntity
  8
FORMAT
 62
     0
100
AcDbLine
 10
192.7180373193
 20
-79.8264247716
 30
0.0
 11
190.408338488
 21
-80.7831333525
 31
0.0
  0
LINE
  5
116
330
F1
100
AcDbEntity
  8
FORMAT
 62
     0
100
AcDbLine
 10
197.3374349818
 20
-77.9130076097
 30
0.0
 11
206.5762303069
 21
-74.0861732861
 31
0.0
  0
LINE
  5
117
330
F1
100
AcDbEntity
  8
FORMAT
 62
     0
100
AcDbLine
 10
188.0986396567
 20
-81.7398419334
 30
0.0
 11
178.8598443316
 21
-85.566676257
 31
0.0
  0
LINE
  5
118
330
F1
100
AcDbEntity
  8
FORMAT
 62
     0
100
AcDbLine
 10
56.4458062738
 20
-136.2722310454
 30
0.0
 11
56.4458062738
 21
-133.7722310454
 31
0.0
  0
LINE
  5
119
330
F1
100
AcDbEntity
  8
FORMAT
 62
     0
100
AcDbLine
 10
56.4458062738
 20
-136.2722310454
 30
0.0
 11
53.9458062738
 21
-136.2722310454
 31
0.0
  0
LINE
  5
11A
330
F1
100
AcDbEntity
  8
FORMAT
 62
     0
100
AcDbLine
 10
56.4458062738
 20
-136.2722310454
 30
0.0
 11
56.4458062738
 21
-138.7722310454
 31
0.0
  0
LINE
  5
11B
330
F1
100
AcDbEntity
  8
FORMAT
 62
     0
100
AcDbLine
 10
56.4458062738
 20
-136.2722310454
 30
0.0
 11
58.9458062738
 21
-136.2722310454
 31
0.0
  0
LINE
  5
11C
330
F1
100
AcDbEntity
  8
FORMAT
 62
     0
100
AcDbLine
 10
56.4458062738
 20
-131.2722310454
 30
0.0
 11
56.4458062738
 21
52.9390706696
 31
0.0
  0
LINE
  5
11D
330
F1
100
AcDbEntity
  8
FORMAT
 62
     0
100
AcDbLine
 10
51.4458062738
 20
-136.2722310454
 30
0.0
 11
-119.0207144174
 21
-136.2722310454
 31
0.0
  0
LINE
  5
11E
330
F1
100
AcDbEntity
  8
FORMAT
 62
     0
100
AcDbLine
 10
56.4458062738
 20
-141.2722310454
 30
0.0
 11
56.4458062738
 21
-320.9594238304
 31
0.0
  0
LINE
  5
11F
330
F1
100
AcDbEntity
  8
FORMAT
 62
     0
100
AcDbLine
 10
61.4458062738
 20
-136.2722310454
 30
0.0
 11
225.1147158437
 21
-136.2722310454
 31
0.0
  0
LINE
  5
120
330
F1
100
AcDbEntity
  8
FORMAT
 62
     0
100
AcDbLine
 10
192.7180373193
 20
-192.7180373193
 30
0.0
 11
195.0277361505
 21
-193.6747459002
 31
0.0
  0
LINE
  5
121
330
F1
100
AcDbEntity
  8
FORMAT
 62
     0
100
AcDbLine
 10
192.7180373193
 20
-192.7180373193
 30
0.0
 11
190.408338488
 21
-191.7613287384
 31
0.0
  0
LINE
  5
122
330
F1
100
AcDbEntity
  8
FORMAT
 62
     0
100
AcDbLine
 10
197.3374349818
 20
-194.6314544811
 30
0.0
 11
206.5762303069
 21
-198.4582888047
 31
0.0
  0
LINE
  5
123
330
F1
100
AcDbEntity
  8
FORMAT
 62
     0
100
AcDbLine
 10
188.0986396567
 20
-190.8046201574
 30
0.0
 11
178.8598443316
 21
-186.9777858338
 31
0.0
  0
LINE
  5
124
330
F1
100
AcDbEntity
  8
FORMAT
 62
     0
100
AcDbLine
 10
112.8916125477
 20
-272.5444620908
 30
0.0
 11
113.8483211286
 21
-274.8541609221
 31
0.0
  0
LINE
  5
125
330
F1
100
AcDbEntity
  8
FORMAT
 62
     0
100
AcDbLine
 10
112.8916125477
 20
-272.5444620908
 30
0.0
 11
111.9349039668
 21
-270.2347632596
 31
0.0
  0
LINE
  5
126
330
F1
100
AcDbEntity
  8
FORMAT
 62
     0
100
AcDbLine
 10
114.8050297095
 20
-277.1638597534
 30
0.0
 11
118.6318640332
 21
-286.4026550785
 31
0.0
  0
LINE
  5
127
330
F1
100
AcDbEntity
  8
FORMAT
 62
     0
100
AcDbLine
 10
110.9781953859
 20
-267.9250644283
 30
0.0
 11
107.1513610622
 21
-258.6862691032
 31
0.0
  0
LINE
  5
128
330
F1
100
AcDbEntity
  8
FORMAT
 62
     0
100
AcDbLine
 10
0.0
 20
-272.5444620908
 30
0.0
 11
-0.9567085809
 21
-274.8541609221
 31
0.0
  0
LINE
  5
129
330
F1
100
AcDbEntity
  8
FORMAT
 62
     0
100
AcDbLine
 10
0.0
 20
-272.5444620908
 30
0.0
 11
0.9567085809
 21
-270.2347632596
 31
0.0
  0
LINE
  5
12A
330
F1
100
AcDbEntity
  8
FORMAT
 62
     0
100
AcDbLine
 10
-1.9134171618
 20
-277.1638597534
 30
0.0
 11
-5.7402514855
 21
-286.4026550785
 31
0.0
  0
LINE
  5
12B
330
F1
100
AcDbEntity
  8
FORMAT
 62
     0
100
AcDbLine
 10
1.9134171618
 20
-267.9250644283
 30
0.0
 11
5.7402514855
 21
-258.6862691032
 31
0.0
  0
LINE
  5
12C
330
F1
100
AcDbEntity
  8
FORMAT
 62
     0
100
AcDbLine
 10
-79.8264247716
 20
-192.7180373193
 30
0.0
 11
-82.1361236028
 21
-193.6747459002
 31
0.0
  0
LINE
  5
12D
330
F1
100
AcDbEntity
  8
FORMAT
 62
     0
100
AcDbLine
 10
-79.8264247716
 20
-192.7180373193
 30
0.0
 11
-77.5167259403
 21
-191.7613287384
 31
0.0
  0
LINE
  5
12E
330
F1
100
AcDbEntity
  8
FORMAT
 62
     0
100
AcDbLine
 10
-84.4458224341
 20
-194.6314544811
 30
0.0
 11
-93.6846177592
 21
-198.4582888047
 31
0.0
  0
LINE
  5
12F
330
F1
100
AcDbEntity
  8
FORMAT
 62
     0
100
AcDbLine
 10
-75.207027109
 20
-190.8046201574
 30
0.0
 11
-65.9682317839
 21
-186.9777858338
 31
0.0
  0
LINE
  5
130
330
F1
100
AcDbEntity
  8
FORMAT
 62
     0
100
AcDbLine
 10
-79.8264247716
 20
-79.8264247716
 30
0.0
 11
-82.1361236028
 21
-78.8697161907
 31
0.0
  0
LINE
  5
131
330
F1
100
AcDbEntity
  8
FORMAT
 62
     0
100
AcDbLine
 10
-79.8264247716
 20
-79.8264247716
 30
0.0
 11
-77.5167259403
 21
-80.7831333525
 31
0.0
  0
LINE
  5
132
330
F1
100
AcDbEntity
  8
FORMAT
 62
     0
100
AcDbLine
 10
-84.4458224341
 20
-77.9130076097
 30
0.0
 11
-93.6846177592
 21
-74.0861732861
 31
0.0
  0
LINE
  5
133
330
F1
100
AcDbEntity
  8
FORMAT
 62
     0
100
AcDbLine
 10
-75.207027109
 20
-81.7398419334
 30
0.0
 11
-65.9682317839
 21
-85.566676257
 31
0.0
  0
ENDBLK
  5
F3
330
F1
100
AcDbEntity
  8
0
100
AcDbBlockEnd
  0
BLOCK
  5
1C1
330
1C0
100
AcDbEntity
  8
0
100
AcDbBlockBegin
  2
SW_CENTERMARKSYMBOL_1
 70
     0
 10
0.0
 20
0.0
 30
0.0
  3
SW_CENTERMARKSYMBOL_1
  1

  0
LINE
  5
1C3
330
1C0
100
AcDbEntity
  8
FORMAT
 62
     0
100
AcDbLine
 10
0.0
 20
0.0
 30
0.0
 11
0.0
 21
2.5
 31
0.0
  0
LINE
  5
1C4
330
1C0
100
AcDbEntity
  8
FORMAT
 62
     0
100
AcDbLine
 10
0.0
 20
0.0
 30
0.0
 11
-2.5
 21
0.0
 31
0.0
  0
LINE
  5
1C5
330
1C0
100
AcDbEntity
  8
FORMAT
 62
     0
100
AcDbLine
 10
0.0
 20
0.0
 30
0.0
 11
0.0
 21
-2.5
 31
0.0
  0
LINE
  5
1C6
330
1C0
100
AcDbEntity
  8
FORMAT
 62
     0
100
AcDbLine
 10
0.0
 20
0.0
 30
0.0
 11
2.5
 21
0.0
 31
0.0
  0
LINE
  5
1C7
330
1C0
100
AcDbEntity
  8
FORMAT
 62
     0
100
AcDbLine
 10
0.0
 20
5.0
 30
0.0
 11
0.0
 21
79.403678986
 31
0.0
  0
LINE
  5
1C8
330
1C0
100
AcDbEntity
  8
FORMAT
 62
     0
100
AcDbLine
 10
-5.0
 20
0.0
 30
0.0
 11
-77.5766857093
 21
0.0
 31
0.0
  0
LINE
  5
1C9
330
1C0
100
AcDbEntity
  8
FORMAT
 62
     0
100
AcDbLine
 10
0.0
 20
-5.0
 30
0.0
 11
0.0
 21
-73.0833430257
 31
0.0
  0
LINE
  5
1CA
330
1C0
100
AcDbEntity
  8
FORMAT
 62
     0
100
AcDbLine
 10
5.0
 20
0.0
 30
0.0
 11
99.1146255106
 21
0.0
 31
0.0
  0
ENDBLK
  5
1C2
330
1C0
100
AcDbEntity
  8
0
100
AcDbBlockEnd
  0
BLOCK
  5
323
330
322
100
AcDbEntity
  8
0
100
AcDbBlockBegin
  2
SW_CENTERMARKSYMBOL_2
 70
     0
 10
0.0
 20
0.0
 30
0.0
  3
SW_CENTERMARKSYMBOL_2
  1

  0
LINE
  5
325
330
322
100
AcDbEntity
  8
FORMAT
 62
     0
100
AcDbLine
 10
0.0
 20
0.0
 30
0.0
 11
0.0
 21
2.5
 31
0.0
  0
LINE
  5
326
330
322
100
AcDbEntity
  8
FORMAT
 62
     0
100
AcDbLine
 10
0.0
 20
0.0
 30
0.0
 11
-2.5
 21
0.0
 31
0.0
  0
LINE
  5
327
330
322
100
AcDbEntity
  8
FORMAT
 62
     0
100
AcDbLine
 10
0.0
 20
0.0
 30
0.0
 11
0.0
 21
-2.5
 31
0.0
  0
LINE
  5
328
330
322
100
AcDbEntity
  8
FORMAT
 62
     0
100
AcDbLine
 10
0.0
 20
0.0
 30
0.0
 11
2.5
 21
0.0
 31
0.0
  0
LINE
  5
329
330
322
100
AcDbEntity
  8
FORMAT
 62
     0
100
AcDbLine
 10
0.0
 20
5.0
 30
0.0
 11
0.0
 21
12.5
 31
0.0
  0
LINE
  5
32A
330
322
100
AcDbEntity
  8
FORMAT
 62
     0
100
AcDbLine
 10
-5.0
 20
0.0
 30
0.0
 11
-12.5
 21
0.0
 31
0.0
  0
LINE
  5
32B
330
322
100
AcDbEntity
  8
FORMAT
 62
     0
100
AcDbLine
 10
0.0
 20
-5.0
 30
0.0
 11
0.0
 21
-12.5
 31
0.0
  0
LINE
  5
32C
330
322
100
AcDbEntity
  8
FORMAT
 62
     0
100
AcDbLine
 10
5.0
 20
0.0
 30
0.0
 11
12.5
 21
0.0
 31
0.0
  0
ENDBLK
  5
324
330
322
100
AcDbEntity
  8
0
100
AcDbBlockEnd
  0
BLOCK
  5
32F
330
32E
100
AcDbEntity
  8
0
100
AcDbBlockBegin
  2
SW_CENTERMARKSYMBOL_3
 70
     0
 10
0.0
 20
0.0
 30
0.0
  3
SW_CENTERMARKSYMBOL_3
  1

  0
LINE
  5
331
330
32E
100
AcDbEntity
  8
FORMAT
 62
     0
100
AcDbLine
 10
0.0
 20
0.0
 30
0.0
 11
0.0
 21
2.5
 31
0.0
  0
LINE
  5
332
330
32E
100
AcDbEntity
  8
FORMAT
 62
     0
100
AcDbLine
 10
0.0
 20
0.0
 30
0.0
 11
-2.5
 21
0.0
 31
0.0
  0
LINE
  5
333
330
32E
100
AcDbEntity
  8
FORMAT
 62
     0
100
AcDbLine
 10
0.0
 20
0.0
 30
0.0
 11
0.0
 21
-2.5
 31
0.0
  0
LINE
  5
334
330
32E
100
AcDbEntity
  8
FORMAT
 62
     0
100
AcDbLine
 10
0.0
 20
0.0
 30
0.0
 11
2.5
 21
0.0
 31
0.0
  0
LINE
  5
335
330
32E
100
AcDbEntity
  8
FORMAT
 62
     0
100
AcDbLine
 10
0.0
 20
5.0
 30
0.0
 11
0.0
 21
25.6401462667
 31
0.0
  0
LINE
  5
336
330
32E
100
AcDbEntity
  8
FORMAT
 62
     0
100
AcDbLine
 10
-5.0
 20
0.0
 30
0.0
 11
-22.9791415046
 21
0.0
 31
0.0
  0
LINE
  5
337
330
32E
100
AcDbEntity
  8
FORMAT
 62
     0
100
AcDbLine
 10
0.0
 20
-5.0
 30
0.0
 11
0.0
 21
-24.8406635763
 31
0.0
  0
LINE
  5
338
330
32E
100
AcDbEntity
  8
FORMAT
 62
     0
100
AcDbLine
 10
5.0
 20
0.0
 30
0.0
 11
18.1681501494
 21
0.0
 31
0.0
  0
ENDBLK
  5
330
330
32E
100
AcDbEntity
  8
0
100
AcDbBlockEnd
  0
BLOCK
  5
33B
330
33A
100
AcDbEntity
  8
0
100
AcDbBlockBegin
  2
SW_CENTERMARKSYMBOL_4
 70
     0
 10
0.0
 20
0.0
 30
0.0
  3
SW_CENTERMARKSYMBOL_4
  1

  0
LINE
  5
33D
330
33A
100
AcDbEntity
  8
FORMAT
 62
     0
100
AcDbLine
 10
0.0
 20
0.0
 30
0.0
 11
0.0
 21
2.5
 31
0.0
  0
LINE
  5
33E
330
33A
100
AcDbEntity
  8
FORMAT
 62
     0
100
AcDbLine
 10
0.0
 20
0.0
 30
0.0
 11
-2.5
 21
0.0
 31
0.0
  0
LINE
  5
33F
330
33A
100
AcDbEntity
  8
FORMAT
 62
     0
100
AcDbLine
 10
0.0
 20
0.0
 30
0.0
 11
0.0
 21
-2.5
 31
0.0
  0
LINE
  5
340
330
33A
100
AcDbEntity
  8
FORMAT
 62
     0
100
AcDbLine
 10
0.0
 20
0.0
 30
0.0
 11
2.5
 21
0.0
 31
0.0
  0
LINE
  5
341
330
33A
100
AcDbEntity
  8
FORMAT
 62
     0
100
AcDbLine
 10
0.0
 20
5.0
 30
0.0
 11
0.0
 21
20.6561649764
 31
0.0
  0
LINE
  5
342
330
33A
100
AcDbEntity
  8
FORMAT
 62
     0
100
AcDbLine
 10
-5.0
 20
0.0
 30
0.0
 11
-20.6561649764
 21
0.0
 31
0.0
  0
LINE
  5
343
330
33A
100
AcDbEntity
  8
FORMAT
 62
     0
100
AcDbLine
 10
0.0
 20
-5.0
 30
0.0
 11
0.0
 21
-20.6561649764
 31
0.0
  0
LINE
  5
344
330
33A
100
AcDbEntity
  8
FORMAT
 62
     0
100
AcDbLine
 10
5.0
 20
0.0
 30
0.0
 11
20.6561649764
 21
0.0
 31
0.0
  0
ENDBLK
  5
33C
330
33A
100
AcDbEntity
  8
0
100
AcDbBlockEnd
  0
BLOCK
  5
347
330
346
100
AcDbEntity
  8
0
100
AcDbBlockBegin
  2
SW_CENTERMARKSYMBOL_5
 70
     0
 10
0.0
 20
0.0
 30
0.0
  3
SW_CENTERMARKSYMBOL_5
  1

  0
LINE
  5
349
330
346
100
AcDbEntity
  8
FORMAT
 62
     0
100
AcDbLine
 10
0.0
 20
0.0
 30
0.0
 11
0.0
 21
2.5
 31
0.0
  0
LINE
  5
34A
330
346
100
AcDbEntity
  8
FORMAT
 62
     0
100
AcDbLine
 10
0.0
 20
0.0
 30
0.0
 11
-2.5
 21
0.0
 31
0.0
  0
LINE
  5
34B
330
346
100
AcDbEntity
  8
FORMAT
 62
     0
100
AcDbLine
 10
0.0
 20
0.0
 30
0.0
 11
0.0
 21
-2.5
 31
0.0
  0
LINE
  5
34C
330
346
100
AcDbEntity
  8
FORMAT
 62
     0
100
AcDbLine
 10
0.0
 20
0.0
 30
0.0
 11
2.5
 21
0.0
 31
0.0
  0
LINE
  5
34D
330
346
100
AcDbEntity
  8
FORMAT
 62
     0
100
AcDbLine
 10
0.0
 20
5.0
 30
0.0
 11
0.0
 21
20.6561649764
 31
0.0
  0
LINE
  5
34E
330
346
100
AcDbEntity
  8
FORMAT
 62
     0
100
AcDbLine
 10
-5.0
 20
0.0
 30
0.0
 11
-20.6561649764
 21
0.0
 31
0.0
  0
LINE
  5
34F
330
346
100
AcDbEntity
  8
FORMAT
 62
     0
100
AcDbLine
 10
0.0
 20
-5.0
 30
0.0
 11
0.0
 21
-20.6561649764
 31
0.0
  0
LINE
  5
350
330
346
100
AcDbEntity
  8
FORMAT
 62
     0
100
AcDbLine
 10
5.0
 20
0.0
 30
0.0
 11
20.6561649764
 21
0.0
 31
0.0
  0
ENDBLK
  5
348
330
346
100
AcDbEntity
  8
0
100
AcDbBlockEnd
  0
BLOCK
  5
353
330
352
100
AcDbEntity
  8
0
100
AcDbBlockBegin
  2
SW_CENTERMARKSYMBOL_6
 70
     0
 10
0.0
 20
0.0
 30
0.0
  3
SW_CENTERMARKSYMBOL_6
  1

  0
LINE
  5
355
330
352
100
AcDbEntity
  8
FORMAT
 62
     0
100
AcDbLine
 10
0.0
 20
0.0
 30
0.0
 11
0.0
 21
2.5
 31
0.0
  0
LINE
  5
356
330
352
100
AcDbEntity
  8
FORMAT
 62
     0
100
AcDbLine
 10
0.0
 20
0.0
 30
0.0
 11
-2.5
 21
0.0
 31
0.0
  0
LINE
  5
357
330
352
100
AcDbEntity
  8
FORMAT
 62
     0
100
AcDbLine
 10
0.0
 20
0.0
 30
0.0
 11
0.0
 21
-2.5
 31
0.0
  0
LINE
  5
358
330
352
100
AcDbEntity
  8
FORMAT
 62
     0
100
AcDbLine
 10
0.0
 20
0.0
 30
0.0
 11
2.5
 21
0.0
 31
0.0
  0
LINE
  5
359
330
352
100
AcDbEntity
  8
FORMAT
 62
     0
100
AcDbLine
 10
0.0
 20
5.0
 30
0.0
 11
0.0
 21
20.6561649764
 31
0.0
  0
LINE
  5
35A
330
352
100
AcDbEntity
  8
FORMAT
 62
     0
100
AcDbLine
 10
-5.0
 20
0.0
 30
0.0
 11
-20.6561649764
 21
0.0
 31
0.0
  0
LINE
  5
35B
330
352
100
AcDbEntity
  8
FORMAT
 62
     0
100
AcDbLine
 10
0.0
 20
-5.0
 30
0.0
 11
0.0
 21
-20.6561649764
 31
0.0
  0
LINE
  5
35C
330
352
100
AcDbEntity
  8
FORMAT
 62
     0
100
AcDbLine
 10
5.0
 20
0.0
 30
0.0
 11
20.6561649764
 21
0.0
 31
0.0
  0
ENDBLK
  5
354
330
352
100
AcDbEntity
  8
0
100
AcDbBlockEnd
  0
BLOCK
  5
35F
330
35E
100
AcDbEntity
  8
0
100
AcDbBlockBegin
  2
SW_CENTERMARKSYMBOL_7
 70
     0
 10
0.0
 20
0.0
 30
0.0
  3
SW_CENTERMARKSYMBOL_7
  1

  0
LINE
  5
361
330
35E
100
AcDbEntity
  8
FORMAT
 62
     0
100
AcDbLine
 10
0.0
 20
0.0
 30
0.0
 11
0.0
 21
2.5
 31
0.0
  0
LINE
  5
362
330
35E
100
AcDbEntity
  8
FORMAT
 62
     0
100
AcDbLine
 10
0.0
 20
0.0
 30
0.0
 11
-2.5
 21
0.0
 31
0.0
  0
LINE
  5
363
330
35E
100
AcDbEntity
  8
FORMAT
 62
     0
100
AcDbLine
 10
0.0
 20
0.0
 30
0.0
 11
0.0
 21
-2.5
 31
0.0
  0
LINE
  5
364
330
35E
100
AcDbEntity
  8
FORMAT
 62
     0
100
AcDbLine
 10
0.0
 20
0.0
 30
0.0
 11
2.5
 21
0.0
 31
0.0
  0
LINE
  5
365
330
35E
100
AcDbEntity
  8
FORMAT
 62
     0
100
AcDbLine
 10
0.0
 20
5.0
 30
0.0
 11
0.0
 21
20.6561649764
 31
0.0
  0
LINE
  5
366
330
35E
100
AcDbEntity
  8
FORMAT
 62
     0
100
AcDbLine
 10
-5.0
 20
0.0
 30
0.0
 11
-20.6561649764
 21
0.0
 31
0.0
  0
LINE
  5
367
330
35E
100
AcDbEntity
  8
FORMAT
 62
     0
100
AcDbLine
 10
0.0
 20
-5.0
 30
0.0
 11
0.0
 21
-20.6561649764
 31
0.0
  0
LINE
  5
368
330
35E
100
AcDbEntity
  8
FORMAT
 62
     0
100
AcDbLine
 10
5.0
 20
0.0
 30
0.0
 11
20.6561649764
 21
0.0
 31
0.0
  0
ENDBLK
  5
360
330
35E
100
AcDbEntity
  8
0
100
AcDbBlockEnd
  0
ENDSEC
  0
SECTION
  2
ENTITIES
  0
LINE
  5
48
330
1F
100
AcDbEntity
  8
TOOLING_TABLE
 62
     7
100
AcDbLine
 10
558.0
 20
36.8671069427
 30
0.0
 11
644.0
 21
36.8671069427
 31
0.0
  0
LINE
  5
49
330
1F
100
AcDbEntity
  8
TOOLING_TABLE
 62
     7
100
AcDbLine
 10
558.0
 20
24.8671069427
 30
0.0
 11
644.0
 21
24.8671069427
 31
0.0
  0
LINE
  5
4A
330
1F
100
AcDbEntity
  8
TOOLING_TABLE
 62
     7
100
AcDbLine
 10
558.0
 20
63.8671069427
 30
0.0
 11
558.0
 21
12.8671069427
 31
0.0
  0
LINE
  5
4B
330
1F
100
AcDbEntity
  8
TOOLING_TABLE
100
AcDbLine
 10
558.0
 20
12.8671069427
 30
0.0
 11
644.0
 21
12.8671069427
 31
0.0
  0
LINE
  5
4C
330
1F
100
AcDbEntity
  8
TOOLING_TABLE
100
AcDbLine
 10
644.0
 20
63.8671069427
 30
0.0
 11
644.0
 21
12.8671069427
 31
0.0
  0
LINE
  5
4D
330
1F
100
AcDbEntity
  8
TOOLING_TABLE
 62
     7
100
AcDbLine
 10
558.0
 20
45.8671069427
 30
0.0
 11
644.0
 21
45.8671069427
 31
0.0
  0
LINE
  5
4E
330
1F
100
AcDbEntity
  8
TOOLING_TABLE
 62
     7
100
AcDbLine
 10
558.0
 20
54.8671069427
 30
0.0
 11
644.0
 21
54.8671069427
 31
0.0
  0
LINE
  5
4F
330
1F
100
AcDbEntity
  8
TOOLING_TABLE
 62
     7
100
AcDbLine
 10
558.0
 20
63.8671069427
 30
0.0
 11
644.0
 21
63.8671069427
 31
0.0
  0
LINE
  5
50
330
1F
100
AcDbEntity
  8
TOOLING_TABLE
 62
     7
100
AcDbLine
 10
601.0
 20
63.8671069427
 30
0.0
 11
601.0
 21
36.8671069427
 31
0.0
  0
LINE
  5
51
330
1F
100
AcDbEntity
  8
TOOLING_TABLE
 62
     7
370
     0
100
AcDbLine
 10
624.0
 20
54.8671069427
 30
0.0
 11
624.0
 21
45.8671069427
 31
0.0
  0
MTEXT
  5
53
330
1F
100
AcDbEntity
  8
TOOLING_TABLE
100
AcDbMText
 10
602.1062783613
 20
54.2702582207
 30
0.0
 40
1.2
 41
0.0
 71
     1
 72
     1
  1
Date:
  7
SLDTEXTSTYLE0
 73
     1
 44
1.0
  0
MTEXT
  5
54
330
1F
100
AcDbEntity
  8
TOOLING_TABLE
100
AcDbMText
 10
603.018097772
 20
49.8283199631
 30
0.0
 40
2.5
 41
0.0
 71
     1
 72
     1
  1
yyyy.mm.dd
  7
SLDTEXTSTYLE0
 73
     1
 44
1.0
  0
MTEXT
  5
55
330
1F
100
AcDbEntity
  8
TOOLING_TABLE
100
AcDbMText
 10
560.201296573
 20
19.1574227188
 30
0.0
 40
2.6458333333
 41
0.0
 71
     1
 72
     1
  1
-
  7
SLDTEXTSTYLE0
 73
     1
 44
1.0
  0
MTEXT
  5
56
330
1F
100
AcDbEntity
  8
TOOLING_TABLE
100
AcDbMText
 10
560.201296573
 20
31.4173726938
 30
0.0
 40
2.6458333333
 41
0.0
 71
     1
 72
     1
  1
-
  7
SLDTEXTSTYLE0
 73
     1
 44
1.0
  0
MTEXT
  5
57
330
1F
100
AcDbEntity
  8
TOOLING_TABLE
100
AcDbMText
 10
560.201296573
 20
41.3865649653
 30
0.0
 40
2.6458333333
 41
0.0
 71
     1
 72
     1
  1
-
  7
SLDTEXTSTYLE0
 73
     1
 44
1.0
  0
MTEXT
  5
58
330
1F
100
AcDbEntity
  8
TOOLING_TABLE
100
AcDbMText
 10
559.8363625628
 20
49.9958228804
 30
0.0
 40
2.6458333333
 41
0.0
 71
     1
 72
     1
  1
-
  7
SLDTEXTSTYLE0
 73
     1
 44
1.0
  0
MTEXT
  5
59
330
1F
100
AcDbEntity
  8
TOOLING_TABLE
100
AcDbMText
 10
603.9499678367
 20
41.662126356
 30
0.0
 40
2.5
 41
0.0
 71
     1
 72
     1
  1
-
  7
SLDTEXTSTYLE0
 73
     1
 44
1.0
  0
MTEXT
  5
5A
330
1F
100
AcDbEntity
  8
TOOLING_TABLE
100
AcDbMText
 10
630.2212650386
 20
50.3962796907
 30
0.0
 40
3.175
 41
0.0
 71
     1
 72
     1
  1
-
  7
SLDTEXTSTYLE0
 73
     1
 44
1.0
  0
MTEXT
  5
5B
330
1F
100
AcDbEntity
  8
TOOLING_TABLE
100
AcDbMText
 10
610.1822179805
 20
60.6243780584
 30
0.0
 40
3.175
 41
0.0
 71
     1
 72
     1
  1
T-
  7
SLDTEXTSTYLE0
 73
     1
 44
1.0
  0
MTEXT
  5
5C
330
1F
100
AcDbEntity
  8
TOOLING_TABLE
 62
     7
100
AcDbMText
 10
559.1184091958
 20
45.4874334828
 30
0.0
 40
1.2
 41
0.0
 71
     1
 72
     1
  1
Not specified chamfer:
  7
SLDTEXTSTYLE0
 73
     1
 44
1.0
  0
MTEXT
  5
5D
330
1F
100
AcDbEntity
  8
TOOLING_TABLE
100
AcDbMText
 10
559.1184091958
 20
54.2702582207
 30
0.0
 40
1.2
 41
0.0
 71
     1
 72
     1
  1
Not specified tolerance:
  7
SLDTEXTSTYLE0
 73
     1
 44
1.0
  0
MTEXT
  5
5E
330
1F
100
AcDbEntity
  8
TOOLING_TABLE
100
AcDbMText
 10
559.1184091958
 20
36.1184577829
 30
0.0
 40
1.2
 41
0.0
 71
     1
 72
     1
  1
Hardening & Surfacing:
  7
SLDTEXTSTYLE0
 73
     1
 44
1.0
  0
MTEXT
  5
5F
330
1F
100
AcDbEntity
  8
TOOLING_TABLE
100
AcDbMText
 10
559.1184091958
 20
24.3382170231
 30
0.0
 40
1.2
 41
0.0
 71
     1
 72
     1
  1
Notes:
  7
SLDTEXTSTYLE0
 73
     1
 44
1.0
  0
MTEXT
  5
60
330
1F
100
AcDbEntity
  8
TOOLING_TABLE
100
AcDbMText
 10
602.1062783613
 20
45.4874334828
 30
0.0
 40
1.2
 41
0.0
 71
     1
 72
     1
  1
Ekstern part no.:
  7
SLDTEXTSTYLE0
 73
     1
 44
1.0
  0
MTEXT
  5
61
330
1F
100
AcDbEntity
  8
TOOLING_TABLE
100
AcDbMText
 10
624.6246212708
 20
54.2702582207
 30
0.0
 40
1.2
 41
0.0
 71
     1
 72
     1
  1
Number:
  7
SLDTEXTSTYLE0
 73
     1
 44
1.0
  0
MTEXT
  5
62
330
1F
100
AcDbEntity
  8
TOOLING_TABLE
100
AcDbMText
 10
601.8747919494
 20
63.2637332969
 30
0.0
 40
1.2
 41
0.0
 71
     1
 72
     1
  1
Order no.:
  7
SLDTEXTSTYLE0
 73
     1
 44
1.0
  0
MTEXT
  5
63
330
1F
100
AcDbEntity
  8
TOOLING_TABLE
100
AcDbMText
 10
561.334242998
 20
60.6243780584
 30
0.0
 40
3.175
 41
0.0
 71
     1
 72
     1
  1
AVK Tech Tooling
  7
SLDTEXTSTYLE0
 73
     1
 44
1.0
  0
LINE
  5
64
330
1F
100
AcDbEntity
  8
0
  6
Continuous
 62
     7
370
    15
100
AcDbLine
 10
78.3868417642
 20
542.5010000156
 30
0.0
 11
78.3868417642
 21
646.5010021613
 31
0.0
  0
LINE
  5
65
330
1F
100
AcDbEntity
  8
0
  6
Continuous
 62
     7
370
    15
100
AcDbLine
 10
58.3868459365
 20
646.5010021613
 30
0.0
 11
58.3868459365
 21
542.5010000156
 31
0.0
  0
LINE
  5
66
330
1F
100
AcDbEntity
  8
0
  6
Continuous
 62
     7
370
    15
100
AcDbLine
 10
535.8868375918
 20
531.0009990619
 30
0.0
 11
491.3868442675
 21
531.0009990619
 31
0.0
  0
LINE
  5
67
330
1F
100
AcDbEntity
  8
0
  6
Continuous
 62
     7
370
    15
100
AcDbLine
 10
491.3868442675
 20
406.0009990619
 30
0.0
 11
535.8868375918
 21
406.0009990619
 31
0.0
  0
LINE
  5
68
330
1F
100
AcDbEntity
  8
0
  6
Continuous
 62
     7
370
    15
100
AcDbLine
 10
108.8868365189
 20
406.0009990619
 30
0.0
 11
126.3868347308
 21
406.0009990619
 31
0.0
  0
LINE
  5
69
330
1F
100
AcDbEntity
  8
0
  6
Continuous
 62
     7
370
    15
100
AcDbLine
 10
126.3868347308
 20
531.0009990619
 30
0.0
 11
108.8868365189
 21
531.0009990619
 31
0.0
  0
LINE
  5
6A
330
1F
100
AcDbEntity
  8
0
  6
Continuous
 62
     7
370
    15
100
AcDbLine
 10
29.8868254325
 20
505.0009985254
 30
0.0
 11
28.8868383071
 21
505.0009985254
 31
0.0
  0
LINE
  5
6B
330
1F
100
AcDbEntity
  8
0
  6
Continuous
 62
     7
370
    15
100
AcDbLine
 10
28.8868383071
 20
432.0009995983
 30
0.0
 11
29.8868254325
 21
432.0009995983
 31
0.0
  0
LINE
  5
6C
330
1F
100
AcDbEntity
  8
0
  6
Continuous
 62
     7
370
    15
100
AcDbLine
 10
29.8868254325
 20
399.5010007904
 30
0.0
 11
41.8768361709
 21
399.5010007904
 31
0.0
  0
LINE
  5
6D
330
1F
100
AcDbEntity
  8
0
  6
Continuous
 62
     7
370
    15
100
AcDbLine
 10
102.5668368241
 20
399.5010007904
 30
0.0
 11
108.8868365189
 21
399.5010007904
 31
0.0
  0
LINE
  5
6E
330
1F
100
AcDbEntity
  8
0
  6
Continuous
 62
     7
370
    15
100
AcDbLine
 10
108.8868365189
 20
537.5009973334
 30
0.0
 11
102.5668368241
 21
537.5009973334
 31
0.0
  0
LINE
  5
6F
330
1F
100
AcDbEntity
  8
0
  6
Continuous
 62
     7
370
    15
100
AcDbLine
 10
41.8768361709
 20
537.5009973334
 30
0.0
 11
29.8868254325
 21
537.5009973334
 31
0.0
  0
CIRCLE
  5
70
330
1F
100
AcDbEntity
  8
0
  6
Continuous
 62
     7
370
    15
100
AcDbCircle
 10
308.8868394992
 20
463.5009990619
 30
0.0
 40
101.9999999999999
  0
CIRCLE
  5
71
330
1F
100
AcDbEntity
  8
0
  6
Continuous
 62
     7
370
    15
100
AcDbCircle
 10
308.8868394992
 20
463.5009990619
 30
0.0
 40
133.0
  0
CIRCLE
  5
72
330
1F
100
AcDbEntity
  8
0
  6
Continuous
 62
     7
370
    15
100
AcDbCircle
 10
172.6146084538
 20
407.055192788
 30
0.0
 40
12.5
  0
CIRCLE
  5
73
330
1F
100
AcDbEntity
  8
0
  6
Continuous
 62
     7
370
    15
100
AcDbCircle
 10
252.4410332253
 20
327.2287680165
 30
0.0
 40
12.50000000000004
  0
CIRCLE
  5
74
330
1F
100
AcDbEntity
  8
0
  6
Continuous
 62
     7
370
    15
100
AcDbCircle
 10
365.332645773
 20
599.7732301073
 30
0.0
 40
12.49999999999998
  0
CIRCLE
  5
75
330
1F
100
AcDbEntity
  8
0
  6
Continuous
 62
     7
370
    15
100
AcDbCircle
 10
252.4410332253
 20
599.7732301073
 30
0.0
 40
12.49999999999989
  0
LINE
  5
76
330
1F
100
AcDbEntity
  8
0
  6
Continuous
 62
     7
370
    15
100
AcDbLine
 10
333.8868398717
 20
635.5009947704
 30
0.0
 11
343.8868396482
 21
645.5010001348
 31
0.0
  0
LINE
  5
77
330
1F
100
AcDbEntity
  8
0
  6
Continuous
 62
     7
370
    15
100
AcDbLine
 10
343.8868396482
 20
645.5010001348
 30
0.0
 11
378.8868397972
 21
645.5010001348
 31
0.0
  0
LINE
  5
78
330
1F
100
AcDbEntity
  8
0
  6
Continuous
 62
     7
370
    15
100
AcDbLine
 10
378.8868397972
 20
645.5010001348
 30
0.0
 11
378.8868397972
 21
618.4203301357
 31
0.0
  0
ARC
  5
79
330
1F
100
AcDbEntity
  8
0
  6
Continuous
 62
     7
370
    15
100
AcDbCircle
 10
308.8868394992
 20
463.5009990619
 30
0.0
 40
170.0
100
AcDbArc
 50
294.3157391712
 51
65.6842608288
  0
LINE
  5
7A
330
1F
100
AcDbEntity
  8
0
  6
Continuous
 62
     7
370
    15
100
AcDbLine
 10
378.8868397972
 20
281.5009926246
 30
0.0
 11
378.8868397972
 21
308.5816626237
 31
0.0
  0
LINE
  5
7B
330
1F
100
AcDbEntity
  8
0
  6
Continuous
 62
     7
370
    15
100
AcDbLine
 10
343.8868396482
 20
281.5009926246
 30
0.0
 11
378.8868397972
 21
281.5009926246
 31
0.0
  0
LINE
  5
7C
330
1F
100
AcDbEntity
  8
0
  6
Continuous
 62
     7
370
    15
100
AcDbLine
 10
333.8868398717
 20
291.500997989
 30
0.0
 11
343.8868396482
 21
281.5009926246
 31
0.0
  0
LINE
  5
7D
330
1F
100
AcDbEntity
  8
0
  6
Continuous
 62
     7
370
    15
100
AcDbLine
 10
283.8868391266
 20
291.500997989
 30
0.0
 11
333.8868398717
 21
291.500997989
 31
0.0
  0
LINE
  5
7E
330
1F
100
AcDbEntity
  8
0
  6
Continuous
 62
     7
370
    15
100
AcDbLine
 10
273.8868393502
 20
281.5009926246
 30
0.0
 11
283.8868391266
 21
291.500997989
 31
0.0
  0
LINE
  5
7F
330
1F
100
AcDbEntity
  8
0
  6
Continuous
 62
     7
370
    15
100
AcDbLine
 10
238.8868392012
 20
281.5009926246
 30
0.0
 11
273.8868393502
 21
281.5009926246
 31
0.0
  0
LINE
  5
80
330
1F
100
AcDbEntity
  8
0
  6
Continuous
 62
     7
370
    15
100
AcDbLine
 10
238.8868392012
 20
308.5816626237
 30
0.0
 11
238.8868392012
 21
281.5009926246
 31
0.0
  0
ARC
  5
81
330
1F
100
AcDbEntity
  8
0
  6
Continuous
 62
     7
370
    15
100
AcDbCircle
 10
308.8868394992
 20
463.5009990619
 30
0.0
 40
170.0
100
AcDbArc
 50
114.3157391712
 51
245.6842608288
  0
LINE
  5
82
330
1F
100
AcDbEntity
  8
0
  6
Continuous
 62
     7
370
    15
100
AcDbLine
 10
238.8868392012
 20
645.5010001348
 30
0.0
 11
273.8868393502
 21
645.5010001348
 31
0.0
  0
LINE
  5
83
330
1F
100
AcDbEntity
  8
0
  6
Continuous
 62
     7
370
    15
100
AcDbLine
 10
273.8868393502
 20
645.5010001348
 30
0.0
 11
283.8868391266
 21
635.5009947704
 31
0.0
  0
LINE
  5
84
330
1F
100
AcDbEntity
  8
0
  6
Continuous
 62
     7
370
    15
100
AcDbLine
 10
283.8868391266
 20
635.5009947704
 30
0.0
 11
303.8868396109
 21
635.5009947704
 31
0.0
  0
LINE
  5
85
330
1F
100
AcDbEntity
  8
0
  6
Continuous
 62
     7
370
    15
100
AcDbLine
 10
308.8868394992
 20
632.5010035918
 30
0.0
 11
303.8868396109
 21
635.5009947704
 31
0.0
  0
LINE
  5
86
330
1F
100
AcDbEntity
  8
0
  6
Continuous
 62
     7
370
    15
100
AcDbLine
 10
313.8868393874
 20
635.5009947704
 30
0.0
 11
308.8868394992
 21
632.5010035918
 31
0.0
  0
LINE
  5
87
330
1F
100
AcDbEntity
  8
0
  6
Continuous
 62
     7
370
    15
100
AcDbLine
 10
313.8868393874
 20
635.5009947704
 30
0.0
 11
333.8868398717
 21
635.5009947704
 31
0.0
  0
CIRCLE
  5
88
330
1F
100
AcDbEntity
  8
0
  6
Continuous
 62
     7
370
    15
100
AcDbCircle
 10
445.1590705446
 20
519.9468053357
 30
0.0
 40
12.5
  0
CIRCLE
  5
89
330
1F
100
AcDbEntity
  8
0
  6
Continuous
 62
     7
370
    15
100
AcDbCircle
 10
172.6146084538
 20
519.9468053357
 30
0.0
 40
12.50000000000002
  0
CIRCLE
  5
8A
330
1F
100
AcDbEntity
  8
0
  6
Continuous
 62
     7
370
    15
100
AcDbCircle
 10
445.1590705446
 20
407.055192788
 30
0.0
 40
12.50000000000002
  0
CIRCLE
  5
8B
330
1F
100
AcDbEntity
  8
0
  6
Continuous
 62
     7
370
    15
100
AcDbCircle
 10
365.332645773
 20
327.2287680165
 30
0.0
 40
12.5
  0
LINE
  5
8C
330
1F
100
AcDbEntity
  8
0
  6
Continuous
 62
     7
370
    15
100
AcDbLine
 10
238.8868392012
 20
618.4203301357
 30
0.0
 11
238.8868392012
 21
645.5010001348
 31
0.0
  0
LINE
  5
8D
330
1F
100
AcDbEntity
  8
0
  6
Continuous
 62
     7
370
    15
100
AcDbLine
 10
102.5668368241
 20
405.5009980486
 30
0.0
 11
102.5668368241
 21
531.5010000752
 31
0.0
  0
LINE
  5
8E
330
1F
100
AcDbEntity
  8
0
  6
Continuous
 62
     7
370
    15
100
AcDbLine
 10
102.5668368241
 20
405.5009980486
 30
0.0
 11
93.1709096333
 21
405.5009980486
 31
0.0
  0
SPLINE
  5
8F
330
1F
100
AcDbEntity
  8
0
  6
Continuous
 62
     7
370
    15
100
AcDbSpline
210
0.0
220
0.0
230
1.0
 70
     8
 71
     3
 72
    32
 73
    28
 74
     0
 42
0.00000001
 43
0.00000001
 12
1.0
 22
0.0
 32
0.0
 13
1.0
 23
0.0
 33
0.0
 40
0.0
 40
0.0
 40
0.0
 40
0.0
 40
0.0156249999999996
 40
0.0156249999999996
 40
0.0312499999999992
 40
0.0312499999999992
 40
0.0624999999999989
 40
0.0624999999999989
 40
0.0937499999999985
 40
0.0937499999999985
 40
0.1249999999999982
 40
0.1249999999999982
 40
0.1874999999999975
 40
0.1874999999999975
 40
0.2499999999999968
 40
0.2499999999999968
 40
0.3749999999999973
 40
0.3749999999999973
 40
0.4999999999999979
 40
0.4999999999999979
 40
0.6249999999999984
 40
0.6249999999999984
 40
0.7499999999999989
 40
0.7499999999999989
 40
0.8749999999999994
 40
0.8749999999999994
 40
1.0
 40
1.0
 40
1.0
 40
1.0
 10
74.23918945453914
 20
415.5009990618912
 30
0.0
 10
74.23918945453914
 20
415.3679599730437
 30
0.0
 10
74.25462183393131
 20
415.237903526415
 30
0.0
 10
74.31207560699474
 20
414.9829331280319
 30
0.0
 10
74.35466453592241
 20
414.8568316310478
 30
0.0
 10
74.51112848995528
 20
414.4952955222827
 30
0.0
 10
74.65125653573867
 20
414.2757503343259
 30
0.0
 10
74.96932296734163
 20
413.8595782599841
 30
0.0
 10
75.14380151930705
 20
413.6681658557383
 30
0.0
 10
75.50777827200803
 20
413.3047968839696
 30
0.0
 10
75.69782885838089
 20
413.1327964707324
 30
0.0
 10
76.28268196818854
 20
412.6351411799538
 30
0.0
 10
76.69312826503646
 20
412.3264623783512
 30
0.0
 10
77.52500631370151
 20
411.7386443083956
 30
0.0
 10
77.94602417719435
 20
411.4605009967889
 30
0.0
 10
79.2152499102001
 20
410.6569091721082
 30
0.0
 10
80.06934943979446
 20
410.1617243802928
 30
0.0
 10
81.77814268677847
 20
409.2271794061882
 30
0.0
 10
82.6333461576405
 20
408.7887311979021
 30
0.0
 10
84.34213663230928
 20
407.9688498446607
 30
0.0
 10
85.19931004669837
 20
407.5863750267808
 30
0.0
 10
86.8777809253429
 20
406.9033006410689
 30
0.0
 10
87.70260536679386
 20
406.600759552401
 30
0.0
 10
89.3238907800199
 20
406.089342819758
 30
0.0
 10
90.12033811029637
 20
405.8801987702809
 30
0.0
 10
91.685951546805
 20
405.5848445434044
 30
0.0
 10
92.44350127138013
 20
405.5009990618911
 30
0.0
 10
93.17090696196334
 20
405.5009990618912
 30
0.0
  0
LINE
  5
90
330
1F
100
AcDbEntity
  8
0
  6
Continuous
 62
     7
370
    15
100
AcDbLine
 10
74.2391929528
 20
415.5009996877
 30
0.0
 11
74.2391929528
 21
521.500998436
 31
0.0
  0
SPLINE
  5
91
330
1F
100
AcDbEntity
  8
0
  6
Continuous
 62
     7
370
    15
100
AcDbSpline
210
0.0
220
0.0
230
1.0
 70
     8
 71
     3
 72
    34
 73
    30
 74
     0
 42
0.00000001
 43
0.00000001
 12
1.0
 22
0.0
 32
0.0
 13
1.0
 23
0.0
 33
0.0
 40
0.0
 40
0.0
 40
0.0
 40
0.0
 40
0.1250000000000019
 40
0.1250000000000019
 40
0.2500000000000038
 40
0.2500000000000038
 40
0.3125000000000034
 40
0.3125000000000034
 40
0.3750000000000031
 40
0.3750000000000031
 40
0.5000000000000031
 40
0.5000000000000031
 40
0.6250000000000032
 40
0.6250000000000032
 40
0.6875000000000034
 40
0.6875000000000034
 40
0.7500000000000036
 40
0.7500000000000036
 40
0.8125000000000038
 40
0.8125000000000038
 40
0.875000000000004
 40
0.875000000000004
 40
0.906250000000003
 40
0.906250000000003
 40
0.937500000000002
 40
0.937500000000002
 40
0.9687500000000011
 40
0.9687500000000011
 40
1.0
 40
1.0
 40
1.0
 40
1.0
 10
93.17090696196334
 20
531.5009990618911
 30
0.0
 10
92.4421543851412
 20
531.5009990618911
 30
0.0
 10
91.69086528086423
 20
531.4173773457119
 30
0.0
 10
90.14309667857646
 20
531.126783534319
 30
0.0
 10
89.34663157549538
 20
530.9193214950309
 30
0.0
 10
88.117719532263
 20
530.5324288698677
 30
0.0
 10
87.70301882808174
 20
530.390864084749
 30
0.0
 10
86.8731394594194
 20
530.0885075001696
 30
0.0
 10
86.45660411254488
 20
529.9272964350486
 30
0.0
 10
85.20196747119607
 20
529.4167004856743
 30
0.0
 10
84.35877040177753
 20
529.0406509740335
 30
0.0
 10
82.65896741732615
 20
528.2260265445226
 30
0.0
 10
81.80226688890515
 20
527.7876136414252
 30
0.0
 10
80.50953765389183
 20
527.0812078125633
 30
0.0
 10
80.07696127110157
 20
526.8372485201652
 30
0.0
 10
79.21621027098269
 20
526.3339403561514
 30
0.0
 10
78.78735768213649
 20
526.0743210173118
 30
0.0
 10
77.93551688624942
 20
525.5346961322682
 30
0.0
 10
77.51223545701072
 20
525.2547165829106
 30
0.0
 10
76.68146126322881
 20
524.6668932675027
 30
0.0
 10
76.27182280217457
 20
524.3583861678202
 30
0.0
 10
75.68723018096837
 20
523.8597824785319
 30
0.0
 10
75.4975745462932
 20
523.6876256706123
 30
0.0
 10
75.13520125095651
 20
523.3246027636061
 30
0.0
 10
74.96221663629369
 20
523.13401773251
 30
0.0
 10
74.64697062470007
 20
522.7197109198688
 30
0.0
 10
74.50741307228986
 20
522.499982438081
 30
0.0
 10
74.30077396418827
 20
522.0187287458932
 30
0.0
 10
74.23918945453914
 20
521.765353257804
 30
0.0
 10
74.23918945453914
 20
521.5009990618912
 30
0.0
  0
LINE
  5
92
330
1F
100
AcDbEntity
  8
0
  6
Continuous
 62
     7
370
    15
100
AcDbLine
 10
93.1709096333
 20
531.5010000752
 30
0.0
 11
102.5668368241
 21
531.5010000752
 31
0.0
  0
LINE
  5
93
330
1F
100
AcDbEntity
  8
0
  6
Continuous
 62
     7
370
    15
100
AcDbLine
 10
29.8868254325
 20
405.5009980486
 30
0.0
 11
29.8868254325
 21
415.5009996877
 31
0.0
  0
LINE
  5
94
330
1F
100
AcDbEntity
  8
0
  6
Continuous
 62
     7
370
    15
100
AcDbLine
 10
93.1709096333
 20
405.5009980486
 30
0.0
 11
89.8378924033
 21
405.5009980486
 31
0.0
  0
SPLINE
  5
95
330
1F
100
AcDbEntity
  8
0
  6
Continuous
 62
     7
370
    15
100
AcDbSpline
210
0.0
220
0.0
230
1.0
 70
     8
 71
     3
 72
    24
 73
    20
 74
     0
 42
0.00000001
 43
0.00000001
 12
1.0
 22
0.0
 32
0.0
 13
1.0
 23
0.0
 33
0.0
 40
0.0
 40
0.0
 40
0.0
 40
0.0
 40
0.1250000000000023
 40
0.1250000000000023
 40
0.2500000000000046
 40
0.2500000000000046
 40
0.3125000000000057
 40
0.3125000000000057
 40
0.3750000000000068
 40
0.3750000000000068
 40
0.5000000000000056
 40
0.5000000000000056
 40
0.7500000000000036
 40
0.7500000000000036
 40
0.8125000000000032
 40
0.8125000000000032
 40
0.8750000000000028
 40
0.8750000000000028
 40
1.0
 40
1.0
 40
1.0
 40
1.0
 10
67.56683949917519
 20
409.5009990618911
 30
0.0
 10
68.59037003713692
 20
409.5009990618911
 30
0.0
 10
69.60499053439526
 20
409.4400739098987
 30
0.0
 10
71.618435620523
 20
409.2159839721177
 30
0.0
 10
72.61731496207722
 20
409.0534166701278
 30
0.0
 10
74.10623732141491
 20
408.7597722048127
 30
0.0
 10
74.60197355061274
 20
408.6533988358942
 30
0.0
 10
75.58143202850634
 20
408.4308775407438
 30
0.0
 10
76.06612361932655
 20
408.3145749193266
 30
0.0
 10
77.50687458459335
 20
407.9571119045377
 30
0.0
 10
78.44969727570017
 20
407.7075924138874
 30
0.0
 10
81.2356188092396
 20
406.9688322904271
 30
0.0
 10
83.03661387050174
 20
406.4882814930924
 30
0.0
 10
85.23794729550502
 20
406.0284165687917
 30
0.0
 10
85.67660200057792
 20
405.9434358501505
 30
0.0
 10
86.5403751511577
 20
405.7930439397721
 30
0.0
 10
86.96634559915611
 20
405.7274195772814
 30
0.0
 10
88.22678199183245
 20
405.5646223739813
 30
0.0
 10
89.04379878101948
 20
405.5009990618912
 30
0.0
 10
89.83789695049526
 20
405.5009990618912
 30
0.0
  0
LINE
  5
96
330
1F
100
AcDbEntity
  8
0
  6
Continuous
 62
     7
370
    15
100
AcDbLine
 10
41.8768361709
 20
409.5009987043
 30
0.0
 11
67.5668404004
 21
409.5009987043
 31
0.0
  0
LINE
  5
97
330
1F
100
AcDbEntity
  8
0
  6
Continuous
 62
     7
370
    15
100
AcDbLine
 10
41.8768361709
 20
405.5009980486
 30
0.0
 11
29.8868254325
 21
405.5009980486
 31
0.0
  0
LINE
  5
98
330
1F
100
AcDbEntity
  8
0
  6
Continuous
 62
     7
370
    15
100
AcDbLine
 10
29.8868254325
 20
415.5009996877
 30
0.0
 11
29.8868254325
 21
521.500998436
 31
0.0
  0
SPLINE
  5
99
330
1F
100
AcDbEntity
  8
0
  6
Continuous
 62
     7
370
    15
100
AcDbSpline
210
0.0
220
0.0
230
1.0
 70
     8
 71
     3
 72
    24
 73
    20
 74
     0
 42
0.00000001
 43
0.00000001
 12
1.0
 22
0.0
 32
0.0
 13
1.0
 23
0.0
 33
0.0
 40
0.0
 40
0.0
 40
0.0
 40
0.0
 40
0.1250000000000027
 40
0.1250000000000027
 40
0.2500000000000055
 40
0.2500000000000055
 40
0.5000000000000072
 40
0.5000000000000072
 40
0.5625000000000063
 40
0.5625000000000063
 40
0.6250000000000056
 40
0.6250000000000056
 40
0.7500000000000036
 40
0.7500000000000036
 40
0.8750000000000017
 40
0.8750000000000017
 40
0.9375000000000009
 40
0.9375000000000009
 40
1.0
 40
1.0
 40
1.0
 40
1.0
 10
89.83789695049526
 20
531.5009990618911
 30
0.0
 10
89.04976268121287
 20
531.5009990618911
 30
0.0
 10
88.23274508588794
 20
531.4381443116552
 30
0.0
 10
86.54033289498706
 20
531.2195566305804
 30
0.0
 10
85.68036783723679
 20
531.0658189694971
 30
0.0
 10
83.06013376775479
 20
530.5189981011447
 30
0.0
 10
81.25820760928049
 20
530.0391630608519
 30
0.0
 10
78.91650171432477
 20
529.4181893553713
 30
0.0
 10
78.44267646280464
 20
529.2927196245656
 30
0.0
 10
77.49154078642015
 20
529.044924443399
 30
0.0
 10
77.01396477419242
 20
528.922523819537
 30
0.0
 10
75.57432419792804
 20
528.565540304552
 30
0.0
 10
74.60539602441105
 20
528.3409997524464
 30
0.0
 10
72.6433394098464
 20
527.9533887815854
 30
0.0
 10
71.65017195049444
 20
527.790565433697
 30
0.0
 10
70.1369996929801
 20
527.6206477195374
 30
0.0
 10
69.62869983507339
 20
527.576395523313
 30
0.0
 10
68.60347635980524
 20
527.516541806875
 30
0.0
 10
68.08391079581497
 20
527.5009990618912
 30
0.0
 10
67.56683949917513
 20
527.5009990618912
 30
0.0
  0
LINE
  5
9A
330
1F
100
AcDbEntity
  8
0
  6
Continuous
 62
     7
370
    15
100
AcDbLine
 10
89.8378924033
 20
531.5010000752
 30
0.0
 11
93.1709096333
 21
531.5010000752
 31
0.0
  0
LINE
  5
9B
330
1F
100
AcDbEntity
  8
0
  6
Continuous
 62
     7
370
    15
100
AcDbLine
 10
29.8868254325
 20
531.5010000752
 30
0.0
 11
41.8768361709
 21
531.5010000752
 31
0.0
  0
LINE
  5
9C
330
1F
100
AcDbEntity
  8
0
  6
Continuous
 62
     7
370
    15
100
AcDbLine
 10
67.5668404004
 20
527.5009994195
 30
0.0
 11
41.8768361709
 21
527.5009994195
 31
0.0
  0
LINE
  5
9D
330
1F
100
AcDbEntity
  8
0
  6
Continuous
 62
     7
370
    15
100
AcDbLine
 10
29.8868254325
 20
521.500998436
 30
0.0
 11
29.8868254325
 21
531.5010000752
 31
0.0
  0
LINE
  5
9E
330
1F
100
AcDbEntity
  8
0
  6
Continuous
 62
     7
370
    15
100
AcDbLine
 10
67.5668404004
 20
394.5009981082
 30
0.0
 11
102.5668368241
 21
394.5009981082
 31
0.0
  0
LINE
  5
9F
330
1F
100
AcDbEntity
  8
0
  6
Continuous
 62
     7
370
    15
100
AcDbLine
 10
102.5668368241
 20
405.5009980486
 30
0.0
 11
102.5668368241
 21
394.5009981082
 31
0.0
  0
LINE
  5
A0
330
1F
100
AcDbEntity
  8
0
  6
Continuous
 62
     7
370
    15
100
AcDbLine
 10
41.8768361709
 20
394.5009981082
 30
0.0
 11
67.5668404004
 21
394.5009981082
 31
0.0
  0
LINE
  5
A1
330
1F
100
AcDbEntity
  8
0
  6
Continuous
 62
     7
370
    15
100
AcDbLine
 10
41.8768361709
 20
409.5009987043
 30
0.0
 11
41.8768361709
 21
394.5009981082
 31
0.0
  0
LINE
  5
A2
330
1F
100
AcDbEntity
  8
0
  6
Continuous
 62
     7
370
    15
100
AcDbLine
 10
41.8768361709
 20
542.5010000156
 30
0.0
 11
67.5668404004
 21
542.5010000156
 31
0.0
  0
LINE
  5
A3
330
1F
100
AcDbEntity
  8
0
  6
Continuous
 62
     7
370
    15
100
AcDbLine
 10
41.8768361709
 20
542.5010000156
 30
0.0
 11
41.8768361709
 21
527.5009994195
 31
0.0
  0
LINE
  5
A4
330
1F
100
AcDbEntity
  8
0
  6
Continuous
 62
     7
370
    15
100
AcDbLine
 10
67.5668404004
 20
542.5010000156
 30
0.0
 11
102.5668368241
 21
542.5010000156
 31
0.0
  0
LINE
  5
A5
330
1F
100
AcDbEntity
  8
0
  6
Continuous
 62
     7
370
    15
100
AcDbLine
 10
102.5668368241
 20
542.5010000156
 30
0.0
 11
102.5668368241
 21
531.5010000752
 31
0.0
  0
LINE
  5
A6
330
1F
100
AcDbEntity
  8
0
  6
Continuous
 62
     7
370
    15
100
AcDbLine
 10
42.9268315932
 20
390.5009974526
 30
0.0
 11
47.9268268248
 21
390.5009974526
 31
0.0
  0
LINE
  5
A7
330
1F
100
AcDbEntity
  8
0
  6
Continuous
 62
     7
370
    15
100
AcDbLine
 10
42.9268315932
 20
394.5009981082
 30
0.0
 11
42.9268315932
 21
390.5009974526
 31
0.0
  0
LINE
  5
A8
330
1F
100
AcDbEntity
  8
0
  6
Continuous
 62
     7
370
    15
100
AcDbLine
 10
47.9268268248
 20
394.5009981082
 30
0.0
 11
47.9268268248
 21
390.5009974526
 31
0.0
  0
LINE
  5
A9
330
1F
100
AcDbEntity
  8
0
  6
Continuous
 62
     7
370
    15
100
AcDbLine
 10
52.9268518588
 20
394.5009981082
 30
0.0
 11
52.9268518588
 21
390.5009974526
 31
0.0
  0
LINE
  5
AA
330
1F
100
AcDbEntity
  8
0
  6
Continuous
 62
     7
370
    15
100
AcDbLine
 10
47.9268268248
 20
390.5009974526
 30
0.0
 11
52.9268518588
 21
390.5009974526
 31
0.0
  0
LINE
  5
AB
330
1F
100
AcDbEntity
  8
0
  6
Continuous
 62
     7
370
    15
100
AcDbLine
 10
47.9268268248
 20
546.5010006712
 30
0.0
 11
47.9268268248
 21
542.5010000156
 31
0.0
  0
LINE
  5
AC
330
1F
100
AcDbEntity
  8
0
  6
Continuous
 62
     7
370
    15
100
AcDbLine
 10
47.9268268248
 20
546.5010006712
 30
0.0
 11
52.9268518588
 21
546.5010006712
 31
0.0
  0
LINE
  5
AD
330
1F
100
AcDbEntity
  8
0
  6
Continuous
 62
     7
370
    15
100
AcDbLine
 10
52.9268518588
 20
546.5010006712
 30
0.0
 11
52.9268518588
 21
542.5010000156
 31
0.0
  0
LINE
  5
AE
330
1F
100
AcDbEntity
  8
0
  6
Continuous
 62
     7
370
    15
100
AcDbLine
 10
42.9268315932
 20
546.5010006712
 30
0.0
 11
42.9268315932
 21
542.5010000156
 31
0.0
  0
LINE
  5
AF
330
1F
100
AcDbEntity
  8
0
  6
Continuous
 62
     7
370
    15
100
AcDbLine
 10
42.9268315932
 20
546.5010006712
 30
0.0
 11
47.9268268248
 21
546.5010006712
 31
0.0
  0
LINE
  5
B0
330
1F
100
AcDbEntity
  8
0
  6
Continuous
 62
     7
370
    15
100
AcDbLine
 10
87.8816530606
 20
390.5009974526
 30
0.0
 11
92.2634736201
 21
390.5009974526
 31
0.0
  0
LINE
  5
B1
330
1F
100
AcDbEntity
  8
0
  6
Continuous
 62
     7
370
    15
100
AcDbLine
 10
87.8816530606
 20
394.5009981082
 30
0.0
 11
87.8816530606
 21
390.5009974526
 31
0.0
  0
LINE
  5
B2
330
1F
100
AcDbEntity
  8
0
  6
Continuous
 62
     7
370
    15
100
AcDbLine
 10
92.2634736201
 20
394.5009981082
 30
0.0
 11
92.2634736201
 21
390.5009974526
 31
0.0
  0
LINE
  5
B3
330
1F
100
AcDbEntity
  8
0
  6
Continuous
 62
     7
370
    15
100
AcDbLine
 10
82.4350253245
 20
390.5009974526
 30
0.0
 11
87.8816530606
 21
390.5009974526
 31
0.0
  0
LINE
  5
B4
330
1F
100
AcDbEntity
  8
0
  6
Continuous
 62
     7
370
    15
100
AcDbLine
 10
82.4350253245
 20
394.5009981082
 30
0.0
 11
82.4350253245
 21
390.5009974526
 31
0.0
  0
LINE
  5
B5
330
1F
100
AcDbEntity
  8
0
  6
Continuous
 62
     7
370
    15
100
AcDbLine
 10
82.4350253245
 20
546.5010006712
 30
0.0
 11
82.4350253245
 21
542.5010000156
 31
0.0
  0
LINE
  5
B6
330
1F
100
AcDbEntity
  8
0
  6
Continuous
 62
     7
370
    15
100
AcDbLine
 10
82.4350253245
 20
546.5010006712
 30
0.0
 11
87.8816530606
 21
546.5010006712
 31
0.0
  0
LINE
  5
B7
330
1F
100
AcDbEntity
  8
0
  6
Continuous
 62
     7
370
    15
100
AcDbLine
 10
87.8816530606
 20
546.5010006712
 30
0.0
 11
87.8816530606
 21
542.5010000156
 31
0.0
  0
LINE
  5
B8
330
1F
100
AcDbEntity
  8
0
  6
Continuous
 62
     7
370
    15
100
AcDbLine
 10
87.8816530606
 20
546.5010006712
 30
0.0
 11
92.2634736201
 21
546.5010006712
 31
0.0
  0
LINE
  5
B9
330
1F
100
AcDbEntity
  8
0
  6
Continuous
 62
     7
370
    15
100
AcDbLine
 10
92.2634736201
 20
546.5010006712
 30
0.0
 11
92.2634736201
 21
542.5010000156
 31
0.0
  0
LINE
  5
BA
330
1F
100
AcDbEntity
  8
0
  6
Continuous
 62
     7
370
    15
100
AcDbLine
 10
478.4266636273
 20
476.0009988943
 30
0.0
 11
491.5615603825
 21
476.0009988943
 31
0.0
  0
ELLIPSE
  5
BB
330
1F
100
AcDbEntity
  8
0
  6
Continuous
 62
     7
370
    15
100
AcDbEllipse
 10
515.566734346
 20
468.5009990619
 30
0.0
 11
0.0
 21
62.49999999999988
 31
0.0
210
0.0
220
0.0
230
1.0
 40
0.3868783175
 41
1.450506444400109
 42
1.691086209189685
  0
LINE
  5
BC
330
1F
100
AcDbEntity
  8
0
  6
Continuous
 62
     7
370
    15
100
AcDbLine
 10
478.8684532544
 20
461.0009992295
 30
0.0
 11
491.5615603825
 21
461.0009992295
 31
0.0
  0
LINE
  5
BD
330
1F
100
AcDbEntity
  8
0
  6
Continuous
 62
     7
370
    15
100
AcDbLine
 10
139.347015371
 20
476.0009988943
 30
0.0
 11
126.2121186158
 21
476.0009988943
 31
0.0
  0
LINE
  5
BE
330
1F
100
AcDbEntity
  8
0
  6
Continuous
 62
     7
370
    15
100
AcDbLine
 10
138.9052257439
 20
461.0009992295
 30
0.0
 11
126.2121186158
 21
461.0009992295
 31
0.0
  0
ELLIPSE
  5
BF
330
1F
100
AcDbEntity
  8
0
  6
Continuous
 62
     7
370
    15
100
AcDbEllipse
 10
102.2069446524
 20
468.5009990619
 30
0.0
 11
0.0
 21
62.49999999999988
 31
0.0
210
0.0
220
0.0
230
1.0
 40
0.3868783175
 41
4.592099097989907
 42
4.832678862779484
  0
LINE
  5
C0
330
1F
100
AcDbEntity
  8
0
  6
Continuous
 62
     7
370
    15
100
AcDbLine
 10
81.3702032468
 20
394.5009981082
 30
0.0
 11
81.3702032468
 21
390.5009974526
 31
0.0
  0
LINE
  5
C1
330
1F
100
AcDbEntity
  8
0
  6
Continuous
 62
     7
370
    15
100
AcDbLine
 10
81.3702032468
 20
390.5009974526
 30
0.0
 11
82.4350253245
 21
390.5009974526
 31
0.0
  0
LINE
  5
C2
330
1F
100
AcDbEntity
  8
0
  6
Continuous
 62
     7
370
    15
100
AcDbLine
 10
81.3702032468
 20
546.5010006712
 30
0.0
 11
81.3702032468
 21
542.5010000156
 31
0.0
  0
LINE
  5
C3
330
1F
100
AcDbEntity
  8
0
  6
Continuous
 62
     7
370
    15
100
AcDbLine
 10
81.3702032468
 20
546.5010006712
 30
0.0
 11
82.4350253245
 21
546.5010006712
 31
0.0
  0
LINE
  5
C4
330
1F
100
AcDbEntity
  8
0
  6
Continuous
 62
     7
370
    15
100
AcDbLine
 10
58.3868459365
 20
646.5010021613
 30
0.0
 11
78.3868417642
 21
646.5010021613
 31
0.0
  0
LINE
  5
C5
330
1F
100
AcDbEntity
  8
0
  6
Continuous
 62
     7
370
    15
100
AcDbLine
 10
108.8868365189
 20
531.5010000752
 30
0.0
 11
108.8868365189
 21
405.5009980486
 31
0.0
  0
LINE
  5
C6
330
1F
100
AcDbEntity
  8
0
  6
Continuous
 62
     7
370
    15
100
AcDbLine
 10
102.5668368241
 20
531.5010000752
 30
0.0
 11
108.8868365189
 21
531.5010000752
 31
0.0
  0
LINE
  5
C7
330
1F
100
AcDbEntity
  8
0
  6
Continuous
 62
     7
370
    15
100
AcDbLine
 10
108.8868365189
 20
405.5009980486
 30
0.0
 11
102.5668368241
 21
405.5009980486
 31
0.0
  0
LINE
  5
C8
330
1F
100
AcDbEntity
  8
0
  6
Continuous
 62
     7
370
    15
100
AcDbLine
 10
535.8868375918
 20
531.0009990619
 30
0.0
 11
535.8868375918
 21
406.0009990619
 31
0.0
  0
LINE
  5
C9
330
1F
100
AcDbEntity
  8
0
  6
Continuous
 62
     7
370
    15
100
AcDbLine
 10
491.3868442675
 20
531.0009990619
 30
0.0
 11
491.3868442675
 21
476.0009988943
 31
0.0
  0
LINE
  5
CA
330
1F
100
AcDbEntity
  8
0
  6
Continuous
 62
     7
370
    15
100
AcDbLine
 10
491.3868442675
 20
461.0009992295
 30
0.0
 11
491.3868442675
 21
406.0009990619
 31
0.0
  0
LINE
  5
CB
330
1F
100
AcDbEntity
  8
0
  6
Continuous
 62
     7
370
    15
100
AcDbLine
 10
126.3868347308
 20
531.0009990619
 30
0.0
 11
126.3868347308
 21
476.0009988943
 31
0.0
  0
LINE
  5
CC
330
1F
100
AcDbEntity
  8
0
  6
Continuous
 62
     7
370
    15
100
AcDbLine
 10
126.3868347308
 20
461.0009992295
 30
0.0
 11
126.3868347308
 21
406.0009990619
 31
0.0
  0
SPLINE
  5
CD
330
1F
100
AcDbEntity
  8
0
  6
Continuous
 62
     7
370
    15
100
AcDbSpline
210
0.0
220
0.0
230
1.0
 70
     8
 71
     3
 72
     9
 73
     5
 74
     0
 42
0.00000001
 43
0.00000001
 12
1.0
 22
0.0
 32
0.0
 13
1.0
 23
0.0
 33
0.0
 40
0.0
 40
0.0
 40
0.0
 40
0.0
 40
0.6098942331073381
 40
1.0
 40
1.0
 40
1.0
 40
1.0
 10
140.7401994368431
 20
438.5670752064668
 30
0.0
 10
137.8255535809013
 20
436.8351839520921
 30
0.0
 10
133.0466170084206
 20
433.9955255976412
 30
0.0
 10
128.255771278384
 20
431.1760129801314
 30
0.0
 10
126.3868347308036
 20
430.0761048482143
 30
0.0
  0
SPLINE
  5
CE
330
1F
100
AcDbEntity
  8
0
  6
Continuous
 62
     7
370
    15
100
AcDbSpline
210
0.0
220
0.0
230
1.0
 70
     8
 71
     3
 72
    10
 73
     6
 74
     0
 42
0.00000001
 43
0.00000001
 12
1.0
 22
0.0
 32
0.0
 13
1.0
 23
0.0
 33
0.0
 40
0.0
 40
0.0
 40
0.0
 40
0.0
 40
0.5
 40
0.5
 40
1.0
 40
1.0
 40
1.0
 40
1.0
 10
126.3868394991752
 20
439.6710260531131
 30
0.0
 10
126.5556860752564
 20
440.1035239970889
 30
0.0
 10
126.6465570924632
 20
440.5216130613297
 30
0.0
 10
126.646737015232
 20
441.3248692886597
 30
0.0
 10
126.5557025500666
 20
441.6874126062697
 30
0.0
 10
126.3868394991752
 20
442.0141125647365
 30
0.0
  0
SPLINE
  5
CF
330
1F
100
AcDbEntity
  8
0
  6
Continuous
 62
     7
370
    15
100
AcDbSpline
210
0.0
220
0.0
230
1.0
 70
     8
 71
     3
 72
     8
 73
     4
 74
     0
 42
0.00000001
 43
0.00000001
 12
1.0
 22
0.0
 32
0.0
 13
1.0
 23
0.0
 33
0.0
 40
0.0
 40
0.0
 40
0.0
 40
0.0
 40
1.0
 40
1.0
 40
1.0
 40
1.0
 10
126.3868394991752
 20
506.9258933363061
 30
0.0
 10
131.6777262734625
 20
503.8135541164891
 30
0.0
 10
136.9632568534019
 20
500.6918966798699
 30
0.0
 10
142.2351043884304
 20
497.5483741584464
 30
0.0
  0
LINE
  5
D0
330
1F
100
AcDbEntity
  8
0
  6
Continuous
 62
     7
370
    15
100
AcDbLine
 10
142.235098829
 20
497.5483746068
 30
0.0
 11
142.235098829
 21
497.0747859017
 31
0.0
  0
SPLINE
  5
D1
330
1F
100
AcDbEntity
  8
0
  6
Continuous
 62
     7
370
    15
100
AcDbSpline
210
0.0
220
0.0
230
1.0
 70
     8
 71
     3
 72
    10
 73
     6
 74
     0
 42
0.00000001
 43
0.00000001
 12
1.0
 22
0.0
 32
0.0
 13
1.0
 23
0.0
 33
0.0
 40
0.0
 40
0.0
 40
0.0
 40
0.0
 40
0.5
 40
0.5
 40
1.0
 40
1.0
 40
1.0
 40
1.0
 10
126.3868394991752
 20
494.9878855590454
 30
0.0
 10
126.5556860752564
 20
495.3145536436369
 30
0.0
 10
126.6465570924632
 20
495.6759982054443
 30
0.0
 10
126.646737015232
 20
496.479142092643
 30
0.0
 10
126.5557025500666
 20
496.8984319267163
 30
0.0
 10
126.3868394991752
 20
497.3309720706688
 30
0.0
  0
LINE
  5
D2
330
1F
100
AcDbEntity
  8
0
  6
Continuous
 62
     7
370
    15
100
AcDbLine
 10
475.5385801694
 20
497.0747859017
 30
0.0
 11
475.5385801694
 21
497.5483746068
 31
0.0
  0
SPLINE
  5
D3
330
1F
100
AcDbEntity
  8
0
  6
Continuous
 62
     7
370
    15
100
AcDbSpline
210
0.0
220
0.0
230
1.0
 70
     8
 71
     3
 72
     8
 73
     4
 74
     0
 42
0.00000001
 43
0.00000001
 12
1.0
 22
0.0
 32
0.0
 13
1.0
 23
0.0
 33
0.0
 40
0.0
 40
0.0
 40
0.0
 40
0.0
 40
1.0
 40
1.0
 40
1.0
 40
1.0
 10
475.53857460992
 20
497.5483741584463
 30
0.0
 10
480.8106988986005
 20
500.6920617038644
 30
0.0
 10
486.0960923319777
 20
503.813636239702
 30
0.0
 10
491.3868394991752
 20
506.9258933363061
 30
0.0
  0
SPLINE
  5
D4
330
1F
100
AcDbEntity
  8
0
  6
Continuous
 62
     7
370
    15
100
AcDbSpline
210
0.0
220
0.0
230
1.0
 70
     8
 71
     3
 72
    10
 73
     6
 74
     0
 42
0.00000001
 43
0.00000001
 12
1.0
 22
0.0
 32
0.0
 13
1.0
 23
0.0
 33
0.0
 40
0.0
 40
0.0
 40
0.0
 40
0.0
 40
0.5
 40
0.5
 40
1.0
 40
1.0
 40
1.0
 40
1.0
 10
491.3868394991752
 20
494.9878855590454
 30
0.0
 10
491.217992923094
 20
495.3145536436369
 30
0.0
 10
491.1271219058872
 20
495.6759982054443
 30
0.0
 10
491.1269419831184
 20
496.479142092643
 30
0.0
 10
491.2179764482838
 20
496.8984319267163
 30
0.0
 10
491.3868394991752
 20
497.3309720706688
 30
0.0
  0
SPLINE
  5
D5
330
1F
100
AcDbEntity
  8
0
  6
Continuous
 62
     7
370
    15
100
AcDbSpline
210
0.0
220
0.0
230
1.0
 70
     8
 71
     3
 72
     9
 73
     5
 74
     0
 42
0.00000001
 43
0.00000001
 12
1.0
 22
0.0
 32
0.0
 13
1.0
 23
0.0
 33
0.0
 40
0.0
 40
0.0
 40
0.0
 40
0.0
 40
0.9063212330663752
 40
1.0
 40
1.0
 40
1.0
 40
1.0
 10
491.3868442675467
 20
430.0761048482143
 30
0.0
 10
487.0457529391644
 20
432.6329105792743
 30
0.0
 10
482.255959684851
 20
435.4539917122955
 30
0.0
 10
477.4797742366869
 20
438.2980166746262
 30
0.0
 10
477.0323470732566
 20
438.5644414262258
 30
0.0
  0
SPLINE
  5
D6
330
1F
100
AcDbEntity
  8
0
  6
Continuous
 62
     7
370
    15
100
AcDbSpline
210
0.0
220
0.0
230
1.0
 70
     8
 71
     3
 72
    10
 73
     6
 74
     0
 42
0.00000001
 43
0.00000001
 12
1.0
 22
0.0
 32
0.0
 13
1.0
 23
0.0
 33
0.0
 40
0.0
 40
0.0
 40
0.0
 40
0.0
 40
0.5
 40
0.5
 40
1.0
 40
1.0
 40
1.0
 40
1.0
 10
491.3868394991752
 20
439.6710260531131
 30
0.0
 10
491.217992923094
 20
440.1035239970889
 30
0.0
 10
491.1271219058872
 20
440.5216130613297
 30
0.0
 10
491.1269419831184
 20
441.3248692886597
 30
0.0
 10
491.2179764482838
 20
441.6874126062697
 30
0.0
 10
491.3868394991752
 20
442.0141125647365
 30
0.0
  0
LINE
  5
D7
330
1F
100
AcDbEntity
  8
0
  6
Continuous
 62
     7
370
    15
100
AcDbLine
 10
28.8868383071
 20
468.5009990619
 30
0.0
 11
28.8868383071
 21
505.0009985254
 31
0.0
  0
LINE
  5
D8
330
1F
100
AcDbEntity
  8
0
  6
Continuous
 62
     7
370
    15
100
AcDbLine
 10
28.8868383071
 20
432.0009995983
 30
0.0
 11
28.8868383071
 21
468.5009990619
 31
0.0
  0
LINE
  5
D9
330
1F
100
AcDbEntity
  8
0
  6
Continuous
 62
     7
370
    15
100
AcDbLine
 10
108.8868365189
 20
404.7415082143
 30
0.0
 11
108.8868365189
 21
405.5009980486
 31
0.0
  0
LINE
  5
DA
330
1F
100
AcDbEntity
  8
0
  6
Continuous
 62
     7
370
    15
100
AcDbLine
 10
29.8868254325
 20
404.7415082143
 30
0.0
 11
29.8868254325
 21
405.5009980486
 31
0.0
  0
LINE
  5
DB
330
1F
100
AcDbEntity
  8
0
  6
Continuous
 62
     7
370
    15
100
AcDbLine
 10
108.8868365189
 20
531.5010000752
 30
0.0
 11
108.8868365189
 21
532.2604899095
 31
0.0
  0
LINE
  5
DC
330
1F
100
AcDbEntity
  8
0
  6
Continuous
 62
     7
370
    15
100
AcDbLine
 10
29.8868254325
 20
531.5010000752
 30
0.0
 11
29.8868254325
 21
532.2604899095
 31
0.0
  0
LINE
  5
DD
330
1F
100
AcDbEntity
  8
0
  6
Continuous
 62
     7
370
    15
100
AcDbLine
 10
142.235098829
 20
497.5483746068
 30
0.0
 11
142.3312113187
 21
497.5483746068
 31
0.0
  0
LINE
  5
DE
330
1F
100
AcDbEntity
  8
0
  6
Continuous
 62
     7
370
    15
100
AcDbLine
 10
475.4424676797
 20
497.5483746068
 30
0.0
 11
475.5385801694
 21
497.5483746068
 31
0.0
  0
LINE
  5
DF
330
1F
100
AcDbEntity
  8
0
  6
Continuous
 62
     7
370
    15
100
AcDbLine
 10
108.8868365189
 20
399.5010007904
 30
0.0
 11
108.8868365189
 21
404.7415082143
 31
0.0
  0
LINE
  5
E0
330
1F
100
AcDbEntity
  8
0
  6
Continuous
 62
     7
370
    15
100
AcDbLine
 10
29.8868254325
 20
399.5010007904
 30
0.0
 11
29.8868254325
 21
404.7415082143
 31
0.0
  0
LINE
  5
E1
330
1F
100
AcDbEntity
  8
0
  6
Continuous
 62
     7
370
    15
100
AcDbLine
 10
108.8868365189
 20
532.2604899095
 30
0.0
 11
108.8868365189
 21
537.5009973334
 31
0.0
  0
LINE
  5
E2
330
1F
100
AcDbEntity
  8
0
  6
Continuous
 62
     7
370
    15
100
AcDbLine
 10
29.8868254325
 20
532.2604899095
 30
0.0
 11
29.8868254325
 21
537.5009973334
 31
0.0
  0
LINE
  5
E3
330
1F
100
AcDbEntity
  8
0
  6
Continuous
 62
     7
370
    15
100
AcDbLine
 10
491.3868442675
 20
426.0009986149
 30
0.0
 11
474.6992275617
 21
426.0009986149
 31
0.0
  0
LINE
  5
E4
330
1F
100
AcDbEntity
  8
0
  6
Continuous
 62
     7
370
    15
100
AcDbLine
 10
126.3868347308
 20
511.0009995089
 30
0.0
 11
145.6577018401
 21
511.0009995089
 31
0.0
  0
LINE
  5
E5
330
1F
100
AcDbEntity
  8
0
  6
Continuous
 62
     7
370
    15
100
AcDbLine
 10
163.8840571544
 20
511.0009995089
 30
0.0
 11
181.3451633355
 21
511.0009995089
 31
0.0
  0
LINE
  5
E6
330
1F
100
AcDbEntity
  8
0
  6
Continuous
 62
     7
370
    15
100
AcDbLine
 10
126.3868347308
 20
426.0009986149
 30
0.0
 11
143.0744514367
 21
426.0009986149
 31
0.0
  0
LINE
  5
E7
330
1F
100
AcDbEntity
  8
0
  6
Continuous
 62
     7
370
    15
100
AcDbLine
 10
491.3868442675
 20
511.0009995089
 30
0.0
 11
472.1159771582
 21
511.0009995089
 31
0.0
  0
LINE
  5
E8
330
1F
100
AcDbEntity
  8
0
  6
Continuous
 62
     7
370
    15
100
AcDbLine
 10
453.889621844
 20
511.0009995089
 30
0.0
 11
436.4285156628
 21
511.0009995089
 31
0.0
  0
LINE
  5
E9
330
1F
100
AcDbEntity
  8
0
  6
Continuous
 62
     8
370
     0
100
AcDbLine
 10
29.8868254325
 20
415.5009996877
 30
0.0
 11
74.2391929528
 21
415.5009996877
 31
0.0
  0
LINE
  5
EA
330
1F
100
AcDbEntity
  8
0
  6
Continuous
 62
     8
370
     0
100
AcDbLine
 10
74.2391929528
 20
521.500998436
 30
0.0
 11
29.8868254325
 21
521.500998436
 31
0.0
  0
LINE
  5
EB
330
1F
100
AcDbEntity
  8
0
  6
Continuous
 62
     8
370
     0
100
AcDbLine
 10
67.5668404004
 20
409.5009987043
 30
0.0
 11
67.5668404004
 21
394.5009981082
 31
0.0
  0
LINE
  5
EC
330
1F
100
AcDbEntity
  8
0
  6
Continuous
 62
     8
370
     0
100
AcDbLine
 10
67.5668404004
 20
542.5010000156
 30
0.0
 11
67.5668404004
 21
527.5009994195
 31
0.0
  0
LINE
  5
ED
330
1F
100
AcDbEntity
  8
0
  6
Continuous
 62
     8
370
     0
100
AcDbLine
 10
29.8868254325
 20
404.7415082143
 30
0.0
 11
41.8768361709
 21
404.7415082143
 31
0.0
  0
LINE
  5
EE
330
1F
100
AcDbEntity
  8
0
  6
Continuous
 62
     8
370
     0
100
AcDbLine
 10
102.5668368241
 20
404.7415082143
 30
0.0
 11
108.8868365189
 21
404.7415082143
 31
0.0
  0
LINE
  5
EF
330
1F
100
AcDbEntity
  8
0
  6
Continuous
 62
     8
370
     0
100
AcDbLine
 10
29.8868254325
 20
532.2604899095
 30
0.0
 11
41.8768361709
 21
532.2604899095
 31
0.0
  0
LINE
  5
F0
330
1F
100
AcDbEntity
  8
0
  6
Continuous
 62
     8
370
     0
100
AcDbLine
 10
102.5668368241
 20
532.2604899095
 30
0.0
 11
108.8868365189
 21
532.2604899095
 31
0.0
  0
INSERT
  5
134
330
1F
100
AcDbEntity
  8
FORMAT
 62
     7
100
AcDbBlockReference
  2
SW_CENTERMARKSYMBOL_0
 10
252.4410332253
 20
599.7732301073
 30
0.0
  0
LINE
  5
135
330
1F
100
AcDbEntity
  8
FORMAT
  6
CENTERX2
 62
     7
370
     0
100
AcDbLine
 10
22.7496123547
 20
468.5009990619
 30
0.0
 11
142.5514299912
 21
468.5009990619
 31
0.0
  0
LINE
  5
136
330
1F
100
AcDbEntity
  8
FORMAT
  6
CENTERX2
 62
     7
370
     0
100
AcDbLine
 10
539.8868394992
 20
468.5009990619
 30
0.0
 11
473.4577720974
 21
468.5009990619
 31
0.0
  0
LINE
  5
137
330
1F
100
AcDbEntity
  8
0
  6
Continuous
 62
     7
370
    15
100
AcDbLine
 10
771.242288253
 20
542.5010000156
 30
0.0
 11
771.242288253
 21
646.5010021613
 31
0.0
  0
LINE
  5
138
330
1F
100
AcDbEntity
  8
0
  6
Continuous
 62
     7
370
    15
100
AcDbLine
 10
751.2422887
 20
646.5010021613
 30
0.0
 11
751.2422887
 21
542.5010000156
 31
0.0
  0
LINE
  5
139
330
1F
100
AcDbEntity
  8
0
  6
Continuous
 62
     7
370
    15
100
AcDbLine
 10
575.2422859284
 20
330.501002519
 30
0.0
 11
578.2422845575
 21
330.501002519
 31
0.0
  0
LINE
  5
13A
330
1F
100
AcDbEntity
  8
0
  6
Continuous
 62
     7
370
    15
100
AcDbLine
 10
578.2422845575
 20
596.5010051416
 30
0.0
 11
575.2422859284
 21
596.5010051416
 31
0.0
  0
LINE
  5
13B
330
1F
100
AcDbEntity
  8
0
  6
Continuous
 62
     7
370
    15
100
AcDbLine
 10
802.2422914716
 20
330.501002519
 30
0.0
 11
805.2422901007
 21
330.501002519
 31
0.0
  0
LINE
  5
13C
330
1F
100
AcDbEntity
  8
0
  6
Continuous
 62
     7
370
    15
100
AcDbLine
 10
805.2422901007
 20
596.5010051416
 30
0.0
 11
802.2422914716
 21
596.5010051416
 31
0.0
  0
LINE
  5
13D
330
1F
100
AcDbEntity
  8
0
  6
Continuous
 62
     7
370
    15
100
AcDbLine
 10
595.2422892066
 20
340.5009929822
 30
0.0
 11
632.3332314703
 21
354.000997989
 31
0.0
  0
LINE
  5
13E
330
1F
100
AcDbEntity
  8
0
  6
Continuous
 62
     7
370
    15
100
AcDbLine
 10
748.1513445589
 20
354.000997989
 30
0.0
 11
785.2422868225
 21
340.5009929822
 31
0.0
  0
LINE
  5
13F
330
1F
100
AcDbEntity
  8
0
  6
Continuous
 62
     7
370
    15
100
AcDbLine
 10
632.3332314703
 20
573.0010022209
 30
0.0
 11
595.2422892066
 21
586.5009997771
 31
0.0
  0
LINE
  5
140
330
1F
100
AcDbEntity
  8
0
  6
Continuous
 62
     7
370
    15
100
AcDbLine
 10
785.2422868225
 20
586.5009997771
 30
0.0
 11
771.242288253
 21
581.4054135965
 31
0.0
  0
LINE
  5
141
330
1F
100
AcDbEntity
  8
0
  6
Continuous
 62
     7
370
    15
100
AcDbLine
 10
751.2422887
 20
574.1260100887
 30
0.0
 11
748.1513445589
 21
573.0010022209
 31
0.0
  0
LINE
  5
142
330
1F
100
AcDbEntity
  8
0
  6
Continuous
 62
     7
370
    15
100
AcDbLine
 10
706.0829022291
 20
354.000997989
 30
0.0
 11
748.1513445589
 21
354.000997989
 31
0.0
  0
LINE
  5
143
330
1F
100
AcDbEntity
  8
0
  6
Continuous
 62
     7
370
    15
100
AcDbLine
 10
632.3332314703
 20
354.000997989
 30
0.0
 11
674.4040617111
 21
354.000997989
 31
0.0
  0
LINE
  5
144
330
1F
100
AcDbEntity
  8
0
  6
Continuous
 62
     7
370
    15
100
AcDbLine
 10
674.4040617111
 20
573.0010022209
 30
0.0
 11
632.3332314703
 21
573.0010022209
 31
0.0
  0
LINE
  5
145
330
1F
100
AcDbEntity
  8
0
  6
Continuous
 62
     7
370
    15
100
AcDbLine
 10
748.1513445589
 20
573.0010022209
 30
0.0
 11
706.0829022291
 21
573.0010022209
 31
0.0
  0
LINE
  5
146
330
1F
100
AcDbEntity
  8
0
  6
Continuous
 62
     7
370
    15
100
AcDbLine
 10
706.0933628443
 20
572.9997505234
 30
0.0
 11
705.2422876793
 21
605.5009935783
 31
0.0
  0
LINE
  5
147
330
1F
100
AcDbEntity
  8
0
  6
Continuous
 62
     7
370
    15
100
AcDbLine
 10
675.2422883498
 20
605.5009935783
 30
0.0
 11
674.3912057343
 21
572.9994674013
 31
0.0
  0
LINE
  5
148
330
1F
100
AcDbEntity
  8
0
  6
Continuous
 62
     7
370
    15
100
AcDbLine
 10
674.3912057343
 20
354.0025328086
 30
0.0
 11
675.2422883498
 21
321.5009991811
 31
0.0
  0
LINE
  5
149
330
1F
100
AcDbEntity
  8
0
  6
Continuous
 62
     7
370
    15
100
AcDbLine
 10
705.2422876793
 20
321.5009991811
 30
0.0
 11
706.0933628443
 21
354.0022496865
 31
0.0
  0
CIRCLE
  5
14A
330
1F
100
AcDbEntity
  8
0
  6
Continuous
 62
     7
370
    15
100
AcDbCircle
 10
690.2422880146
 20
468.5009990619
 30
0.0
 40
36.50000000000011
  0
ARC
  5
14B
330
1F
100
AcDbEntity
  8
0
  6
Continuous
 62
     7
370
    15
100
AcDbCircle
 10
785.2422880146
 20
415.5009990619
 30
0.0
 40
10.0
100
AcDbArc
 50
270.0
 51
0.0
  0
LINE
  5
14C
330
1F
100
AcDbEntity
  8
0
  6
Continuous
 62
     7
370
    15
100
AcDbLine
 10
720.4416257652
 20
405.5009980486
 30
0.0
 11
785.2422868225
 21
405.5009980486
 31
0.0
  0
ARC
  5
14D
330
1F
100
AcDbEntity
  8
0
  6
Continuous
 62
     7
370
    15
100
AcDbCircle
 10
720.4416257556
 20
395.5009990619
 30
0.0
 40
10.0
100
AcDbArc
 50
90.0
 51
112.4743688205
  0
ARC
  5
14E
330
1F
100
AcDbEntity
  8
0
  6
Continuous
 62
     7
370
    15
100
AcDbCircle
 10
690.2422880146
 20
468.5009990619
 30
0.0
 40
69.00000000000001
100
AcDbArc
 50
251.672627473
 51
292.4743688205
  0
LINE
  5
14F
330
1F
100
AcDbEntity
  8
0
  6
Continuous
 62
     7
370
    15
100
AcDbLine
 10
634.7422872993
 20
403.0010004328
 30
0.0
 11
668.5455137255
 21
403.0010004328
 31
0.0
  0
ARC
  5
150
330
1F
100
AcDbEntity
  8
0
  6
Continuous
 62
     7
370
    15
100
AcDbCircle
 10
634.7422880146
 20
413.0009990619
 30
0.0
 40
10.0
100
AcDbArc
 50
180.0
 51
270.0
  0
ARC
  5
151
330
1F
100
AcDbEntity
  8
0
  6
Continuous
 62
     7
370
    15
100
AcDbCircle
 10
690.2422880146
 20
468.5009990619
 30
0.0
 40
69.0000000000001
100
AcDbArc
 50
161.672627473
 51
198.327372527
  0
LINE
  5
152
330
1F
100
AcDbEntity
  8
0
  6
Continuous
 62
     7
370
    15
100
AcDbLine
 10
624.7422893855
 20
524.0009997771
 30
0.0
 11
624.7422893855
 21
490.1977733509
 31
0.0
  0
LINE
  5
153
330
1F
100
AcDbEntity
  8
0
  6
Continuous
 62
     7
370
    15
100
AcDbLine
 10
668.5455137255
 20
534.000997691
 30
0.0
 11
634.7422872993
 21
534.000997691
 31
0.0
  0
ARC
  5
154
330
1F
100
AcDbEntity
  8
0
  6
Continuous
 62
     7
370
    15
100
AcDbCircle
 10
690.2422880146
 20
468.5009990619
 30
0.0
 40
68.99999999999989
100
AcDbArc
 50
67.5256311795
 51
108.327372527
  0
ARC
  5
155
330
1F
100
AcDbEntity
  8
0
  6
Continuous
 62
     7
370
    15
100
AcDbCircle
 10
720.4416257556
 20
541.5009990619
 30
0.0
 40
10.00000000000009
100
AcDbArc
 50
247.5256311795
 51
270.0
  0
LINE
  5
156
330
1F
100
AcDbEntity
  8
0
  6
Continuous
 62
     7
370
    15
100
AcDbLine
 10
785.2422868225
 20
531.5010000752
 30
0.0
 11
720.4416257652
 21
531.5010000752
 31
0.0
  0
ARC
  5
157
330
1F
100
AcDbEntity
  8
0
  6
Continuous
 62
     7
370
    15
100
AcDbCircle
 10
785.2422880146
 20
521.5009990619
 30
0.0
 40
10.0
100
AcDbArc
 50
0.0
 51
90.0
  0
LINE
  5
158
330
1F
100
AcDbEntity
  8
0
  6
Continuous
 62
     7
370
    15
100
AcDbLine
 10
795.2422847363
 20
415.5009996877
 30
0.0
 11
795.2422847363
 21
521.500998436
 31
0.0
  0
LINE
  5
159
330
1F
100
AcDbEntity
  8
0
  6
Continuous
 62
     7
370
    15
100
AcDbLine
 10
624.7422893855
 20
446.8042247729
 30
0.0
 11
624.7422893855
 21
413.0009983466
 31
0.0
  0
ARC
  5
15A
330
1F
100
AcDbEntity
  8
0
  6
Continuous
 62
     7
370
    15
100
AcDbCircle
 10
634.7422880146
 20
524.0009990619
 30
0.0
 40
10.0
100
AcDbArc
 50
90.0
 51
180.0
  0
LINE
  5
15B
330
1F
100
AcDbEntity
  8
0
  6
Continuous
 62
     7
370
    15
100
AcDbLine
 10
793.2422881338
 20
409.5009987043
 30
0.0
 11
793.2422881338
 21
394.5009981082
 31
0.0
  0
LINE
  5
15C
330
1F
100
AcDbEntity
  8
0
  6
Continuous
 62
     7
370
    15
100
AcDbLine
 10
735.7422870907
 20
394.5009981082
 30
0.0
 11
793.2422881338
 21
394.5009981082
 31
0.0
  0
LINE
  5
15D
330
1F
100
AcDbEntity
  8
0
  6
Continuous
 62
     7
370
    15
100
AcDbLine
 10
735.7422870907
 20
405.5009980486
 30
0.0
 11
735.7422870907
 21
394.5009981082
 31
0.0
  0
LINE
  5
15E
330
1F
100
AcDbEntity
  8
0
  6
Continuous
 62
     7
370
    15
100
AcDbLine
 10
793.2422881338
 20
542.5010000156
 30
0.0
 11
793.2422881338
 21
527.5009994195
 31
0.0
  0
LINE
  5
15F
330
1F
100
AcDbEntity
  8
0
  6
Continuous
 62
     7
370
    15
100
AcDbLine
 10
735.7422870907
 20
542.5010000156
 30
0.0
 11
735.7422870907
 21
531.5010000752
 31
0.0
  0
LINE
  5
160
330
1F
100
AcDbEntity
  8
0
  6
Continuous
 62
     7
370
    15
100
AcDbLine
 10
735.7422870907
 20
542.5010000156
 30
0.0
 11
793.2422881338
 21
542.5010000156
 31
0.0
  0
LINE
  5
161
330
1F
100
AcDbEntity
  8
0
  6
Continuous
 62
     7
370
    15
100
AcDbLine
 10
739.0855376932
 20
546.5010006712
 30
0.0
 11
739.0855376932
 21
542.5010000156
 31
0.0
  0
LINE
  5
162
330
1F
100
AcDbEntity
  8
0
  6
Continuous
 62
     7
370
    15
100
AcDbLine
 10
739.0855376932
 20
546.5010006712
 30
0.0
 11
744.8590410265
 21
546.5010006712
 31
0.0
  0
LINE
  5
163
330
1F
100
AcDbEntity
  8
0
  6
Continuous
 62
     7
370
    15
100
AcDbLine
 10
744.8590410265
 20
546.5010006712
 30
0.0
 11
744.8590410265
 21
542.5010000156
 31
0.0
  0
LINE
  5
164
330
1F
100
AcDbEntity
  8
0
  6
Continuous
 62
     7
370
    15
100
AcDbLine
 10
744.8590410265
 20
394.5009981082
 30
0.0
 11
744.8590410265
 21
390.5009974526
 31
0.0
  0
LINE
  5
165
330
1F
100
AcDbEntity
  8
0
  6
Continuous
 62
     7
370
    15
100
AcDbLine
 10
747.7457908305
 20
394.5009981082
 30
0.0
 11
747.7457908305
 21
390.5009974526
 31
0.0
  0
LINE
  5
166
330
1F
100
AcDbEntity
  8
0
  6
Continuous
 62
     7
370
    15
100
AcDbLine
 10
744.8590410265
 20
390.5009974526
 30
0.0
 11
747.7457908305
 21
390.5009974526
 31
0.0
  0
LINE
  5
167
330
1F
100
AcDbEntity
  8
0
  6
Continuous
 62
     7
370
    15
100
AcDbLine
 10
739.0855376932
 20
394.5009981082
 30
0.0
 11
739.0855376932
 21
390.5009974526
 31
0.0
  0
LINE
  5
168
330
1F
100
AcDbEntity
  8
0
  6
Continuous
 62
     7
370
    15
100
AcDbLine
 10
739.0855376932
 20
390.5009974526
 30
0.0
 11
744.8590410265
 21
390.5009974526
 31
0.0
  0
LINE
  5
169
330
1F
100
AcDbEntity
  8
0
  6
Continuous
 62
     7
370
    15
100
AcDbLine
 10
747.7457908305
 20
546.5010006712
 30
0.0
 11
747.7457908305
 21
542.5010000156
 31
0.0
  0
LINE
  5
16A
330
1F
100
AcDbEntity
  8
0
  6
Continuous
 62
     7
370
    15
100
AcDbLine
 10
744.8590410265
 20
546.5010006712
 30
0.0
 11
747.7457908305
 21
546.5010006712
 31
0.0
  0
LINE
  5
16B
330
1F
100
AcDbEntity
  8
0
  6
Continuous
 62
     7
370
    15
100
AcDbLine
 10
736.1987841639
 20
394.5009981082
 30
0.0
 11
736.1987841639
 21
390.5009974526
 31
0.0
  0
LINE
  5
16C
330
1F
100
AcDbEntity
  8
0
  6
Continuous
 62
     7
370
    15
100
AcDbLine
 10
736.1987841639
 20
390.5009974526
 30
0.0
 11
739.0855376932
 21
390.5009974526
 31
0.0
  0
LINE
  5
16D
330
1F
100
AcDbEntity
  8
0
  6
Continuous
 62
     7
370
    15
100
AcDbLine
 10
736.1987841639
 20
546.5010006712
 30
0.0
 11
736.1987841639
 21
542.5010000156
 31
0.0
  0
LINE
  5
16E
330
1F
100
AcDbEntity
  8
0
  6
Continuous
 62
     7
370
    15
100
AcDbLine
 10
736.1987841639
 20
546.5010006712
 30
0.0
 11
739.0855376932
 21
546.5010006712
 31
0.0
  0
LINE
  5
16F
330
1F
100
AcDbEntity
  8
0
  6
Continuous
 62
     7
370
    15
100
AcDbLine
 10
775.0887845966
 20
546.5010006712
 30
0.0
 11
775.0887845966
 21
542.5010000156
 31
0.0
  0
LINE
  5
170
330
1F
100
AcDbEntity
  8
0
  6
Continuous
 62
     7
370
    15
100
AcDbLine
 10
775.0887845966
 20
546.5010006712
 30
0.0
 11
777.9755344006
 21
546.5010006712
 31
0.0
  0
LINE
  5
171
330
1F
100
AcDbEntity
  8
0
  6
Continuous
 62
     7
370
    15
100
AcDbLine
 10
777.9755344006
 20
546.5010006712
 30
0.0
 11
777.9755344006
 21
542.5010000156
 31
0.0
  0
LINE
  5
172
330
1F
100
AcDbEntity
  8
0
  6
Continuous
 62
     7
370
    15
100
AcDbLine
 10
775.0887845966
 20
390.5009974526
 30
0.0
 11
777.9755344006
 21
390.5009974526
 31
0.0
  0
LINE
  5
173
330
1F
100
AcDbEntity
  8
0
  6
Continuous
 62
     7
370
    15
100
AcDbLine
 10
775.0887845966
 20
394.5009981082
 30
0.0
 11
775.0887845966
 21
390.5009974526
 31
0.0
  0
LINE
  5
174
330
1F
100
AcDbEntity
  8
0
  6
Continuous
 62
     7
370
    15
100
AcDbLine
 10
777.9755344006
 20
394.5009981082
 30
0.0
 11
777.9755344006
 21
390.5009974526
 31
0.0
  0
LINE
  5
175
330
1F
100
AcDbEntity
  8
0
  6
Continuous
 62
     7
370
    15
100
AcDbLine
 10
783.7490414592
 20
546.5010006712
 30
0.0
 11
783.7490414592
 21
542.5010000156
 31
0.0
  0
LINE
  5
176
330
1F
100
AcDbEntity
  8
0
  6
Continuous
 62
     7
370
    15
100
AcDbLine
 10
777.9755344006
 20
546.5010006712
 30
0.0
 11
783.7490414592
 21
546.5010006712
 31
0.0
  0
LINE
  5
177
330
1F
100
AcDbEntity
  8
0
  6
Continuous
 62
     7
370
    15
100
AcDbLine
 10
783.7490414592
 20
394.5009981082
 30
0.0
 11
783.7490414592
 21
390.5009974526
 31
0.0
  0
LINE
  5
178
330
1F
100
AcDbEntity
  8
0
  6
Continuous
 62
     7
370
    15
100
AcDbLine
 10
786.6357912632
 20
394.5009981082
 30
0.0
 11
786.6357912632
 21
390.5009974526
 31
0.0
  0
LINE
  5
179
330
1F
100
AcDbEntity
  8
0
  6
Continuous
 62
     7
370
    15
100
AcDbLine
 10
783.7490414592
 20
390.5009974526
 30
0.0
 11
786.6357912632
 21
390.5009974526
 31
0.0
  0
LINE
  5
17A
330
1F
100
AcDbEntity
  8
0
  6
Continuous
 62
     7
370
    15
100
AcDbLine
 10
777.9755344006
 20
390.5009974526
 30
0.0
 11
783.7490414592
 21
390.5009974526
 31
0.0
  0
LINE
  5
17B
330
1F
100
AcDbEntity
  8
0
  6
Continuous
 62
     7
370
    15
100
AcDbLine
 10
786.6357912632
 20
546.5010006712
 30
0.0
 11
786.6357912632
 21
542.5010000156
 31
0.0
  0
LINE
  5
17C
330
1F
100
AcDbEntity
  8
0
  6
Continuous
 62
     7
370
    15
100
AcDbLine
 10
783.7490414592
 20
546.5010006712
 30
0.0
 11
786.6357912632
 21
546.5010006712
 31
0.0
  0
LINE
  5
17D
330
1F
100
AcDbEntity
  8
0
  6
Continuous
 62
     7
370
    15
100
AcDbLine
 10
751.2422887
 20
646.5010021613
 30
0.0
 11
771.242288253
 21
646.5010021613
 31
0.0
  0
LINE
  5
17E
330
1F
100
AcDbEntity
  8
0
  6
Continuous
 62
     7
370
    15
100
AcDbLine
 10
598.2422878357
 20
499.6352878199
 30
0.0
 11
624.7422893855
 21
499.6352878199
 31
0.0
  0
LINE
  5
17F
330
1F
100
AcDbEntity
  8
0
  6
Continuous
 62
     7
370
    15
100
AcDbLine
 10
598.2422878357
 20
510.9167110906
 30
0.0
 11
598.2422878357
 21
499.6352878199
 31
0.0
  0
LINE
  5
180
330
1F
100
AcDbEntity
  8
0
  6
Continuous
 62
     7
370
    15
100
AcDbLine
 10
598.2422878357
 20
510.9167110906
 30
0.0
 11
624.7422893855
 21
510.9167110906
 31
0.0
  0
LINE
  5
181
330
1F
100
AcDbEntity
  8
0
  6
Continuous
 62
     7
370
    15
100
AcDbLine
 10
598.2422878357
 20
420.4445753978
 30
0.0
 11
624.7422893855
 21
420.4445753978
 31
0.0
  0
LINE
  5
182
330
1F
100
AcDbEntity
  8
0
  6
Continuous
 62
     7
370
    15
100
AcDbLine
 10
598.2422878357
 20
426.0852870331
 30
0.0
 11
624.7422893855
 21
426.0852870331
 31
0.0
  0
LINE
  5
183
330
1F
100
AcDbEntity
  8
0
  6
Continuous
 62
     7
370
    15
100
AcDbLine
 10
598.2422878357
 20
426.0852870331
 30
0.0
 11
598.2422878357
 21
420.4445753978
 31
0.0
  0
LINE
  5
184
330
1F
100
AcDbEntity
  8
0
  6
Continuous
 62
     7
370
    15
100
AcDbLine
 10
598.2422878357
 20
493.9945743219
 30
0.0
 11
624.7422893855
 21
493.9945743219
 31
0.0
  0
LINE
  5
185
330
1F
100
AcDbEntity
  8
0
  6
Continuous
 62
     7
370
    15
100
AcDbLine
 10
598.2422878357
 20
499.6352878199
 30
0.0
 11
598.2422878357
 21
493.9945743219
 31
0.0
  0
LINE
  5
186
330
1F
100
AcDbEntity
  8
0
  6
Continuous
 62
     7
370
    15
100
AcDbLine
 10
598.2422878357
 20
516.557422726
 30
0.0
 11
598.2422878357
 21
510.9167110906
 31
0.0
  0
LINE
  5
187
330
1F
100
AcDbEntity
  8
0
  6
Continuous
 62
     7
370
    15
100
AcDbLine
 10
598.2422878357
 20
516.557422726
 30
0.0
 11
624.7422893855
 21
516.557422726
 31
0.0
  0
LINE
  5
188
330
1F
100
AcDbEntity
  8
0
  6
Continuous
 62
     7
370
    15
100
AcDbLine
 10
598.2422878357
 20
437.3667103039
 30
0.0
 11
624.7422893855
 21
437.3667103039
 31
0.0
  0
LINE
  5
189
330
1F
100
AcDbEntity
  8
0
  6
Continuous
 62
     7
370
    15
100
AcDbLine
 10
598.2422878357
 20
443.0074238018
 30
0.0
 11
624.7422893855
 21
443.0074238018
 31
0.0
  0
LINE
  5
18A
330
1F
100
AcDbEntity
  8
0
  6
Continuous
 62
     7
370
    15
100
AcDbLine
 10
598.2422878357
 20
443.0074238018
 30
0.0
 11
598.2422878357
 21
437.3667103039
 31
0.0
  0
LINE
  5
18B
330
1F
100
AcDbEntity
  8
0
  6
Continuous
 62
     7
370
    15
100
AcDbLine
 10
598.2422878357
 20
437.3667103039
 30
0.0
 11
598.2422878357
 21
426.0852870331
 31
0.0
  0
ELLIPSE
  5
18C
330
1F
100
AcDbEntity
  8
0
  6
Continuous
 62
     7
370
    15
100
AcDbEllipse
 10
156.0177386619
 20
463.5009990619
 30
0.0
 11
439.4146487120224
 21
0.0
 31
0.0
210
0.0
220
0.0
230
1.0
 40
0.3868783175
 41
0.0294160068079384
 42
0.073595830525171
  0
LINE
  5
18D
330
1F
100
AcDbEntity
  8
0
  6
Continuous
 62
     7
370
    15
100
AcDbLine
 10
594.2429130289
 20
476.0009988943
 30
0.0
 11
621.651110551
 21
476.0009988943
 31
0.0
  0
LINE
  5
18E
330
1F
100
AcDbEntity
  8
0
  6
Continuous
 62
     7
370
    15
100
AcDbLine
 10
595.2422892066
 20
461.0009992295
 30
0.0
 11
621.651110551
 21
461.0009992295
 31
0.0
  0
LINE
  5
18F
330
1F
100
AcDbEntity
  8
0
  6
Continuous
 62
     7
370
    15
100
AcDbLine
 10
595.2422892066
 20
618.4203301357
 30
0.0
 11
578.2422845575
 21
618.4203301357
 31
0.0
  0
LINE
  5
190
330
1F
100
AcDbEntity
  8
0
  6
Continuous
 62
     7
370
    15
100
AcDbLine
 10
595.2422892066
 20
476.0009988943
 30
0.0
 11
595.2422892066
 21
618.4203301357
 31
0.0
  0
LINE
  5
191
330
1F
100
AcDbEntity
  8
0
  6
Continuous
 62
     7
370
    15
100
AcDbLine
 10
595.2422892066
 20
308.5816626237
 30
0.0
 11
595.2422892066
 21
468.5009990619
 31
0.0
  0
LINE
  5
192
330
1F
100
AcDbEntity
  8
0
  6
Continuous
 62
     7
370
    15
100
AcDbLine
 10
595.2422892066
 20
308.5816626237
 30
0.0
 11
578.2422845575
 21
308.5816626237
 31
0.0
  0
LINE
  5
193
330
1F
100
AcDbEntity
  8
0
  6
Continuous
 62
     7
370
    15
100
AcDbLine
 10
578.2422845575
 20
308.5816626237
 30
0.0
 11
578.2422845575
 21
618.4203301357
 31
0.0
  0
LINE
  5
194
330
1F
100
AcDbEntity
  8
0
  6
Continuous
 62
     7
370
    15
100
AcDbLine
 10
802.2422914716
 20
308.5816626237
 30
0.0
 11
802.2422914716
 21
618.4203301357
 31
0.0
  0
LINE
  5
195
330
1F
100
AcDbEntity
  8
0
  6
Continuous
 62
     7
370
    15
100
AcDbLine
 10
785.2422868225
 20
308.5816626237
 30
0.0
 11
802.2422914716
 21
308.5816626237
 31
0.0
  0
LINE
  5
196
330
1F
100
AcDbEntity
  8
0
  6
Continuous
 62
     7
370
    15
100
AcDbLine
 10
785.2422868225
 20
308.5816626237
 30
0.0
 11
785.2422868225
 21
390.5009974526
 31
0.0
  0
LINE
  5
197
330
1F
100
AcDbEntity
  8
0
  6
Continuous
 62
     7
370
    15
100
AcDbLine
 10
785.2422868225
 20
546.5010006712
 30
0.0
 11
785.2422868225
 21
618.4203301357
 31
0.0
  0
LINE
  5
198
330
1F
100
AcDbEntity
  8
0
  6
Continuous
 62
     7
370
    15
100
AcDbLine
 10
785.2422868225
 20
618.4203301357
 30
0.0
 11
802.2422914716
 21
618.4203301357
 31
0.0
  0
LINE
  5
199
330
1F
100
AcDbEntity
  8
0
  6
Continuous
 62
     7
370
    15
100
AcDbLine
 10
575.2422859284
 20
330.501002519
 30
0.0
 11
575.2422859284
 21
596.5010051416
 31
0.0
  0
LINE
  5
19A
330
1F
100
AcDbEntity
  8
0
  6
Continuous
 62
     7
370
    15
100
AcDbLine
 10
805.2422901007
 20
330.501002519
 30
0.0
 11
805.2422901007
 21
596.5010051416
 31
0.0
  0
LINE
  5
19B
330
1F
100
AcDbEntity
  8
0
  6
Continuous
 62
     7
370
    15
100
AcDbLine
 10
632.3332314703
 20
354.000997989
 30
0.0
 11
632.3332314703
 21
403.2955144332
 31
0.0
  0
LINE
  5
19C
330
1F
100
AcDbEntity
  8
0
  6
Continuous
 62
     7
370
    15
100
AcDbLine
 10
748.1513445589
 20
354.000997989
 30
0.0
 11
748.1513445589
 21
394.5009981082
 31
0.0
  0
LINE
  5
19D
330
1F
100
AcDbEntity
  8
0
  6
Continuous
 62
     7
370
    15
100
AcDbLine
 10
632.3332314703
 20
533.7064836906
 30
0.0
 11
632.3332314703
 21
573.0010022209
 31
0.0
  0
LINE
  5
19E
330
1F
100
AcDbEntity
  8
0
  6
Continuous
 62
     7
370
    15
100
AcDbLine
 10
748.1513445589
 20
542.5010000156
 30
0.0
 11
748.1513445589
 21
573.0010022209
 31
0.0
  0
SPLINE
  5
19F
330
1F
100
AcDbEntity
  8
0
  6
Continuous
 62
     7
370
    15
100
AcDbSpline
210
0.0
220
0.0
230
1.0
 70
     8
 71
     3
 72
    17
 73
    13
 74
     0
 42
0.00000001
 43
0.00000001
 12
1.0
 22
0.0
 32
0.0
 13
1.0
 23
0.0
 33
0.0
 40
0.0
 40
0.0
 40
0.0
 40
0.0
 40
0.1054200789040673
 40
0.210840018237278
 40
0.3193096621502361
 40
0.4277788386613004
 40
0.533204685892216
 40
0.638629988140669
 40
0.7471538532985823
 40
0.8556772415337397
 40
0.9604836098079854
 40
1.0
 40
1.0
 40
1.0
 40
1.0
 10
679.075653045142
 20
354.5826573656284
 30
0.0
 10
678.771408682442
 20
354.550578336718
 30
0.0
 10
678.1629203598463
 20
354.4864203213684
 30
0.0
 10
677.3461758317832
 20
354.3918606072913
 30
0.0
 10
676.608327173822
 20
354.3018104269919
 30
0.0
 10
675.9701461148283
 20
354.2197146741445
 30
0.0
 10
675.4388919579603
 20
354.1486607813297
 30
0.0
 10
675.0108718921487
 20
354.0895143261837
 30
0.0
 10
674.6862106123506
 20
354.0436004887993
 30
0.0
 10
674.4816945405405
 20
354.0141260698573
 30
0.0
 10
674.3887392097297
 20
354.000650768955
 30
0.0
 10
674.4007681256602
 20
354.0023914707173
 30
0.0
 10
674.404061711097
 20
354.002868084737
 30
0.0
  0
SPLINE
  5
1A0
330
1F
100
AcDbEntity
  8
0
  6
Continuous
 62
     7
370
    15
100
AcDbSpline
210
0.0
220
0.0
230
1.0
 70
     8
 71
     3
 72
    37
 73
    33
 74
     0
 42
0.00000001
 43
0.00000001
 12
1.0
 22
0.0
 32
0.0
 13
1.0
 23
0.0
 33
0.0
 40
0.0
 40
0.0
 40
0.0
 40
0.0
 40
0.0084624056878731
 40
0.0447901004664564
 40
0.0798469884206001
 40
0.1149039901638452
 40
0.1509735793934668
 40
0.1870433576843895
 40
0.2222130243596807
 40
0.2573828144388117
 40
0.2935583745298281
 40
0.3297339847007256
 40
0.3651738020142906
 40
0.4006135373258412
 40
0.4370845136751498
 40
0.473555289397102
 40
0.5089498361478905
 40
0.5443441325827911
 40
0.5807886934177399
 40
0.6172330393287863
 40
0.6522567818562915
 40
0.6872804902443637
 40
0.7233328805831164
 40
0.7593854013431486
 40
0.7942361542143218
 40
0.8290871323520113
 40
0.8649353927197766
 40
0.9007839069100609
 40
0.9254192786329434
 40
0.9500547175175457
 40
0.9750273577420331
 40
1.0
 40
1.0
 40
1.0
 40
1.0
 10
706.0829022290948
 20
354.0025253580295
 30
0.0
 10
706.0860458796765
 20
354.0020688276202
 30
0.0
 10
706.1026846973577
 20
353.9996524883841
 30
0.0
 10
706.019957762685
 20
354.0116509680508
 30
0.0
 10
705.833458335385
 20
354.038565325574
 30
0.0
 10
705.5319025163805
 20
354.081337774915
 30
0.0
 10
705.1220753970606
 20
354.1382334463756
 30
0.0
 10
704.6058265054613
 20
354.2076719888956
 30
0.0
 10
703.993629626347
 20
354.2869257189045
 30
0.0
 10
703.2867037672929
 20
354.3742210310667
 30
0.0
 10
702.4807325253219
 20
354.4682315063943
 30
0.0
 10
701.5855005946715
 20
354.565674234831
 30
0.0
 10
700.6159886449806
 20
354.6628953261941
 30
0.0
 10
699.5713262906036
 20
354.7581563858024
 30
0.0
 10
698.4488359037526
 20
354.8492809864628
 30
0.0
 10
697.266811794705
 20
354.9326817163196
 30
0.0
 10
696.0457818649372
 20
355.0051641420595
 30
0.0
 10
694.7839173002152
 20
355.0658494433338
 30
0.0
 10
693.4760905660701
 20
355.1130567531284
 30
0.0
 10
692.1488070210198
 20
355.1447032347714
 30
0.0
 10
690.8253364218906
 20
355.1598191274148
 30
0.0
 10
689.502641488402
 20
355.1590194667377
 30
0.0
 10
688.1723735645438
 20
355.141652772924
 30
0.0
 10
686.8593028982664
 20
355.1083953523921
 30
0.0
 10
685.5852403672917
 20
355.0607170974598
 30
0.0
 10
684.3457539966495
 20
355.0001738305834
 30
0.0
 10
683.1363367655706
 20
354.927280278214
 30
0.0
 10
682.088504895304
 20
354.8526652047029
 30
0.0
 10
681.2024204107038
 20
354.7817468403768
 30
0.0
 10
680.4607982513393
 20
354.7172248461461
 30
0.0
 10
679.7466016479714
 20
354.6505623361522
 30
0.0
 10
679.2993025854888
 20
354.6052923564174
 30
0.0
 10
679.075653045142
 20
354.5826573656284
 30
0.0
  0
SPLINE
  5
1A1
330
1F
100
AcDbEntity
  8
0
  6
Continuous
 62
     7
370
    15
100
AcDbSpline
210
0.0
220
0.0
230
1.0
 70
     8
 71
     3
 72
    17
 73
    13
 74
     0
 42
0.00000001
 43
0.00000001
 12
1.0
 22
0.0
 32
0.0
 13
1.0
 23
0.0
 33
0.0
 40
0.0
 40
0.0
 40
0.0
 40
0.0
 40
0.1054200796501478
 40
0.2108400197294381
 40
0.3193096644100591
 40
0.4277788416887831
 40
0.5332046896658201
 40
0.6386299926603906
 40
0.7471538585863505
 40
0.8556772475895513
 40
0.9604836103902714
 40
1.0
 40
1.0
 40
1.0
 40
1.0
 10
679.075653045142
 20
572.4193428443156
 30
0.0
 10
678.771408682442
 20
572.4514218730669
 30
0.0
 10
678.1629203598462
 20
572.5155798880983
 30
0.0
 10
677.3461758317839
 20
572.6101396045848
 30
0.0
 10
676.6083271738194
 20
572.7001897754728
 30
0.0
 10
675.970146114838
 20
572.7822855633649
 30
0.0
 10
675.4388919579254
 20
572.8533393289514
 30
0.0
 10
675.0108718922812
 20
572.9124862606809
 30
0.0
 10
674.6862106118393
 20
572.9583982682551
 30
0.0
 10
674.4816945463684
 20
572.9878794781141
 30
0.0
 10
674.3887392093341
 20
573.0013353045234
 30
0.0
 10
674.4007681255048
 20
572.9996057005909
 30
0.0
 10
674.404061711097
 20
572.999132125207
 30
0.0
  0
SPLINE
  5
1A2
330
1F
100
AcDbEntity
  8
0
  6
Continuous
 62
     7
370
    15
100
AcDbSpline
210
0.0
220
0.0
230
1.0
 70
     8
 71
     3
 72
    37
 73
    33
 74
     0
 42
0.00000001
 43
0.00000001
 12
1.0
 22
0.0
 32
0.0
 13
1.0
 23
0.0
 33
0.0
 40
0.0
 40
0.0
 40
0.0
 40
0.0
 40
0.0084624050338565
 40
0.0447900998198221
 40
0.0798469836003409
 40
0.1149039917395356
 40
0.1509735809764871
 40
0.1870433489572876
 40
0.2222130156397258
 40
0.2573828057260039
 40
0.2935583658243717
 40
0.3297339760026207
 40
0.3651737933233876
 40
0.4006135427886559
 40
0.4370845191453759
 40
0.4735552826104019
 40
0.5089498293683832
 40
0.5443441348267124
 40
0.5807886887157873
 40
0.6172330393008937
 40
0.6522567795657012
 40
0.6872804879608907
 40
0.7233328783069699
 40
0.7593853941120122
 40
0.7942361541725073
 40
0.8290871323172789
 40
0.8649353926923292
 40
0.9007839068898986
 40
0.9254192786177874
 40
0.9500547175073959
 40
0.9750273577369583
 40
1.0
 40
1.0
 40
1.0
 40
1.0
 10
706.0829022290948
 20
572.9994748519144
 30
0.0
 10
706.086045879478
 20
572.9999286624699
 30
0.0
 10
706.1026846971546
 20
573.002330606124
 30
0.0
 10
706.0199577818806
 20
572.9903418689436
 30
0.0
 10
705.833458287456
 20
572.9634391619073
 30
0.0
 10
705.5319025460478
 20
572.9206524016286
 30
0.0
 10
705.122075488834
 20
572.8637574823057
 30
0.0
 10
704.6058263978058
 20
572.7943306244678
 30
0.0
 10
703.9936296384586
 20
572.7150738644542
 30
0.0
 10
703.2867037665106
 20
572.6277793069271
 30
0.0
 10
702.4807325156205
 20
572.5337688434117
 30
0.0
 10
701.5855006338419
 20
572.436325293333
 30
0.0
 10
700.6159883731434
 20
572.3391074001203
 30
0.0
 10
699.5713265539429
 20
572.2438342257874
 30
0.0
 10
698.448836127936
 20
572.1527100863259
 30
0.0
 10
697.2668115658922
 20
572.0693199083044
 30
0.0
 10
696.0457816509754
 20
571.9968390675065
 30
0.0
 10
694.783917709153
 20
571.9361371363847
 30
0.0
 10
693.4760902303584
 20
571.8889504425025
 30
0.0
 10
692.1488072288457
 20
571.8572831163989
 30
0.0
 10
690.8253363452675
 20
571.8421849527219
 30
0.0
 10
689.5026414792818
 20
571.8429788285162
 30
0.0
 10
688.1723737156015
 20
571.860351217533
 30
0.0
 10
686.8593025887664
 20
571.8935918886051
 30
0.0
 10
685.585240563489
 20
571.9412865294981
 30
0.0
 10
684.3457539656946
 20
572.001825432599
 30
0.0
 10
683.1363367740674
 20
572.0747201916099
 30
0.0
 10
682.0885048938044
 20
572.149334959374
 30
0.0
 10
681.2024204110405
 20
572.2202533798666
 30
0.0
 10
680.4607982512481
 20
572.2847753610095
 30
0.0
 10
679.7466016479942
 20
572.351437874493
 30
0.0
 10
679.2993025854965
 20
572.3967078537604
 30
0.0
 10
679.075653045142
 20
572.4193428443156
 30
0.0
  0
LINE
  5
1A3
330
1F
100
AcDbEntity
  8
0
  6
Continuous
 62
     7
370
    15
100
AcDbLine
 10
668.2422881338
 20
366.05443552
 30
0.0
 11
668.2422881338
 21
403.0010004328
 31
0.0
  0
SPLINE
  5
1A4
330
1F
100
AcDbEntity
  8
0
  6
Continuous
 62
     7
370
    15
100
AcDbSpline
210
0.0
220
0.0
230
1.0
 70
     8
 71
     3
 72
    20
 73
    16
 74
     0
 42
0.00000001
 43
0.00000001
 12
1.0
 22
0.0
 32
0.0
 13
1.0
 23
0.0
 33
0.0
 40
0.0
 40
0.0
 40
0.0
 40
0.0
 40
0.1249999999999989
 40
0.1249999999999989
 40
0.2499999999999978
 40
0.2499999999999978
 40
0.3749999999999967
 40
0.3749999999999967
 40
0.4999999999999956
 40
0.4999999999999956
 40
0.7499999999999978
 40
0.7499999999999978
 40
0.8749999999999989
 40
0.8749999999999989
 40
1.0
 40
1.0
 40
1.0
 40
1.0
 10
670.2422880145552
 20
365.0576888686252
 30
0.0
 10
670.107372812706
 20
365.0576888686252
 30
0.0
 10
669.9750429885233
 20
365.0645997638887
 30
0.0
 10
669.7150814750153
 20
365.0910082046742
 30
0.0
 10
669.5861005454849
 20
365.1108486572579
 30
0.0
 10
669.3418193835818
 20
365.1617351017217
 30
0.0
 10
669.226077762328
 20
365.1926546178677
 30
0.0
 10
669.0074162859855
 20
365.2655765256106
 30
0.0
 10
668.9052235225989
 20
365.307541315265
 30
0.0
 10
668.6322906121785
 20
365.4454505054993
 30
0.0
 10
668.4880588235679
 20
365.5562331249734
 30
0.0
 10
668.3426820970291
 20
365.734777914334
 30
0.0
 10
668.3051681178316
 20
365.7973588543517
 30
0.0
 10
668.2551183839306
 20
365.9244314998035
 30
0.0
 10
668.2422880145552
 20
365.9889257903031
 30
0.0
 10
668.2422880145552
 20
366.0544325903045
 30
0.0
  0
LINE
  5
1A5
330
1F
100
AcDbEntity
  8
0
  6
Continuous
 62
     7
370
    15
100
AcDbLine
 10
710.2422875675
 20
365.0576893972
 30
0.0
 11
670.2422884616
 21
365.0576893972
 31
0.0
  0
SPLINE
  5
1A6
330
1F
100
AcDbEntity
  8
0
  6
Continuous
 62
     7
370
    15
100
AcDbSpline
210
0.0
220
0.0
230
1.0
 70
     8
 71
     3
 72
    20
 73
    16
 74
     0
 42
0.00000001
 43
0.00000001
 12
1.0
 22
0.0
 32
0.0
 13
1.0
 23
0.0
 33
0.0
 40
0.0
 40
0.0
 40
0.0
 40
0.0
 40
0.1249999999999997
 40
0.1249999999999997
 40
0.2499999999999994
 40
0.2499999999999994
 40
0.3749999999999992
 40
0.3749999999999992
 40
0.4999999999999989
 40
0.4999999999999989
 40
0.6249999999999987
 40
0.6249999999999987
 40
0.7499999999999983
 40
0.7499999999999983
 40
1.0
 40
1.0
 40
1.0
 40
1.0
 10
712.2422880145552
 20
366.0544325903045
 30
0.0
 10
712.2422880145552
 20
365.9888615972952
 30
0.0
 10
712.2295655981916
 20
365.9245659696211
 30
0.0
 10
712.1802326671698
 20
365.7983562022667
 30
0.0
 10
712.1431849894468
 20
365.7359319392825
 30
0.0
 10
712.0457633533225
 20
365.6159867025341
 30
0.0
 10
711.9861631879792
 20
365.5591072815449
 30
0.0
 10
711.8451238777169
 20
365.4514468433993
 30
0.0
 10
711.7625191476114
 20
365.4001505917636
 30
0.0
 10
711.5798722391604
 20
365.3077467382245
 30
0.0
 10
711.4796917850024
 20
365.2665343535811
 30
0.0
 10
711.2621805718426
 20
365.1936513792737
 30
0.0
 10
711.1440013910277
 20
365.1619563547561
 30
0.0
 10
710.7788628823317
 20
365.0857154041153
 30
0.0
 10
710.5122067205921
 20
365.0576888686252
 30
0.0
 10
710.2422880145552
 20
365.0576888686252
 30
0.0
  0
LINE
  5
1A7
330
1F
100
AcDbEntity
  8
0
  6
Continuous
 62
     7
370
    15
100
AcDbLine
 10
712.2422878953
 20
403.1022240208
 30
0.0
 11
712.2422878953
 21
366.05443552
 31
0.0
  0
LINE
  5
1A8
330
1F
100
AcDbEntity
  8
0
  6
Continuous
 62
     7
370
    15
100
AcDbLine
 10
717.2422887149
 20
404.9753968404
 30
0.0
 11
717.2422887149
 21
366.05443552
 31
0.0
  0
SPLINE
  5
1A9
330
1F
100
AcDbEntity
  8
0
  6
Continuous
 62
     7
370
    15
100
AcDbSpline
210
0.0
220
0.0
230
1.0
 70
     8
 71
     3
 72
    12
 73
     8
 74
     0
 42
0.00000001
 43
0.00000001
 12
1.0
 22
0.0
 32
0.0
 13
1.0
 23
0.0
 33
0.0
 40
0.0
 40
0.0
 40
0.0
 40
0.0
 40
0.5000000000000003
 40
0.5000000000000003
 40
0.7500000000000002
 40
0.7500000000000002
 40
1.0
 40
1.0
 40
1.0
 40
1.0
 10
710.2422880145552
 20
362.696246048459
 30
0.0
 10
712.1392735260678
 20
362.696246048459
 30
0.0
 10
713.9699294072028
 20
363.0551282818103
 30
0.0
 10
715.8835390845061
 20
363.9731085967243
 30
0.0
 10
716.3855257440139
 20
364.3385829525063
 30
0.0
 10
717.0674801334713
 20
365.1540034825125
 30
0.0
 10
717.2422880145552
 20
365.5938009113825
 30
0.0
 10
717.2422880145552
 20
366.0544325903045
 30
0.0
  0
LINE
  5
1AA
330
1F
100
AcDbEntity
  8
0
  6
Continuous
 62
     7
370
    15
100
AcDbLine
 10
710.2422875675
 20
362.6962427781
 30
0.0
 11
670.2422884616
 21
362.6962427781
 31
0.0
  0
SPLINE
  5
1AB
330
1F
100
AcDbEntity
  8
0
  6
Continuous
 62
     7
370
    15
100
AcDbSpline
210
0.0
220
0.0
230
1.0
 70
     8
 71
     3
 72
    12
 73
     8
 74
     0
 42
0.00000001
 43
0.00000001
 12
1.0
 22
0.0
 32
0.0
 13
1.0
 23
0.0
 33
0.0
 40
0.0
 40
0.0
 40
0.0
 40
0.0
 40
0.5000000000000003
 40
0.5000000000000003
 40
0.7500000000000002
 40
0.7500000000000002
 40
1.0
 40
1.0
 40
1.0
 40
1.0
 10
663.2422880145552
 20
366.0544325903045
 30
0.0
 10
663.2422880145552
 20
365.1339497138835
 30
0.0
 10
663.9698112855611
 20
364.2751747741458
 30
0.0
 10
665.8777420184656
 20
363.3610298821786
 30
0.0
 10
666.6539779946132
 20
363.115212905211
 30
0.0
 10
668.3644209140452
 20
362.7833149508954
 30
0.0
 10
669.2947265572706
 20
362.696246048459
 30
0.0
 10
670.2422880145552
 20
362.696246048459
 30
0.0
  0
LINE
  5
1AC
330
1F
100
AcDbEntity
  8
0
  6
Continuous
 62
     7
370
    15
100
AcDbLine
 10
663.2422873142
 20
366.05443552
 30
0.0
 11
663.2422873142
 21
403.0010004328
 31
0.0
  0
SPLINE
  5
1AD
330
1F
100
AcDbEntity
  8
0
  6
Continuous
 62
     7
370
    15
100
AcDbSpline
210
0.0
220
0.0
230
1.0
 70
     8
 71
     3
 72
    20
 73
    16
 74
     0
 42
0.00000001
 43
0.00000001
 12
1.0
 22
0.0
 32
0.0
 13
1.0
 23
0.0
 33
0.0
 40
0.0
 40
0.0
 40
0.0
 40
0.0
 40
0.1250000000000004
 40
0.1250000000000004
 40
0.2500000000000007
 40
0.2500000000000007
 40
0.3750000000000011
 40
0.3750000000000011
 40
0.5000000000000014
 40
0.5000000000000014
 40
0.6250000000000018
 40
0.6250000000000018
 40
0.7500000000000022
 40
0.7500000000000022
 40
1.0
 40
1.0
 40
1.0
 40
1.0
 10
712.2422880145552
 20
367.8221995432709
 30
0.0
 10
712.2422880145552
 20
367.7566285502616
 30
0.0
 10
712.2295655981916
 20
367.6923329225874
 30
0.0
 10
712.1802326671698
 20
367.566123155233
 30
0.0
 10
712.1431849894468
 20
367.5036988922488
 30
0.0
 10
712.0457633533225
 20
367.3837536555005
 30
0.0
 10
711.9861631879792
 20
367.3268742345113
 30
0.0
 10
711.8451238777169
 20
367.2192137963657
 30
0.0
 10
711.7625191476114
 20
367.16791754473
 30
0.0
 10
711.5798722391604
 20
367.0755136911908
 30
0.0
 10
711.4796917850024
 20
367.0343013065474
 30
0.0
 10
711.2621805718426
 20
366.9614183322401
 30
0.0
 10
711.1440013910277
 20
366.9297233077226
 30
0.0
 10
710.7788628823317
 20
366.8534823570817
 30
0.0
 10
710.5122067205921
 20
366.8254558215916
 30
0.0
 10
710.2422880145552
 20
366.8254558215916
 30
0.0
  0
LINE
  5
1AE
330
1F
100
AcDbEntity
  8
0
  6
Continuous
 62
     7
370
    15
100
AcDbLine
 10
710.2422875675
 20
366.8254588531
 30
0.0
 11
670.2422884616
 21
366.8254588531
 31
0.0
  0
SPLINE
  5
1AF
330
1F
100
AcDbEntity
  8
0
  6
Continuous
 62
     7
370
    15
100
AcDbSpline
210
0.0
220
0.0
230
1.0
 70
     8
 71
     3
 72
    20
 73
    16
 74
     0
 42
0.00000001
 43
0.00000001
 12
1.0
 22
0.0
 32
0.0
 13
1.0
 23
0.0
 33
0.0
 40
0.0
 40
0.0
 40
0.0
 40
0.0
 40
0.1249999999999989
 40
0.1249999999999989
 40
0.2499999999999978
 40
0.2499999999999978
 40
0.3749999999999967
 40
0.3749999999999967
 40
0.4999999999999956
 40
0.4999999999999956
 40
0.7499999999999978
 40
0.7499999999999978
 40
0.8749999999999989
 40
0.8749999999999989
 40
1.0
 40
1.0
 40
1.0
 40
1.0
 10
670.2422880145552
 20
366.8254558215916
 30
0.0
 10
670.107372812706
 20
366.8254558215916
 30
0.0
 10
669.9750429885233
 20
366.8323667168551
 30
0.0
 10
669.7150814750153
 20
366.8587751576405
 30
0.0
 10
669.5861005454849
 20
366.8786156102242
 30
0.0
 10
669.3418193835818
 20
366.929502054688
 30
0.0
 10
669.226077762328
 20
366.960421570834
 30
0.0
 10
669.0074162859855
 20
367.0333434785771
 30
0.0
 10
668.9052235225989
 20
367.0753082682314
 30
0.0
 10
668.6322906121785
 20
367.2132174584656
 30
0.0
 10
668.4880588235679
 20
367.3240000779397
 30
0.0
 10
668.3426820970291
 20
367.5025448673003
 30
0.0
 10
668.3051681178316
 20
367.5651258073181
 30
0.0
 10
668.2551183839306
 20
367.6921984527698
 30
0.0
 10
668.2422880145552
 20
367.7566927432695
 30
0.0
 10
668.2422880145552
 20
367.8221995432709
 30
0.0
  0
LINE
  5
1B0
330
1F
100
AcDbEntity
  8
0
  6
Continuous
 62
     7
370
    15
100
AcDbLine
 10
595.2422892066
 20
645.5010001348
 30
0.0
 11
578.2422845575
 21
645.5010001348
 31
0.0
  0
LINE
  5
1B1
330
1F
100
AcDbEntity
  8
0
  6
Continuous
 62
     7
370
    15
100
AcDbLine
 10
595.2422892066
 20
618.4203301357
 30
0.0
 11
595.2422892066
 21
645.5010001348
 31
0.0
  0
LINE
  5
1B2
330
1F
100
AcDbEntity
  8
0
  6
Continuous
 62
     7
370
    15
100
AcDbLine
 10
578.2422845575
 20
618.4203301357
 30
0.0
 11
578.2422845575
 21
645.5010001348
 31
0.0
  0
LINE
  5
1B3
330
1F
100
AcDbEntity
  8
0
  6
Continuous
 62
     7
370
    15
100
AcDbLine
 10
595.2422892066
 20
281.5009926246
 30
0.0
 11
578.2422845575
 21
281.5009926246
 31
0.0
  0
LINE
  5
1B4
330
1F
100
AcDbEntity
  8
0
  6
Continuous
 62
     7
370
    15
100
AcDbLine
 10
595.2422892066
 20
308.5816626237
 30
0.0
 11
595.2422892066
 21
281.5009926246
 31
0.0
  0
LINE
  5
1B5
330
1F
100
AcDbEntity
  8
0
  6
Continuous
 62
     7
370
    15
100
AcDbLine
 10
578.2422845575
 20
308.5816626237
 30
0.0
 11
578.2422845575
 21
281.5009926246
 31
0.0
  0
LINE
  5
1B6
330
1F
100
AcDbEntity
  8
0
  6
Continuous
 62
     7
370
    15
100
AcDbLine
 10
785.2422868225
 20
281.5009926246
 30
0.0
 11
802.2422914716
 21
281.5009926246
 31
0.0
  0
LINE
  5
1B7
330
1F
100
AcDbEntity
  8
0
  6
Continuous
 62
     7
370
    15
100
AcDbLine
 10
802.2422914716
 20
308.5816626237
 30
0.0
 11
802.2422914716
 21
281.5009926246
 31
0.0
  0
LINE
  5
1B8
330
1F
100
AcDbEntity
  8
0
  6
Continuous
 62
     7
370
    15
100
AcDbLine
 10
785.2422868225
 20
308.5816626237
 30
0.0
 11
785.2422868225
 21
281.5009926246
 31
0.0
  0
LINE
  5
1B9
330
1F
100
AcDbEntity
  8
0
  6
Continuous
 62
     7
370
    15
100
AcDbLine
 10
785.2422868225
 20
645.5010001348
 30
0.0
 11
802.2422914716
 21
645.5010001348
 31
0.0
  0
LINE
  5
1BA
330
1F
100
AcDbEntity
  8
0
  6
Continuous
 62
     7
370
    15
100
AcDbLine
 10
785.2422868225
 20
618.4203301357
 30
0.0
 11
785.2422868225
 21
645.5010001348
 31
0.0
  0
LINE
  5
1BB
330
1F
100
AcDbEntity
  8
0
  6
Continuous
 62
     7
370
    15
100
AcDbLine
 10
802.2422914716
 20
618.4203301357
 30
0.0
 11
802.2422914716
 21
645.5010001348
 31
0.0
  0
LINE
  5
1BC
330
1F
100
AcDbEntity
  8
0
  6
Continuous
 62
     7
370
    15
100
AcDbLine
 10
675.2422883498
 20
605.5009935783
 30
0.0
 11
705.2422876793
 21
605.5009935783
 31
0.0
  0
LINE
  5
1BD
330
1F
100
AcDbEntity
  8
0
  6
Continuous
 62
     7
370
    15
100
AcDbLine
 10
675.2422883498
 20
321.5009991811
 30
0.0
 11
705.2422876793
 21
321.5009991811
 31
0.0
  0
LINE
  5
1BE
330
1F
100
AcDbEntity
  8
0
  6
Continuous
 62
     8
370
     0
100
AcDbLine
 10
710.2422875675
 20
366.8254588531
 30
0.0
 11
710.2422875675
 21
365.0576893972
 31
0.0
  0
LINE
  5
1BF
330
1F
100
AcDbEntity
  8
0
  6
Continuous
 62
     8
370
     0
100
AcDbLine
 10
670.2422884616
 20
366.8254588531
 30
0.0
 11
670.2422884616
 21
365.0576893972
 31
0.0
  0
INSERT
  5
1CB
330
1F
100
AcDbEntity
  8
FORMAT
 62
     7
100
AcDbBlockReference
  2
SW_CENTERMARKSYMBOL_1
 10
690.2422880146
 20
468.5009990619
 30
0.0
  0
LINE
  5
1CC
330
1F
100
AcDbEntity
  8
0
  6
Continuous
 62
     7
370
    15
100
AcDbLine
 10
138.886837711
 20
238.17620919
 30
0.0
 11
138.886837711
 21
221.1762045408
 31
0.0
  0
LINE
  5
1CD
330
1F
100
AcDbEntity
  8
0
  6
Continuous
 62
     7
370
    15
100
AcDbLine
 10
478.8868412873
 20
221.1762045408
 30
0.0
 11
478.8868412873
 21
238.17620919
 31
0.0
  0
LINE
  5
1CE
330
1F
100
AcDbEntity
  8
0
  6
Continuous
 62
     7
370
    15
100
AcDbLine
 10
138.886837711
 20
31.176206925
 30
0.0
 11
138.886837711
 21
14.1762022758
 31
0.0
  0
LINE
  5
1CF
330
1F
100
AcDbEntity
  8
0
  6
Continuous
 62
     7
370
    15
100
AcDbLine
 10
478.8868412873
 20
14.1762022758
 30
0.0
 11
478.8868412873
 21
31.176206925
 31
0.0
  0
LINE
  5
1D0
330
1F
100
AcDbEntity
  8
0
  6
Continuous
 62
     7
370
    15
100
AcDbLine
 10
175.8868381879
 20
241.1762078191
 30
0.0
 11
175.8868381879
 21
238.17620919
 31
0.0
  0
LINE
  5
1D1
330
1F
100
AcDbEntity
  8
0
  6
Continuous
 62
     7
370
    15
100
AcDbLine
 10
441.8868408105
 20
238.17620919
 30
0.0
 11
441.8868408105
 21
241.1762078191
 31
0.0
  0
LINE
  5
1D2
330
1F
100
AcDbEntity
  8
0
  6
Continuous
 62
     7
370
    15
100
AcDbLine
 10
175.8868381879
 20
14.1762022758
 30
0.0
 11
175.8868381879
 21
11.1762036467
 31
0.0
  0
LINE
  5
1D3
330
1F
100
AcDbEntity
  8
0
  6
Continuous
 62
     7
370
    15
100
AcDbLine
 10
441.8868408105
 20
11.1762036467
 30
0.0
 11
441.8868408105
 21
14.1762022758
 31
0.0
  0
LINE
  5
1D4
330
1F
100
AcDbEntity
  8
0
  6
Continuous
 62
     7
370
    15
100
AcDbLine
 10
337.2117899856
 20
145.7803484882
 30
0.0
 11
338.9795575789
 21
145.7803484882
 31
0.0
  0
LINE
  5
1D5
330
1F
100
AcDbEntity
  8
0
  6
Continuous
 62
     7
370
    15
100
AcDbLine
 10
338.9790416262
 20
142.1952427263
 30
0.0
 11
337.2112758955
 21
142.1952427263
 31
0.0
  0
LINE
  5
1D6
330
1F
100
AcDbEntity
  8
0
  6
Continuous
 62
     7
370
    15
100
AcDbLine
 10
355.6469701728
 20
148.1547367657
 30
0.0
 11
353.879163464
 21
148.1547367657
 31
0.0
  0
LINE
  5
1D7
330
1F
100
AcDbEntity
  8
0
  6
Continuous
 62
     7
370
    15
100
AcDbLine
 10
353.8792118928
 20
130.4165481488
 30
0.0
 11
355.6470409533
 21
130.4165481488
 31
0.0
  0
LINE
  5
1D8
330
1F
100
AcDbEntity
  8
0
  6
Continuous
 62
     7
370
    15
100
AcDbLine
 10
355.6470074257
 20
121.9358586604
 30
0.0
 11
353.879163464
 21
121.9358586604
 31
0.0
  0
LINE
  5
1D9
330
1F
100
AcDbEntity
  8
0
  6
Continuous
 62
     7
370
    15
100
AcDbLine
 10
353.8792118928
 20
101.5273940648
 30
0.0
 11
355.6470409533
 21
101.5273940648
 31
0.0
  0
LINE
  5
1DA
330
1F
100
AcDbEntity
  8
0
  6
Continuous
 62
     7
370
    15
100
AcDbLine
 10
108.8868365189
 20
63.6762057329
 30
0.0
 11
126.3868347308
 21
63.6762057329
 31
0.0
  0
LINE
  5
1DB
330
1F
100
AcDbEntity
  8
0
  6
Continuous
 62
     7
370
    15
100
AcDbLine
 10
126.3868347308
 20
188.6762057329
 30
0.0
 11
108.8868365189
 21
188.6762057329
 31
0.0
  0
LINE
  5
1DC
330
1F
100
AcDbEntity
  8
0
  6
Continuous
 62
     7
370
    15
100
AcDbLine
 10
535.8868375918
 20
188.6762057329
 30
0.0
 11
491.3868442675
 21
188.6762057329
 31
0.0
  0
LINE
  5
1DD
330
1F
100
AcDbEntity
  8
0
  6
Continuous
 62
     7
370
    15
100
AcDbLine
 10
491.3868442675
 20
63.6762057329
 30
0.0
 11
535.8868375918
 21
63.6762057329
 31
0.0
  0
LINE
  5
1DE
330
1F
100
AcDbEntity
  8
0
  6
Continuous
 62
     7
370
    15
100
AcDbLine
 10
29.8868254325
 20
162.6762051965
 30
0.0
 11
28.8868383071
 21
162.6762051965
 31
0.0
  0
LINE
  5
1DF
330
1F
100
AcDbEntity
  8
0
  6
Continuous
 62
     7
370
    15
100
AcDbLine
 10
28.8868383071
 20
89.6762062694
 30
0.0
 11
29.8868254325
 21
89.6762062694
 31
0.0
  0
LINE
  5
1E0
330
1F
100
AcDbEntity
  8
0
  6
Continuous
 62
     7
370
    15
100
AcDbLine
 10
108.8868365189
 20
195.1762040044
 30
0.0
 11
78.4768447778
 21
195.1762040044
 31
0.0
  0
LINE
  5
1E1
330
1F
100
AcDbEntity
  8
0
  6
Continuous
 62
     7
370
    15
100
AcDbLine
 10
58.936832895
 20
195.1762040044
 30
0.0
 11
29.8868254325
 21
195.1762040044
 31
0.0
  0
CIRCLE
  5
1E2
330
1F
100
AcDbEntity
  8
0
  6
Continuous
 62
     7
370
    15
100
AcDbCircle
 10
68.3868394992
 20
55.1762057329
 30
0.0
 40
10.00000000000001
  0
LINE
  5
1E3
330
1F
100
AcDbEntity
  8
0
  6
Continuous
 62
     7
370
    15
100
AcDbLine
 10
273.8868393502
 20
221.1762045408
 30
0.0
 11
273.8868393502
 21
238.17620919
 31
0.0
  0
LINE
  5
1E4
330
1F
100
AcDbEntity
  8
0
  6
Continuous
 62
     7
370
    15
100
AcDbLine
 10
238.8868392012
 20
221.1762045408
 30
0.0
 11
273.8868393502
 21
221.1762045408
 31
0.0
  0
LINE
  5
1E5
330
1F
100
AcDbEntity
  8
0
  6
Continuous
 62
     7
370
    15
100
AcDbLine
 10
238.8868392012
 20
221.1762045408
 30
0.0
 11
238.8868392012
 21
238.17620919
 31
0.0
  0
LINE
  5
1E6
330
1F
100
AcDbEntity
  8
0
  6
Continuous
 62
     7
370
    15
100
AcDbLine
 10
238.8868392012
 20
238.17620919
 30
0.0
 11
273.8868393502
 21
238.17620919
 31
0.0
  0
LINE
  5
1E7
330
1F
100
AcDbEntity
  8
0
  6
Continuous
 62
     7
370
    15
100
AcDbLine
 10
343.8868396482
 20
221.1762045408
 30
0.0
 11
378.8868397972
 21
221.1762045408
 31
0.0
  0
LINE
  5
1E8
330
1F
100
AcDbEntity
  8
0
  6
Continuous
 62
     7
370
    15
100
AcDbLine
 10
343.8868396482
 20
221.1762045408
 30
0.0
 11
343.8868396482
 21
238.17620919
 31
0.0
  0
LINE
  5
1E9
330
1F
100
AcDbEntity
  8
0
  6
Continuous
 62
     7
370
    15
100
AcDbLine
 10
343.8868396482
 20
238.17620919
 30
0.0
 11
378.8868397972
 21
238.17620919
 31
0.0
  0
LINE
  5
1EA
330
1F
100
AcDbEntity
  8
0
  6
Continuous
 62
     7
370
    15
100
AcDbLine
 10
378.8868397972
 20
221.1762045408
 30
0.0
 11
378.8868397972
 21
238.17620919
 31
0.0
  0
LINE
  5
1EB
330
1F
100
AcDbEntity
  8
0
  6
Continuous
 62
     7
370
    15
100
AcDbLine
 10
283.8868391266
 20
221.1762045408
 30
0.0
 11
283.8868391266
 21
238.17620919
 31
0.0
  0
LINE
  5
1EC
330
1F
100
AcDbEntity
  8
0
  6
Continuous
 62
     7
370
    15
100
AcDbLine
 10
273.8868393502
 20
221.1762045408
 30
0.0
 11
283.8868391266
 21
221.1762045408
 31
0.0
  0
LINE
  5
1ED
330
1F
100
AcDbEntity
  8
0
  6
Continuous
 62
     7
370
    15
100
AcDbLine
 10
273.8868393502
 20
238.17620919
 30
0.0
 11
283.8868391266
 21
238.17620919
 31
0.0
  0
LINE
  5
1EE
330
1F
100
AcDbEntity
  8
0
  6
Continuous
 62
     7
370
    15
100
AcDbLine
 10
333.8868398717
 20
221.1762045408
 30
0.0
 11
343.8868396482
 21
221.1762045408
 31
0.0
  0
LINE
  5
1EF
330
1F
100
AcDbEntity
  8
0
  6
Continuous
 62
     7
370
    15
100
AcDbLine
 10
333.8868398717
 20
221.1762045408
 30
0.0
 11
333.8868398717
 21
238.17620919
 31
0.0
  0
LINE
  5
1F0
330
1F
100
AcDbEntity
  8
0
  6
Continuous
 62
     7
370
    15
100
AcDbLine
 10
333.8868398717
 20
238.17620919
 30
0.0
 11
343.8868396482
 21
238.17620919
 31
0.0
  0
LINE
  5
1F1
330
1F
100
AcDbEntity
  8
0
  6
Continuous
 62
     7
370
    15
100
AcDbLine
 10
238.8868392012
 20
31.176206925
 30
0.0
 11
238.8868392012
 21
14.1762022758
 31
0.0
  0
LINE
  5
1F2
330
1F
100
AcDbEntity
  8
0
  6
Continuous
 62
     7
370
    15
100
AcDbLine
 10
238.8868392012
 20
31.176206925
 30
0.0
 11
273.8868393502
 21
31.176206925
 31
0.0
  0
LINE
  5
1F3
330
1F
100
AcDbEntity
  8
0
  6
Continuous
 62
     7
370
    15
100
AcDbLine
 10
273.8868393502
 20
31.176206925
 30
0.0
 11
273.8868393502
 21
14.1762022758
 31
0.0
  0
LINE
  5
1F4
330
1F
100
AcDbEntity
  8
0
  6
Continuous
 62
     7
370
    15
100
AcDbLine
 10
238.8868392012
 20
14.1762022758
 30
0.0
 11
273.8868393502
 21
14.1762022758
 31
0.0
  0
LINE
  5
1F5
330
1F
100
AcDbEntity
  8
0
  6
Continuous
 62
     7
370
    15
100
AcDbLine
 10
333.8868398717
 20
31.176206925
 30
0.0
 11
333.8868398717
 21
14.1762022758
 31
0.0
  0
LINE
  5
1F6
330
1F
100
AcDbEntity
  8
0
  6
Continuous
 62
     7
370
    15
100
AcDbLine
 10
343.8868396482
 20
31.176206925
 30
0.0
 11
343.8868396482
 21
14.1762022758
 31
0.0
  0
LINE
  5
1F7
330
1F
100
AcDbEntity
  8
0
  6
Continuous
 62
     7
370
    15
100
AcDbLine
 10
333.8868398717
 20
14.1762022758
 30
0.0
 11
343.8868396482
 21
14.1762022758
 31
0.0
  0
LINE
  5
1F8
330
1F
100
AcDbEntity
  8
0
  6
Continuous
 62
     7
370
    15
100
AcDbLine
 10
333.8868398717
 20
31.176206925
 30
0.0
 11
343.8868396482
 21
31.176206925
 31
0.0
  0
LINE
  5
1F9
330
1F
100
AcDbEntity
  8
0
  6
Continuous
 62
     7
370
    15
100
AcDbLine
 10
343.8868396482
 20
14.1762022758
 30
0.0
 11
378.8868397972
 21
14.1762022758
 31
0.0
  0
LINE
  5
1FA
330
1F
100
AcDbEntity
  8
0
  6
Continuous
 62
     7
370
    15
100
AcDbLine
 10
378.8868397972
 20
31.176206925
 30
0.0
 11
378.8868397972
 21
14.1762022758
 31
0.0
  0
LINE
  5
1FB
330
1F
100
AcDbEntity
  8
0
  6
Continuous
 62
     7
370
    15
100
AcDbLine
 10
343.8868396482
 20
31.176206925
 30
0.0
 11
378.8868397972
 21
31.176206925
 31
0.0
  0
LINE
  5
1FC
330
1F
100
AcDbEntity
  8
0
  6
Continuous
 62
     7
370
    15
100
AcDbLine
 10
283.8868391266
 20
31.176206925
 30
0.0
 11
283.8868391266
 21
14.1762022758
 31
0.0
  0
LINE
  5
1FD
330
1F
100
AcDbEntity
  8
0
  6
Continuous
 62
     7
370
    15
100
AcDbLine
 10
273.8868393502
 20
14.1762022758
 30
0.0
 11
283.8868391266
 21
14.1762022758
 31
0.0
  0
LINE
  5
1FE
330
1F
100
AcDbEntity
  8
0
  6
Continuous
 62
     7
370
    15
100
AcDbLine
 10
273.8868393502
 20
31.176206925
 30
0.0
 11
283.8868391266
 21
31.176206925
 31
0.0
  0
LINE
  5
1FF
330
1F
100
AcDbEntity
  8
0
  6
Continuous
 62
     7
370
    15
100
AcDbLine
 10
303.8868396109
 20
238.17620919
 30
0.0
 11
303.8868396109
 21
221.1762045408
 31
0.0
  0
LINE
  5
200
330
1F
100
AcDbEntity
  8
0
  6
Continuous
 62
     7
370
    15
100
AcDbLine
 10
283.8868391266
 20
221.1762045408
 30
0.0
 11
303.8868396109
 21
221.1762045408
 31
0.0
  0
LINE
  5
201
330
1F
100
AcDbEntity
  8
0
  6
Continuous
 62
     7
370
    15
100
AcDbLine
 10
283.8868391266
 20
238.17620919
 30
0.0
 11
303.8868396109
 21
238.17620919
 31
0.0
  0
LINE
  5
202
330
1F
100
AcDbEntity
  8
0
  6
Continuous
 62
     7
370
    15
100
AcDbLine
 10
313.8868393874
 20
238.17620919
 30
0.0
 11
313.8868393874
 21
221.1762045408
 31
0.0
  0
LINE
  5
203
330
1F
100
AcDbEntity
  8
0
  6
Continuous
 62
     7
370
    15
100
AcDbLine
 10
313.8868393874
 20
221.1762045408
 30
0.0
 11
333.8868398717
 21
221.1762045408
 31
0.0
  0
LINE
  5
204
330
1F
100
AcDbEntity
  8
0
  6
Continuous
 62
     7
370
    15
100
AcDbLine
 10
313.8868393874
 20
238.17620919
 30
0.0
 11
333.8868398717
 21
238.17620919
 31
0.0
  0
LINE
  5
205
330
1F
100
AcDbEntity
  8
0
  6
Continuous
 62
     7
370
    15
100
AcDbLine
 10
308.8868394992
 20
238.17620919
 30
0.0
 11
308.8868394992
 21
221.1762045408
 31
0.0
  0
LINE
  5
206
330
1F
100
AcDbEntity
  8
0
  6
Continuous
 62
     7
370
    15
100
AcDbLine
 10
308.8868394992
 20
221.1762045408
 30
0.0
 11
303.8868396109
 21
221.1762045408
 31
0.0
  0
LINE
  5
207
330
1F
100
AcDbEntity
  8
0
  6
Continuous
 62
     7
370
    15
100
AcDbLine
 10
303.8868396109
 20
238.17620919
 30
0.0
 11
308.8868394992
 21
238.17620919
 31
0.0
  0
LINE
  5
208
330
1F
100
AcDbEntity
  8
0
  6
Continuous
 62
     7
370
    15
100
AcDbLine
 10
313.8868393874
 20
221.1762045408
 30
0.0
 11
308.8868394992
 21
221.1762045408
 31
0.0
  0
LINE
  5
209
330
1F
100
AcDbEntity
  8
0
  6
Continuous
 62
     7
370
    15
100
AcDbLine
 10
308.8868394992
 20
238.17620919
 30
0.0
 11
313.8868393874
 21
238.17620919
 31
0.0
  0
LINE
  5
20A
330
1F
100
AcDbEntity
  8
0
  6
Continuous
 62
     7
370
    15
100
AcDbLine
 10
303.8868396109
 20
14.1762022758
 30
0.0
 11
303.8868396109
 21
31.176206925
 31
0.0
  0
LINE
  5
20B
330
1F
100
AcDbEntity
  8
0
  6
Continuous
 62
     7
370
    15
100
AcDbLine
 10
283.8868391266
 20
14.1762022758
 30
0.0
 11
303.8868396109
 21
14.1762022758
 31
0.0
  0
LINE
  5
20C
330
1F
100
AcDbEntity
  8
0
  6
Continuous
 62
     7
370
    15
100
AcDbLine
 10
283.8868391266
 20
31.176206925
 30
0.0
 11
303.8868396109
 21
31.176206925
 31
0.0
  0
LINE
  5
20D
330
1F
100
AcDbEntity
  8
0
  6
Continuous
 62
     7
370
    15
100
AcDbLine
 10
308.8868394992
 20
31.176206925
 30
0.0
 11
308.8868394992
 21
14.1762022758
 31
0.0
  0
LINE
  5
20E
330
1F
100
AcDbEntity
  8
0
  6
Continuous
 62
     7
370
    15
100
AcDbLine
 10
308.8868394992
 20
14.1762022758
 30
0.0
 11
303.8868396109
 21
14.1762022758
 31
0.0
  0
LINE
  5
20F
330
1F
100
AcDbEntity
  8
0
  6
Continuous
 62
     7
370
    15
100
AcDbLine
 10
303.8868396109
 20
31.176206925
 30
0.0
 11
308.8868394992
 21
31.176206925
 31
0.0
  0
LINE
  5
210
330
1F
100
AcDbEntity
  8
0
  6
Continuous
 62
     7
370
    15
100
AcDbLine
 10
313.8868393874
 20
31.176206925
 30
0.0
 11
313.8868393874
 21
14.1762022758
 31
0.0
  0
LINE
  5
211
330
1F
100
AcDbEntity
  8
0
  6
Continuous
 62
     7
370
    15
100
AcDbLine
 10
313.8868393874
 20
14.1762022758
 30
0.0
 11
333.8868398717
 21
14.1762022758
 31
0.0
  0
LINE
  5
212
330
1F
100
AcDbEntity
  8
0
  6
Continuous
 62
     7
370
    15
100
AcDbLine
 10
313.8868393874
 20
31.176206925
 30
0.0
 11
333.8868398717
 21
31.176206925
 31
0.0
  0
LINE
  5
213
330
1F
100
AcDbEntity
  8
0
  6
Continuous
 62
     7
370
    15
100
AcDbLine
 10
313.8868393874
 20
14.1762022758
 30
0.0
 11
308.8868394992
 21
14.1762022758
 31
0.0
  0
LINE
  5
214
330
1F
100
AcDbEntity
  8
0
  6
Continuous
 62
     7
370
    15
100
AcDbLine
 10
308.8868394992
 20
31.176206925
 30
0.0
 11
313.8868393874
 21
31.176206925
 31
0.0
  0
LINE
  5
215
330
1F
100
AcDbEntity
  8
0
  6
Continuous
 62
     7
370
    15
100
AcDbLine
 10
139.347015371
 20
222.1755807186
 30
0.0
 11
139.347015371
 21
221.1762045408
 31
0.0
  0
LINE
  5
216
330
1F
100
AcDbEntity
  8
0
  6
Continuous
 62
     7
370
    15
100
AcDbLine
 10
138.886837711
 20
221.1762045408
 30
0.0
 11
138.9603898427
 21
221.1762045408
 31
0.0
  0
LINE
  5
217
330
1F
100
AcDbEntity
  8
0
  6
Continuous
 62
     7
370
    15
100
AcDbLine
 10
139.347015371
 20
221.1762045408
 30
0.0
 11
238.8868392012
 21
221.1762045408
 31
0.0
  0
LINE
  5
218
330
1F
100
AcDbEntity
  8
0
  6
Continuous
 62
     7
370
    15
100
AcDbLine
 10
138.886837711
 20
238.17620919
 30
0.0
 11
238.8868392012
 21
238.17620919
 31
0.0
  0
LINE
  5
219
330
1F
100
AcDbEntity
  8
0
  6
Continuous
 62
     7
370
    15
100
AcDbLine
 10
478.8132891557
 20
221.1762045408
 30
0.0
 11
478.8868412873
 21
221.1762045408
 31
0.0
  0
LINE
  5
21A
330
1F
100
AcDbEntity
  8
0
  6
Continuous
 62
     7
370
    15
100
AcDbLine
 10
478.4266636273
 20
221.1762045408
 30
0.0
 11
478.4266636273
 21
222.1755807186
 31
0.0
  0
LINE
  5
21B
330
1F
100
AcDbEntity
  8
0
  6
Continuous
 62
     7
370
    15
100
AcDbLine
 10
378.8868397972
 20
221.1762045408
 30
0.0
 11
478.4266636273
 21
221.1762045408
 31
0.0
  0
LINE
  5
21C
330
1F
100
AcDbEntity
  8
0
  6
Continuous
 62
     7
370
    15
100
AcDbLine
 10
378.8868397972
 20
238.17620919
 30
0.0
 11
478.8868412873
 21
238.17620919
 31
0.0
  0
LINE
  5
21D
330
1F
100
AcDbEntity
  8
0
  6
Continuous
 62
     7
370
    15
100
AcDbLine
 10
138.886837711
 20
31.176206925
 30
0.0
 11
138.9603898427
 21
31.176206925
 31
0.0
  0
LINE
  5
21E
330
1F
100
AcDbEntity
  8
0
  6
Continuous
 62
     7
370
    15
100
AcDbLine
 10
139.347015371
 20
31.176206925
 30
0.0
 11
139.347015371
 21
30.1768307472
 31
0.0
  0
LINE
  5
21F
330
1F
100
AcDbEntity
  8
0
  6
Continuous
 62
     7
370
    15
100
AcDbLine
 10
138.886837711
 20
14.1762022758
 30
0.0
 11
238.8868392012
 21
14.1762022758
 31
0.0
  0
LINE
  5
220
330
1F
100
AcDbEntity
  8
0
  6
Continuous
 62
     7
370
    15
100
AcDbLine
 10
139.347015371
 20
31.176206925
 30
0.0
 11
238.8868392012
 21
31.176206925
 31
0.0
  0
LINE
  5
221
330
1F
100
AcDbEntity
  8
0
  6
Continuous
 62
     7
370
    15
100
AcDbLine
 10
478.4266636273
 20
30.1768307472
 30
0.0
 11
478.4266636273
 21
31.176206925
 31
0.0
  0
LINE
  5
222
330
1F
100
AcDbEntity
  8
0
  6
Continuous
 62
     7
370
    15
100
AcDbLine
 10
478.8132891557
 20
31.176206925
 30
0.0
 11
478.8868412873
 21
31.176206925
 31
0.0
  0
LINE
  5
223
330
1F
100
AcDbEntity
  8
0
  6
Continuous
 62
     7
370
    15
100
AcDbLine
 10
378.8868397972
 20
14.1762022758
 30
0.0
 11
478.8868412873
 21
14.1762022758
 31
0.0
  0
LINE
  5
224
330
1F
100
AcDbEntity
  8
0
  6
Continuous
 62
     7
370
    15
100
AcDbLine
 10
378.8868397972
 20
31.176206925
 30
0.0
 11
478.4266636273
 21
31.176206925
 31
0.0
  0
SPLINE
  5
225
330
1F
100
AcDbEntity
  8
0
  6
Continuous
 62
     7
370
    15
100
AcDbSpline
210
0.0
220
0.0
230
1.0
 70
     8
 71
     3
 72
   102
 73
    98
 74
     0
 42
0.00000001
 43
0.00000001
 12
1.0
 22
0.0
 32
0.0
 13
1.0
 23
0.0
 33
0.0
 40
-0.03125
 40
-0.03125
 40
0.0
 40
0.0
 40
0.03125
 40
0.03125
 40
0.046875
 40
0.046875
 40
0.0625
 40
0.0625
 40
0.0937500000000001
 40
0.0937500000000001
 40
0.1093750000000001
 40
0.1093750000000001
 40
0.1250000000000001
 40
0.1250000000000001
 40
0.1562500000000001
 40
0.1562500000000001
 40
0.1718750000000001
 40
0.1718750000000001
 40
0.1875000000000001
 40
0.1875000000000001
 40
0.2031250000000001
 40
0.2031250000000001
 40
0.2187500000000001
 40
0.2187500000000001
 40
0.2500000000000002
 40
0.2500000000000002
 40
0.2656250000000002
 40
0.2656250000000002
 40
0.2812500000000002
 40
0.2812500000000002
 40
0.3125000000000002
 40
0.3125000000000002
 40
0.3281250000000002
 40
0.3281250000000002
 40
0.3437500000000002
 40
0.3437500000000002
 40
0.3750000000000002
 40
0.3750000000000002
 40
0.4062500000000002
 40
0.4062500000000002
 40
0.4218750000000002
 40
0.4218750000000002
 40
0.4375000000000001
 40
0.4375000000000001
 40
0.4687500000000002
 40
0.4687500000000002
 40
0.4843750000000003
 40
0.4843750000000003
 40
0.5000000000000003
 40
0.5000000000000003
 40
0.5312500000000004
 40
0.5312500000000004
 40
0.5468750000000004
 40
0.5468750000000004
 40
0.5625000000000004
 40
0.5625000000000004
 40
0.5781250000000004
 40
0.5781250000000004
 40
0.5937500000000004
 40
0.5937500000000004
 40
0.6250000000000003
 40
0.6250000000000003
 40
0.6406250000000003
 40
0.6406250000000003
 40
0.6562500000000003
 40
0.6562500000000003
 40
0.6875000000000003
 40
0.6875000000000003
 40
0.7031250000000003
 40
0.7031250000000003
 40
0.7187500000000003
 40
0.7187500000000003
 40
0.7500000000000002
 40
0.7500000000000002
 40
0.7812500000000001
 40
0.7812500000000001
 40
0.7968750000000001
 40
0.7968750000000001
 40
0.8125000000000001
 40
0.8125000000000001
 40
0.8437500000000001
 40
0.8437500000000001
 40
0.8593750000000001
 40
0.8593750000000001
 40
0.875
 40
0.875
 40
0.90625
 40
0.90625
 40
0.921875
 40
0.921875
 40
0.9375
 40
0.9375
 40
0.953125
 40
0.953125
 40
0.96875
 40
0.96875
 40
1.0
 40
1.0
 40
1.03125
 40
1.03125
 10
296.8773108575807
 20
136.6006476704039
 30
0.0
 10
298.3535290003372
 20
138.0850342698701
 30
0.0
 10
299.1521043321216
 20
138.7425993172552
 30
0.0
 10
300.4373052169739
 20
139.6074362454762
 30
0.0
 10
300.8803708950206
 20
139.8753098153538
 30
0.0
 10
301.7965764131451
 20
140.3693231844115
 30
0.0
 10
302.2713253335225
 20
140.5958478850713
 30
0.0
 10
303.7104984234991
 20
141.1975444227668
 30
0.0
 10
304.6986809830959
 20
141.5011565486675
 30
0.0
 10
306.2238735413357
 20
141.8113976405681
 30
0.0
 10
306.7411903856852
 20
141.8906095694382
 30
0.0
 10
307.7832410537507
 20
141.9975688926615
 30
0.0
 10
308.3028307452263
 20
142.0249687837388
 30
0.0
 10
309.8574275358505
 20
142.0313986955347
 30
0.0
 10
310.8883010418507
 20
141.9353761722545
 30
0.0
 10
312.4261415601222
 20
141.6373838230689
 30
0.0
 10
312.9367584030706
 20
141.5119455657859
 30
0.0
 10
313.9325413639478
 20
141.2148898444227
 30
0.0
 10
314.4206208108721
 20
141.0427842797005
 30
0.0
 10
315.3774962728521
 20
140.6521499279843
 30
0.0
 10
315.84629214642
 20
140.4336209622547
 30
0.0
 10
316.7643838095387
 20
139.9495111155112
 30
0.0
 10
317.2160331687019
 20
139.6822986603254
 30
0.0
 10
318.5210122059945
 20
138.8203767183522
 30
0.0
 10
319.3227558337013
 20
138.1690178606106
 30
0.0
 10
320.4258562231873
 20
137.079398939509
 30
0.0
 10
320.7768495007977
 20
136.6972925710269
 30
0.0
 10
321.444399960017
 20
135.89400403887
 30
0.0
 10
321.7580448247049
 20
135.4759974173655
 30
0.0
 10
322.628775432931
 20
134.1890504956961
 30
0.0
 10
323.1213736200514
 20
133.2815173489964
 30
0.0
 10
323.7270871108244
 20
131.8447128496311
 30
0.0
 10
323.9073458891107
 20
131.3503222065673
 30
0.0
 10
324.215389870095
 20
130.3545406602157
 30
0.0
 10
324.3439240175425
 20
129.8521606997809
 30
0.0
 10
324.6547552878525
 20
128.331831672419
 30
0.0
 10
324.7630220473181
 20
127.3008217818745
 30
0.0
 10
324.7730189304805
 20
125.2023189614388
 30
0.0
 10
324.6744119398411
 20
124.1688724699664
 30
0.0
 10
324.3778355304244
 20
122.6452973294546
 30
0.0
 10
324.2540140256711
 20
122.1416779595583
 30
0.0
 10
323.9553612524091
 20
121.1430889042265
 30
0.0
 10
323.7797453602719
 20
120.6469671398205
 30
0.0
 10
323.1873310559871
 20
119.2040202746152
 30
0.0
 10
322.7030066328113
 20
118.2914570344466
 30
0.0
 10
321.8436990564581
 20
116.9956472591432
 30
0.0
 10
321.533459434089
 20
116.5741661311272
 30
0.0
 10
320.8737778376725
 20
115.7652784899893
 30
0.0
 10
320.5264899602606
 20
115.3801019431239
 30
0.0
 10
319.43377594049
 20
114.2805568361929
 30
0.0
 10
318.6379931629905
 20
113.6216306327712
 30
0.0
 10
317.3402123770338
 20
112.7471785456042
 30
0.0
 10
316.8914973774494
 20
112.4761164306923
 30
0.0
 10
315.9784913404135
 20
111.9838459808389
 30
0.0
 10
315.5119786640082
 20
111.7610880399793
 30
0.0
 10
314.5591418633073
 20
111.3617339737964
 30
0.0
 10
314.0728179518503
 20
111.1851375150189
 30
0.0
 10
313.0799945915335
 20
110.8788656625654
 30
0.0
 10
312.5705600071815
 20
110.7486717860961
 30
0.0
 10
311.0356955205572
 20
110.4363878977438
 30
0.0
 10
310.0058550281232
 20
110.3307658642794
 30
0.0
 10
308.4514114948867
 20
110.3226845253728
 30
0.0
 10
307.9316385486113
 20
110.3452285483066
 30
0.0
 10
306.8887374725205
 20
110.442435931103
 30
0.0
 10
306.3705196320018
 20
110.5168316486489
 30
0.0
 10
304.8421222805393
 20
110.8129024871646
 30
0.0
 10
303.8508104259093
 20
111.1073956955574
 30
0.0
 10
302.4054751776536
 20
111.6959921607971
 30
0.0
 10
301.9285880724596
 20
111.918156173252
 30
0.0
 10
301.0080496820477
 20
112.4035580327991
 30
0.0
 10
300.5625350344031
 20
112.6672972531092
 30
0.0
 10
299.2692053783338
 20
113.5202963165232
 30
0.0
 10
298.4630017487224
 20
114.1718772436822
 30
0.0
 10
296.9743985876293
 20
115.6414600962578
 30
0.0
 10
296.3140514488244
 20
116.4372422758038
 30
0.0
 10
295.4446367445978
 20
117.7194291957651
 30
0.0
 10
295.1751677452191
 20
118.1616866796367
 30
0.0
 10
294.6779205446167
 20
119.0767537550839
 30
0.0
 10
294.4500143666596
 20
119.5506735909116
 30
0.0
 10
293.8444636797115
 20
120.9873086995538
 30
0.0
 10
293.5383287052641
 20
121.9745286387509
 30
0.0
 10
293.2249179814937
 20
123.4995400976211
 30
0.0
 10
293.1447118021148
 20
124.0174792312335
 30
0.0
 10
293.0363172147573
 20
125.0587215942025
 30
0.0
 10
293.0083041404192
 20
125.5780501742769
 30
0.0
 10
293.000436757644
 20
127.1322743725919
 30
0.0
 10
293.0960267059623
 20
128.1634436057331
 30
0.0
 10
293.394622230004
 20
129.702540431956
 30
0.0
 10
293.5201987297814
 20
130.2125201937425
 30
0.0
 10
293.8177939630258
 20
131.2075692241872
 30
0.0
 10
293.990297279284
 20
131.6953844786972
 30
0.0
 10
294.3820337200728
 20
132.651912918139
 30
0.0
 10
294.6012667516048
 20
133.1206260762309
 30
0.0
 10
295.0871547176033
 20
134.0387133425307
 30
0.0
 10
295.3552461241616
 20
134.4900886944721
 30
0.0
 10
296.2202976137618
 20
135.7945431294941
 30
0.0
 10
296.8773108575807
 20
136.6006476704039
 30
0.0
 10
298.3535290003372
 20
138.0850342698701
 30
0.0
  0
CIRCLE
  5
226
330
1F
100
AcDbEntity
  8
0
  6
Continuous
 62
     7
370
    15
100
AcDbCircle
 10
308.8868394992
 20
126.1762057329
 30
0.0
 40
14.99999999999999
  0
LINE
  5
227
330
1F
100
AcDbEntity
  8
0
  6
Continuous
 62
     7
370
    15
100
AcDbLine
 10
308.8868394992
 20
241.1762078191
 30
0.0
 11
441.8868408105
 21
241.1762078191
 31
0.0
  0
LINE
  5
228
330
1F
100
AcDbEntity
  8
0
  6
Continuous
 62
     7
370
    15
100
AcDbLine
 10
175.8868381879
 20
241.1762078191
 30
0.0
 11
308.8868394992
 21
241.1762078191
 31
0.0
  0
LINE
  5
229
330
1F
100
AcDbEntity
  8
0
  6
Continuous
 62
     7
370
    15
100
AcDbLine
 10
308.8868394992
 20
11.1762036467
 30
0.0
 11
441.8868408105
 21
11.1762036467
 31
0.0
  0
LINE
  5
22A
330
1F
100
AcDbEntity
  8
0
  6
Continuous
 62
     7
370
    15
100
AcDbLine
 10
175.8868381879
 20
11.1762036467
 30
0.0
 11
308.8868394992
 21
11.1762036467
 31
0.0
  0
SPLINE
  5
22B
330
1F
100
AcDbEntity
  8
0
  6
Continuous
 62
     7
370
    15
100
AcDbSpline
210
0.0
220
0.0
230
1.0
 70
     8
 71
     3
 72
     8
 73
     4
 74
     0
 42
0.00000001
 43
0.00000001
 12
1.0
 22
0.0
 32
0.0
 13
1.0
 23
0.0
 33
0.0
 40
0.0
 40
0.0
 40
0.0
 40
0.0
 40
1.0
 40
1.0
 40
1.0
 40
1.0
 10
417.6710295269545
 20
184.0852605702715
 30
0.0
 10
422.2002521717217
 20
196.4478505358371
 30
0.0
 10
426.7262654301517
 20
208.8116177556641
 30
0.0
 10
431.2500284082585
 20
221.1762057329088
 30
0.0
  0
LINE
  5
22C
330
1F
100
AcDbEntity
  8
0
  6
Continuous
 62
     7
370
    15
100
AcDbLine
 10
200.1026481888
 20
184.0852622772
 30
0.0
 11
417.6710308096
 21
184.0852622772
 31
0.0
  0
SPLINE
  5
22D
330
1F
100
AcDbEntity
  8
0
  6
Continuous
 62
     7
370
    15
100
AcDbSpline
210
0.0
220
0.0
230
1.0
 70
     8
 71
     3
 72
     8
 73
     4
 74
     0
 42
0.00000001
 43
0.00000001
 12
1.0
 22
0.0
 32
0.0
 13
1.0
 23
0.0
 33
0.0
 40
0.0
 40
0.0
 40
0.0
 40
0.0
 40
1.0
 40
1.0
 40
1.0
 40
1.0
 10
186.5236505900919
 20
221.1762057329089
 30
0.0
 10
191.0474137033187
 20
208.8116173863469
 30
0.0
 10
195.5734276208392
 20
196.4478483680259
 30
0.0
 10
200.1026494713959
 20
184.0852605702715
 30
0.0
  0
SPLINE
  5
22E
330
1F
100
AcDbEntity
  8
0
  6
Continuous
 62
     7
370
    15
100
AcDbSpline
210
0.0
220
0.0
230
1.0
 70
     8
 71
     3
 72
     8
 73
     4
 74
     0
 42
0.00000001
 43
0.00000001
 12
1.0
 22
0.0
 32
0.0
 13
1.0
 23
0.0
 33
0.0
 40
0.0
 40
0.0
 40
0.0
 40
0.0
 40
1.0
 40
1.0
 40
1.0
 40
1.0
 10
431.2500284082585
 20
31.17620573290883
 30
0.0
 10
426.7262652950702
 20
43.54079407936563
 30
0.0
 10
422.2002513776065
 20
55.90456309753166
 30
0.0
 10
417.6710295269546
 20
68.26715089554614
 30
0.0
  0
SPLINE
  5
22F
330
1F
100
AcDbEntity
  8
0
  6
Continuous
 62
     7
370
    15
100
AcDbSpline
210
0.0
220
0.0
230
1.0
 70
     8
 71
     3
 72
     8
 73
     4
 74
     0
 42
0.00000001
 43
0.00000001
 12
1.0
 22
0.0
 32
0.0
 13
1.0
 23
0.0
 33
0.0
 40
0.0
 40
0.0
 40
0.0
 40
0.0
 40
1.0
 40
1.0
 40
1.0
 40
1.0
 10
200.1026494713959
 20
68.2671508955462
 30
0.0
 10
195.5734268266713
 20
55.90456093009689
 30
0.0
 10
191.0474135682136
 20
43.54079371019452
 30
0.0
 10
186.5236505900919
 20
31.17620573290884
 30
0.0
  0
LINE
  5
230
330
1F
100
AcDbEntity
  8
0
  6
Continuous
 62
     7
370
    15
100
AcDbLine
 10
200.1026481888
 20
68.2671491886
 30
0.0
 11
417.6710308096
 21
68.2671491886
 31
0.0
  0
SPLINE
  5
231
330
1F
100
AcDbEntity
  8
0
  6
Continuous
 62
     7
370
    15
100
AcDbSpline
210
0.0
220
0.0
230
1.0
 70
     8
 71
     3
 72
    26
 73
    22
 74
     0
 42
0.00000001
 43
0.00000001
 12
1.0
 22
0.0
 32
0.0
 13
1.0
 23
0.0
 33
0.0
 40
0.0
 40
0.0
 40
0.0
 40
0.0
 40
0.0624999999999999
 40
0.0624999999999999
 40
0.1249999999999999
 40
0.1249999999999999
 40
0.2499999999999999
 40
0.2499999999999999
 40
0.3749999999999998
 40
0.3749999999999998
 40
0.4999999999999997
 40
0.4999999999999997
 40
0.6249999999999996
 40
0.6249999999999996
 40
0.6874999999999996
 40
0.6874999999999996
 40
0.7499999999999996
 40
0.7499999999999996
 40
0.8749999999999998
 40
0.8749999999999998
 40
1.0
 40
1.0
 40
1.0
 40
1.0
 10
204.8146229904718
 20
133.6762057329088
 30
0.0
 10
204.7597790564889
 20
134.3254758245847
 30
0.0
 10
204.6981272502703
 20
134.970726271203
 30
0.0
 10
204.5616947397804
 20
136.2530517703757
 30
0.0
 10
204.4874018342159
 20
136.8853164193756
 30
0.0
 10
204.2495025882198
 20
138.7446360582258
 30
0.0
 10
204.0703676137603
 20
139.9394639038445
 30
0.0
 10
203.6803520691791
 20
142.2429561850122
 30
0.0
 10
203.4692130388482
 20
143.3527371484593
 30
0.0
 10
203.0248029874591
 20
145.4800143378916
 30
0.0
 10
202.7959812301108
 20
146.4768045502905
 30
0.0
 10
202.335239352507
 20
148.3434121606462
 30
0.0
 10
202.103285673892
 20
149.2132080084405
 30
0.0
 10
201.7600002536415
 20
150.4220057329519
 30
0.0
 10
201.6462421815251
 20
150.8092311615327
 30
0.0
 10
201.4218598133586
 20
151.5494013607851
 30
0.0
 10
201.3122859108399
 20
151.8989193749956
 30
0.0
 10
200.9927737822331
 20
152.8873287198241
 30
0.0
 10
200.7920492190994
 20
153.4663499226817
 30
0.0
 10
200.4220451271876
 20
154.4658316755821
 30
0.0
 10
200.2527410442409
 20
154.8863195768864
 30
0.0
 10
200.1026494713959
 20
155.2235808294645
 30
0.0
  0
LINE
  5
232
330
1F
100
AcDbEntity
  8
0
  6
Continuous
 62
     7
370
    15
100
AcDbLine
 10
200.1026481888
 20
184.0852622772
 30
0.0
 11
200.1026481888
 21
155.2235812778
 31
0.0
  0
LINE
  5
233
330
1F
100
AcDbEntity
  8
0
  6
Continuous
 62
     7
370
    15
100
AcDbLine
 10
417.6710308096
 20
155.2235812778
 30
0.0
 11
417.6710308096
 21
184.0852622772
 31
0.0
  0
SPLINE
  5
234
330
1F
100
AcDbEntity
  8
0
  6
Continuous
 62
     7
370
    15
100
AcDbSpline
210
0.0
220
0.0
230
1.0
 70
     8
 71
     3
 72
    30
 73
    26
 74
     0
 42
0.00000001
 43
0.00000001
 12
1.0
 22
0.0
 32
0.0
 13
1.0
 23
0.0
 33
0.0
 40
0.0
 40
0.0
 40
0.0
 40
0.0
 40
0.0625000000000001
 40
0.0625000000000001
 40
0.1250000000000001
 40
0.1250000000000001
 40
0.2500000000000001
 40
0.2500000000000001
 40
0.3125
 40
0.3125
 40
0.3749999999999999
 40
0.3749999999999999
 40
0.4999999999999997
 40
0.4999999999999997
 40
0.6249999999999994
 40
0.6249999999999994
 40
0.6874999999999996
 40
0.6874999999999996
 40
0.7499999999999996
 40
0.7499999999999996
 40
0.875
 40
0.875
 40
0.9375
 40
0.9375
 40
1.0
 40
1.0
 40
1.0
 40
1.0
 10
417.6710295269546
 20
155.2235808294645
 30
0.0
 10
417.5961974475846
 20
155.0554304107372
 30
0.0
 10
417.5156623704174
 20
154.8643326289758
 30
0.0
 10
417.3464758601837
 20
154.4428158687184
 30
0.0
 10
417.2575582153853
 20
154.2118315257313
 30
0.0
 10
416.9791961723226
 20
153.4595247249925
 30
0.0
 10
416.7781366158821
 20
152.8791226114963
 30
0.0
 10
416.4586911693152
 20
151.8903782690815
 30
0.0
 10
416.3492335842743
 20
151.5410381220513
 30
0.0
 10
416.1252986297411
 20
150.8020085034032
 30
0.0
 10
416.0110258197916
 20
150.4128811396151
 30
0.0
 10
415.667233103602
 20
149.2016378302374
 30
0.0
 10
415.435195750112
 20
148.3308900778143
 30
0.0
 10
414.974805425048
 20
146.4644585184352
 30
0.0
 10
414.7464195889532
 20
145.4687884974648
 30
0.0
 10
414.4140947631092
 20
143.8772327063151
 30
0.0
 10
414.3051375200843
 20
143.330521482904
 30
0.0
 10
414.0951485023731
 20
142.2203775851671
 30
0.0
 10
413.9936934559802
 20
141.6549729852997
 30
0.0
 10
413.7015297553405
 20
139.9279915954174
 30
0.0
 10
413.5229953798878
 20
138.7357874258233
 30
0.0
 10
413.28620185347
 20
136.8845361173614
 30
0.0
 10
413.2124442516022
 20
136.2569270290597
 30
0.0
 10
413.0764850417009
 20
134.9799419050524
 30
0.0
 10
413.0141864469911
 20
134.3288676164971
 30
0.0
 10
412.9590560078786
 20
133.6762057329088
 30
0.0
  0
LINE
  5
235
330
1F
100
AcDbEntity
  8
0
  6
Continuous
 62
     7
370
    15
100
AcDbLine
 10
407.5478747985
 20
118.6762059005
 30
0.0
 11
407.5478747985
 21
133.6762055653
 31
0.0
  0
SPLINE
  5
236
330
1F
100
AcDbEntity
  8
0
  6
Continuous
 62
     7
370
    15
100
AcDbSpline
210
0.0
220
0.0
230
1.0
 70
     8
 71
     3
 72
    26
 73
    22
 74
     0
 42
0.00000001
 43
0.00000001
 12
1.0
 22
0.0
 32
0.0
 13
1.0
 23
0.0
 33
0.0
 40
0.0
 40
0.0
 40
0.0
 40
0.0
 40
0.0625
 40
0.0625
 40
0.125
 40
0.125
 40
0.2499999999999999
 40
0.2499999999999999
 40
0.3749999999999998
 40
0.3749999999999998
 40
0.4999999999999997
 40
0.4999999999999997
 40
0.6249999999999996
 40
0.6249999999999996
 40
0.6874999999999996
 40
0.6874999999999996
 40
0.7499999999999996
 40
0.7499999999999996
 40
0.8749999999999998
 40
0.8749999999999998
 40
1.0
 40
1.0
 40
1.0
 40
1.0
 10
412.9590560078786
 20
118.6762057329088
 30
0.0
 10
413.0138999418615
 20
118.026935641233
 30
0.0
 10
413.0755517480802
 20
117.3816851946146
 30
0.0
 10
413.2119842585699
 20
116.099359695442
 30
0.0
 10
413.2862771641344
 20
115.4670950464421
 30
0.0
 10
413.5241764101306
 20
113.6077754075919
 30
0.0
 10
413.7033113845901
 20
112.4129475619732
 30
0.0
 10
414.0933269291713
 20
110.1094552808055
 30
0.0
 10
414.3044659595022
 20
108.9996743173584
 30
0.0
 10
414.7488760108914
 20
106.872397127926
 30
0.0
 10
414.9776977682396
 20
105.8756069155272
 30
0.0
 10
415.4384396458434
 20
104.0089993051715
 30
0.0
 10
415.6703933244584
 20
103.1392034573772
 30
0.0
 10
416.0136787447088
 20
101.9304057328658
 30
0.0
 10
416.1274368168253
 20
101.543180304285
 30
0.0
 10
416.3518191849919
 20
100.8030101050326
 30
0.0
 10
416.4613930875105
 20
100.4534920908221
 30
0.0
 10
416.7809052161173
 20
99.46508274599356
 30
0.0
 10
416.981629779251
 20
98.88606154313598
 30
0.0
 10
417.3516338711628
 20
97.88657979023557
 30
0.0
 10
417.5209379541095
 20
97.46609188893126
 30
0.0
 10
417.6710295269545
 20
97.12883063635321
 30
0.0
  0
LINE
  5
237
330
1F
100
AcDbEntity
  8
0
  6
Continuous
 62
     7
370
    15
100
AcDbLine
 10
417.6710308096
 20
68.2671491886
 30
0.0
 11
417.6710308096
 21
97.128830188
 31
0.0
  0
LINE
  5
238
330
1F
100
AcDbEntity
  8
0
  6
Continuous
 62
     7
370
    15
100
AcDbLine
 10
200.1026481888
 20
97.128830188
 30
0.0
 11
200.1026481888
 21
68.2671491886
 31
0.0
  0
SPLINE
  5
239
330
1F
100
AcDbEntity
  8
0
  6
Continuous
 62
     7
370
    15
100
AcDbSpline
210
0.0
220
0.0
230
1.0
 70
     8
 71
     3
 72
    30
 73
    26
 74
     0
 42
0.00000001
 43
0.00000001
 12
1.0
 22
0.0
 32
0.0
 13
1.0
 23
0.0
 33
0.0
 40
0.0
 40
0.0
 40
0.0
 40
0.0
 40
0.0625000000000001
 40
0.0625000000000001
 40
0.1250000000000001
 40
0.1250000000000001
 40
0.2500000000000001
 40
0.2500000000000001
 40
0.3125
 40
0.3125
 40
0.3749999999999999
 40
0.3749999999999999
 40
0.4999999999999997
 40
0.4999999999999997
 40
0.6249999999999994
 40
0.6249999999999994
 40
0.6874999999999996
 40
0.6874999999999996
 40
0.7499999999999996
 40
0.7499999999999996
 40
0.875
 40
0.875
 40
0.9375
 40
0.9375
 40
1.0
 40
1.0
 40
1.0
 40
1.0
 10
200.1026494713959
 20
97.12883063635321
 30
0.0
 10
200.1774815507658
 20
97.29698105508052
 30
0.0
 10
200.258016627933
 20
97.48807883684185
 30
0.0
 10
200.4272031381667
 20
97.90959559709924
 30
0.0
 10
200.5161207829651
 20
98.14057994008637
 30
0.0
 10
200.7944828260278
 20
98.89288674082516
 30
0.0
 10
200.9955423824682
 20
99.47328885432141
 30
0.0
 10
201.3149878290352
 20
100.4620331967362
 30
0.0
 10
201.4244454140761
 20
100.8113733437664
 30
0.0
 10
201.6483803686093
 20
101.5504029624144
 30
0.0
 10
201.7626531785588
 20
101.9395303262026
 30
0.0
 10
202.1064458947484
 20
103.1507736355803
 30
0.0
 10
202.3384832482384
 20
104.0215213880034
 30
0.0
 10
202.7988735733023
 20
105.8879529473825
 30
0.0
 10
203.0272594093972
 20
106.8836229683529
 30
0.0
 10
203.3595842352412
 20
108.4751787595026
 30
0.0
 10
203.4685414782662
 20
109.0218899829137
 30
0.0
 10
203.6785304959773
 20
110.1320338806506
 30
0.0
 10
203.7799855423702
 20
110.6974384805179
 30
0.0
 10
204.0721492430099
 20
112.4244198704003
 30
0.0
 10
204.2506836184626
 20
113.6166240399944
 30
0.0
 10
204.4874771448804
 20
115.4678753484562
 30
0.0
 10
204.5612347467483
 20
116.095484436758
 30
0.0
 10
204.6971939566494
 20
117.3724695607653
 30
0.0
 10
204.7594925513593
 20
118.0235438493205
 30
0.0
 10
204.8146229904718
 20
118.6762057329089
 30
0.0
  0
LINE
  5
23A
330
1F
100
AcDbEntity
  8
0
  6
Continuous
 62
     7
370
    15
100
AcDbLine
 10
210.2258041999
 20
133.6762055653
 30
0.0
 11
210.2258041999
 21
118.6762059005
 31
0.0
  0
SPLINE
  5
23B
330
1F
100
AcDbEntity
  8
0
  6
Continuous
 62
     7
370
    15
100
AcDbSpline
210
0.0
220
0.0
230
1.0
 70
     8
 71
     3
 72
    20
 73
    16
 74
     0
 42
0.00000001
 43
0.00000001
 12
1.0
 22
0.0
 32
0.0
 13
1.0
 23
0.0
 33
0.0
 40
0.0
 40
0.0
 40
0.0
 40
0.0
 40
0.2945910772615289
 40
0.2945910772615289
 40
0.2945910772615289
 40
0.572416511373388
 40
0.572416511373388
 40
0.572416511373388
 40
0.7614685195881445
 40
0.7614685195881445
 40
0.7614685195881445
 40
0.9520892366730355
 40
0.9520892366730355
 40
0.9520892366730355
 40
1.0
 40
1.0
 40
1.0
 40
1.0
 10
329.657326812662
 20
150.8242057329088
 30
0.0
 10
329.6174254053598
 20
150.8242057329088
 30
0.0
 10
329.5768428519748
 20
150.8169876735303
 30
0.0
 10
329.5394929361568
 20
150.8026672844461
 30
0.0
 10
329.5043229457946
 20
150.7891827039579
 30
0.0
 10
329.4707775734138
 20
150.7688217542043
 30
0.0
 10
329.4434167676272
 20
150.7425838849819
 30
0.0
 10
329.4246457085305
 20
150.7245832238323
 30
0.0
 10
329.4083228430531
 20
150.7033418228521
 30
0.0
 10
329.3962971351326
 20
150.6801174274421
 30
0.0
 10
329.3842122304019
 20
150.6567787094378
 30
0.0
 10
329.3761935204568
 20
150.6306761223732
 30
0.0
 10
329.3735567216644
 20
150.6044302551486
 30
0.0
 10
329.3728820713912
 20
150.5977149981702
 30
0.0
 10
329.3725425962317
 20
150.5909560172973
 30
0.0
 10
329.3725425962317
 20
150.5842057329089
 30
0.0
  0
LINE
  5
23C
330
1F
100
AcDbEntity
  8
0
  6
Continuous
 62
     7
370
    15
100
AcDbLine
 10
329.3725424013
 20
132.8885688345
 30
0.0
 11
329.3725424013
 21
150.5842053229
 31
0.0
  0
SPLINE
  5
23D
330
1F
100
AcDbEntity
  8
0
  6
Continuous
 62
     7
370
    15
100
AcDbSpline
210
0.0
220
0.0
230
1.0
 70
     8
 71
     3
 72
    17
 73
    13
 74
     0
 42
0.00000001
 43
0.00000001
 12
1.0
 22
0.0
 32
0.0
 13
1.0
 23
0.0
 33
0.0
 40
0.0
 40
0.0
 40
0.0
 40
0.0
 40
0.233060774874302
 40
0.233060774874302
 40
0.233060774874302
 40
0.4650305328555684
 40
0.4650305328555684
 40
0.4650305328555684
 40
0.711836300133719
 40
0.711836300133719
 40
0.711836300133719
 40
1.0
 40
1.0
 40
1.0
 40
1.0
 10
329.3725425962317
 20
132.8885686060095
 30
0.0
 10
329.3725425962317
 20
132.8650704879971
 30
0.0
 10
329.3768015814375
 20
132.8412448362966
 30
0.0
 10
329.3847208107962
 20
132.8191729103431
 30
0.0
 10
329.3926191296209
 20
132.7971592647778
 30
0.0
 10
329.4043102171853
 20
132.7762969281015
 30
0.0
 10
329.4185252780877
 20
132.7578627646839
 30
0.0
 10
329.4336638392622
 20
132.7382310014074
 30
0.0
 10
329.451975594222
 20
132.7208682889332
 30
0.0
 10
329.4719645221178
 20
132.7064205291832
 30
0.0
 10
329.4952797929209
 20
132.6895685282743
 30
0.0
 10
329.5213787539818
 20
132.6762802456477
 30
0.0
 10
329.5484220882141
 20
132.6668375182068
 30
0.0
  0
SPLINE
  5
23E
330
1F
100
AcDbEntity
  8
0
  6
Continuous
 62
     7
370
    15
100
AcDbSpline
210
0.0
220
0.0
230
1.0
 70
     8
 71
     3
 72
    21
 73
    17
 74
     0
 42
0.00000001
 43
0.00000001
 12
1.0
 22
0.0
 32
0.0
 13
1.0
 23
0.0
 33
0.0
 40
0.0
 40
0.0
 40
0.0
 40
0.0
 40
0.0552996772637425
 40
0.1106180460641285
 40
0.1659591402791799
 40
0.221326988819872
 40
0.2767256147599887
 40
0.3321590344723166
 40
0.3876312567720894
 40
0.4431462820685792
 40
0.4987081015257076
 40
0.5987790081011011
 40
0.6989205534508337
 40
0.7991558693435501
 40
0.8995080227039092
 40
1.0
 40
1.0
 40
1.0
 40
1.0
 10
329.5484220882141
 20
132.6668375182068
 30
0.0
 10
329.8652129887536
 20
132.5559773285169
 30
0.0
 10
330.4989018665646
 20
132.3342194779004
 30
0.0
 10
331.4467460260653
 20
131.9992896976775
 30
0.0
 10
332.3927900113127
 20
131.6626227586687
 30
0.0
 10
333.3368323314912
 20
131.3240567480314
 30
0.0
 10
334.2789269920636
 20
130.9836350951509
 30
0.0
 10
335.2190594986046
 20
130.6413461272301
 30
0.0
 10
336.1572337036197
 20
130.2971931114708
 30
0.0
 10
337.0934486229798
 20
129.9511746964776
 30
0.0
 10
338.2768827821837
 20
129.5105083511839
 30
0.0
 10
339.7044032722937
 20
128.9733741003919
 30
0.0
 10
341.3718052416082
 20
128.3375841034362
 30
0.0
 10
343.0306820805278
 20
127.6964028438708
 30
0.0
 10
344.6820256003235
 20
127.050216619847
 30
0.0
 10
345.7745774212576
 20
126.6154643092385
 30
0.0
 10
346.3212336388193
 20
126.3979368207115
 30
0.0
  0
SPLINE
  5
23F
330
1F
100
AcDbEntity
  8
0
  6
Continuous
 62
     7
370
    15
100
AcDbSpline
210
0.0
220
0.0
230
1.0
 70
     8
 71
     3
 72
    29
 73
    25
 74
     0
 42
0.00000001
 43
0.00000001
 12
1.0
 22
0.0
 32
0.0
 13
1.0
 23
0.0
 33
0.0
 40
0.0
 40
0.0
 40
0.0
 40
0.0
 40
0.1522469061250049
 40
0.1522469061250049
 40
0.1522469061250049
 40
0.3052760049059959
 40
0.3052760049059959
 40
0.3052760049059959
 40
0.4465371940091676
 40
0.4465371940091676
 40
0.4465371940091676
 40
0.5758489395370532
 40
0.5758489395370532
 40
0.5758489395370532
 40
0.7011657864940143
 40
0.7011657864940143
 40
0.7011657864940143
 40
0.8305026150156863
 40
0.8305026150156863
 40
0.8305026150156863
 40
0.9698758808212173
 40
0.9698758808212173
 40
0.9698758808212173
 40
1.0
 40
1.0
 40
1.0
 40
1.0
 10
346.3212336388192
 20
126.3979368207116
 30
0.0
 10
346.3472655314943
 20
126.3875385518525
 30
0.0
 10
346.3720872078771
 20
126.3725013670819
 30
0.0
 10
346.3935258892048
 20
126.3536664096335
 30
0.0
 10
346.4150282887367
 20
126.334775472545
 30
0.0
 10
346.4337338496413
 20
126.3114469258256
 30
0.0
 10
346.4474427808871
 20
126.2856074222104
 30
0.0
 10
346.4601070654498
 20
126.2617369380074
 30
0.0
 10
346.4688665887894
 20
126.2349720071687
 30
0.0
 10
346.4726030264629
 20
126.207847364256
 30
0.0
 10
346.4760310296288
 20
126.1829617994736
 30
0.0
 10
346.4753368325474
 20
126.1570634183941
 30
0.0
 10
346.4706014053393
 20
126.1324221281239
 30
0.0
 10
346.4660052261708
 20
126.1085054295784
 30
0.0
 10
346.4575054418375
 20
126.0851370081677
 30
0.0
 10
346.4459565626755
 20
126.0640468878011
 30
0.0
 10
346.4340314022881
 20
126.0422696170864
 30
0.0
 10
346.4185815879096
 20
126.0223641934244
 30
0.0
 10
346.4009466840888
 20
126.0055393200573
 30
0.0
 10
346.3819500253614
 20
125.9874152417672
 30
0.0
 10
346.3599687441147
 20
125.972404923312
 30
0.0
 10
346.3367008725473
 20
125.9612588494662
 30
0.0
 10
346.3316159293238
 20
125.9588229948369
 30
0.0
 10
346.3264546051136
 20
125.9565601258628
 30
0.0
 10
346.3212336388192
 20
125.9544746451061
 30
0.0
  0
SPLINE
  5
240
330
1F
100
AcDbEntity
  8
0
  6
Continuous
 62
     7
370
    15
100
AcDbSpline
210
0.0
220
0.0
230
1.0
 70
     8
 71
     3
 72
    21
 73
    17
 74
     0
 42
0.00000001
 43
0.00000001
 12
1.0
 22
0.0
 32
0.0
 13
1.0
 23
0.0
 33
0.0
 40
0.0
 40
0.0
 40
0.0
 40
0.0
 40
0.0558419958242005
 40
0.1116391602176987
 40
0.1673954241079107
 40
0.2231147270786934
 40
0.2788010165584178
 40
0.3344582469997923
 40
0.3900903790522654
 40
0.4457013787278538
 40
0.5012952165612654
 40
0.6012625472515452
 40
0.7010933042704187
 40
0.800810836106705
 40
0.9004385708547065
 40
1.0
 40
1.0
 40
1.0
 40
1.0
 10
346.3212336388193
 20
125.9544746451061
 30
0.0
 10
346.0177264055759
 20
125.8334976716842
 30
0.0
 10
345.4109556027207
 20
125.5916408483531
 30
0.0
 10
344.496916414524
 20
125.2306814420018
 30
0.0
 10
343.5805293861769
 20
124.8712569740585
 30
0.0
 10
342.6614871918482
 20
124.5134865692364
 30
0.0
 10
341.7398721278723
 20
124.1573383483073
 30
0.0
 10
340.8156621026643
 20
123.8028208572745
 30
0.0
 10
339.888863335853
 20
123.4499317976647
 30
0.0
 10
338.9594731012309
 20
123.0986718588612
 30
0.0
 10
337.7794688159904
 20
122.6559931288
 30
0.0
 10
336.3463177079195
 20
122.1239318529701
 30
0.0
 10
334.6568778823111
 20
121.505080299325
 30
0.0
 10
332.9608675136975
 20
120.8923536586584
 30
0.0
 10
331.2589427084212
 20
120.2852275921445
 30
0.0
 10
330.1184690822574
 20
119.8854141328126
 30
0.0
 10
329.5484220882141
 20
119.6855739476109
 30
0.0
  0
SPLINE
  5
241
330
1F
100
AcDbEntity
  8
0
  6
Continuous
 62
     7
370
    15
100
AcDbSpline
210
0.0
220
0.0
230
1.0
 70
     8
 71
     3
 72
    17
 73
    13
 74
     0
 42
0.00000001
 43
0.00000001
 12
1.0
 22
0.0
 32
0.0
 13
1.0
 23
0.0
 33
0.0
 40
0.0
 40
0.0
 40
0.0
 40
0.0
 40
0.3277039730680147
 40
0.3277039730680147
 40
0.3277039730680147
 40
0.6019571452994742
 40
0.6019571452994742
 40
0.6019571452994742
 40
0.8788698412764401
 40
0.8788698412764401
 40
0.8788698412764401
 40
1.0
 40
1.0
 40
1.0
 40
1.0
 10
329.5484220882141
 20
119.6855739476109
 30
0.0
 10
329.517737877523
 20
119.6748599344716
 30
0.0
 10
329.4882055503309
 20
119.6591452038434
 30
0.0
 10
329.4625748446376
 20
119.6388944554951
 30
0.0
 10
329.4410927629556
 20
119.6219215232885
 30
0.0
 10
329.4218460321109
 20
119.6013034982568
 30
0.0
 10
329.4069479828951
 20
119.5781427374707
 30
0.0
 10
329.3919653284623
 20
119.5548504479748
 30
0.0
 10
329.3810114641774
 20
119.5281691863998
 30
0.0
 10
329.3759448405713
 20
119.5008090173851
 30
0.0
 10
329.373692687147
 20
119.4886472104058
 30
0.0
 10
329.3725425962316
 20
119.4762188759443
 30
0.0
 10
329.3725425962316
 20
119.4638428598082
 30
0.0
  0
LINE
  5
242
330
1F
100
AcDbEntity
  8
0
  6
Continuous
 62
     7
370
    15
100
AcDbLine
 10
329.3725424013
 20
103.0642048354
 30
0.0
 11
329.3725424013
 21
119.4638426314
 31
0.0
  0
SPLINE
  5
243
330
1F
100
AcDbEntity
  8
0
  6
Continuous
 62
     7
370
    15
100
AcDbSpline
210
0.0
220
0.0
230
1.0
 70
     8
 71
     3
 72
    20
 73
    16
 74
     0
 42
0.00000001
 43
0.00000001
 12
1.0
 22
0.0
 32
0.0
 13
1.0
 23
0.0
 33
0.0
 40
0.0
 40
0.0
 40
0.0
 40
0.0
 40
0.1698166797313738
 40
0.1698166797313738
 40
0.1698166797313738
 40
0.3388384042996137
 40
0.3388384042996137
 40
0.3388384042996137
 40
0.5186701926403929
 40
0.5186701926403929
 40
0.5186701926403929
 40
0.7284881147646343
 40
0.7284881147646343
 40
0.7284881147646343
 40
1.0
 40
1.0
 40
1.0
 40
1.0
 10
329.3725425962317
 20
103.0642057329088
 30
0.0
 10
329.3725425962317
 20
103.0407076148965
 30
0.0
 10
329.3768015814375
 20
103.0168819631959
 30
0.0
 10
329.3847208107962
 20
102.9948100372425
 30
0.0
 10
329.3926191296209
 20
102.9727963916772
 30
0.0
 10
329.4043102171852
 20
102.9519340550008
 30
0.0
 10
329.4185252780877
 20
102.9334998915833
 30
0.0
 10
329.4336638392622
 20
102.9138681283068
 30
0.0
 10
329.451975594222
 20
102.8965054158326
 30
0.0
 10
329.4719645221178
 20
102.8820576560826
 30
0.0
 10
329.4952636091495
 20
102.8652173526115
 30
0.0
 10
329.5213423918111
 20
102.8519358416416
 30
0.0
 10
329.5483652190131
 20
102.842494508206
 30
0.0
 10
329.5831867100356
 20
102.8303284493028
 30
0.0
 10
329.6205198801813
 20
102.8242057329089
 30
0.0
 10
329.657326812662
 20
102.8242057329089
 30
0.0
  0
SPLINE
  5
244
330
1F
100
AcDbEntity
  8
0
  6
Continuous
 62
     7
370
    15
100
AcDbSpline
210
0.0
220
0.0
230
1.0
 70
     8
 71
     3
 72
    17
 73
    13
 74
     0
 42
0.00000001
 43
0.00000001
 12
1.0
 22
0.0
 32
0.0
 13
1.0
 23
0.0
 33
0.0
 40
0.0
 40
0.0
 40
0.0
 40
0.0
 40
0.3032608590225437
 40
0.3032608590225437
 40
0.3032608590225437
 40
0.5637856715424642
 40
0.5637856715424642
 40
0.5637856715424642
 40
0.7950633073663453
 40
0.7950633073663453
 40
0.7950633073663453
 40
1.0
 40
1.0
 40
1.0
 40
1.0
 10
337.2115562796649
 20
150.8242057329088
 30
0.0
 10
337.1721746303605
 20
150.8242057329088
 30
0.0
 10
337.1320012290087
 20
150.8162026005305
 30
0.0
 10
337.0956234841874
 20
150.8005589541272
 30
0.0
 10
337.0642928421215
 20
150.7870857306364
 30
0.0
 10
337.034690881137
 20
150.7674288792381
 30
0.0
 10
337.0104808031172
 20
150.7428242106905
 30
0.0
 10
336.9889814061486
 20
150.7209744035172
 30
0.0
 10
336.9710490011131
 20
150.6943843481387
 30
0.0
 10
336.9594511083063
 20
150.665604003037
 30
0.0
 10
336.9491550812157
 20
150.6400542572528
 30
0.0
 10
336.9435500701564
 20
150.6118870504735
 30
0.0
 10
336.9435500701564
 20
150.5842057329088
 30
0.0
  0
LINE
  5
245
330
1F
100
AcDbEntity
  8
0
  6
Continuous
 62
     7
370
    15
100
AcDbLine
 10
336.9435504577
 20
146.0203447277
 30
0.0
 11
336.9435504577
 21
150.5842053229
 31
0.0
  0
SPLINE
  5
246
330
1F
100
AcDbEntity
  8
0
  6
Continuous
 62
     7
370
    15
100
AcDbSpline
210
0.0
220
0.0
230
1.0
 70
     8
 71
     3
 72
    20
 73
    16
 74
     0
 42
0.00000001
 43
0.00000001
 12
1.0
 22
0.0
 32
0.0
 13
1.0
 23
0.0
 33
0.0
 40
0.0
 40
0.0
 40
0.0
 40
0.0
 40
0.1749280806812176
 40
0.1749280806812176
 40
0.1749280806812176
 40
0.3492159269725948
 40
0.3492159269725948
 40
0.3492159269725948
 40
0.532641800288065
 40
0.532641800288065
 40
0.532641800288065
 40
0.7399408101770336
 40
0.7399408101770336
 40
0.7399408101770336
 40
1.0
 40
1.0
 40
1.0
 40
1.0
 10
336.9435500701564
 20
146.0203456006062
 30
0.0
 10
336.9435500701564
 20
145.996130803009
 30
0.0
 10
336.9477962765727
 20
145.9715805680366
 30
0.0
 10
336.9557462186695
 20
145.9488053648973
 30
0.0
 10
336.9636797965779
 20
145.9260770423157
 30
0.0
 10
336.9754678256085
 20
145.9045064439867
 30
0.0
 10
336.9898924723934
 20
145.885501107092
 30
0.0
 10
337.0050846517081
 20
145.8654845000758
 30
0.0
 10
337.0235313076526
 20
145.8478097757517
 30
0.0
 10
337.0437241233274
 20
145.8332797427753
 30
0.0
 10
337.0665252408371
 20
145.8168728684367
 30
0.0
 10
337.0920701798269
 20
145.8040706201855
 30
0.0
 10
337.1185106664702
 20
145.7952952764493
 30
0.0
 10
337.1515386943306
 20
145.7843335910115
 30
0.0
 10
337.1869088735115
 20
145.7793508162828
 30
0.0
 10
337.2215662561365
 20
145.7805134324454
 30
0.0
  0
SPLINE
  5
247
330
1F
100
AcDbEntity
  8
0
  6
Continuous
 62
     7
370
    15
100
AcDbSpline
210
0.0
220
0.0
230
1.0
 70
     8
 71
     3
 72
    21
 73
    17
 74
     0
 42
0.00000001
 43
0.00000001
 12
1.0
 22
0.0
 32
0.0
 13
1.0
 23
0.0
 33
0.0
 40
0.0
 40
0.0
 40
0.0
 40
0.0
 40
0.0628039173103698
 40
0.151638824831335
 40
0.2397415880026398
 40
0.3287536678637348
 40
0.4174588862128199
 40
0.5059948302901336
 40
0.572859881320297
 40
0.6388413878813599
 40
0.7057316169259119
 40
0.771997855321794
 40
0.8387380285818714
 40
0.9052560474219664
 40
0.9718452510959237
 40
1.0
 40
1.0
 40
1.0
 40
1.0
 10
337.4435868611928
 20
145.7753342474371
 30
0.0
 10
337.6204978138068
 20
145.774810603402
 30
0.0
 10
338.0476458342334
 20
145.773546275164
 30
0.0
 10
338.7161009340721
 20
145.6720504169789
 30
0.0
 10
339.4402735314639
 20
145.4834841249504
 30
0.0
 10
340.1358408161425
 20
145.2035394665832
 30
0.0
 10
340.7923184673473
 20
144.8351984933426
 30
0.0
 10
341.3464668868136
 20
144.4187499284253
 30
0.0
 10
341.8021600871537
 20
143.9827987845866
 30
0.0
 10
342.1704440200741
 20
143.5455670032731
 30
0.0
 10
342.4898328915237
 20
143.0700940311801
 30
0.0
 10
342.7557324192906
 20
142.5573249385337
 30
0.0
 10
342.9636262273634
 20
142.0163995355333
 30
0.0
 10
343.1036808101767
 20
141.4520366229466
 30
0.0
 10
343.1764290346162
 20
140.9856029085125
 30
0.0
 10
343.1766972583832
 20
140.7091662254911
 30
0.0
 10
343.1767769655581
 20
140.6270184452206
 30
0.0
  0
SPLINE
  5
248
330
1F
100
AcDbEntity
  8
0
  6
Continuous
 62
     7
370
    15
100
AcDbSpline
210
0.0
220
0.0
230
1.0
 70
     8
 71
     3
 72
    14
 73
    10
 74
     0
 42
0.00000001
 43
0.00000001
 12
1.0
 22
0.0
 32
0.0
 13
1.0
 23
0.0
 33
0.0
 40
0.0
 40
0.0
 40
0.0
 40
0.0
 40
0.0490158649652775
 40
0.2076499124713555
 40
0.3657897059597177
 40
0.5271370530719285
 40
0.6824365999350582
 40
0.8421200918039622
 40
0.9999999999999999
 40
0.9999999999999999
 40
0.9999999999999999
 40
0.9999999999999999
 10
337.2112330546971
 20
142.1938606435925
 30
0.0
 10
337.2048361451023
 20
142.194249700246
 30
0.0
 10
337.1777363944727
 20
142.1958978927265
 30
0.0
 10
337.1302305608164
 20
142.185632992732
 30
0.0
 10
337.0716711801731
 20
142.1627500422914
 30
0.0
 10
337.0195962228213
 20
142.1264234925865
 30
0.0
 10
336.9781259755537
 20
142.0778324297912
 30
0.0
 10
336.9491450702461
 20
142.0197723953369
 30
0.0
 10
336.945408254173
 20
141.9766760186476
 30
0.0
 10
336.943550457656
 20
141.9552502120405
 30
0.0
  0
LINE
  5
249
330
1F
100
AcDbEntity
  8
0
  6
Continuous
 62
     7
370
    15
100
AcDbLine
 10
336.9435504577
 20
137.2793161208
 30
0.0
 11
336.9435504577
 21
141.955250212
 31
0.0
  0
SPLINE
  5
24A
330
1F
100
AcDbEntity
  8
0
  6
Continuous
 62
     7
370
    15
100
AcDbSpline
210
0.0
220
0.0
230
1.0
 70
     8
 71
     3
 72
    17
 73
    13
 74
     0
 42
0.00000001
 43
0.00000001
 12
1.0
 22
0.0
 32
0.0
 13
1.0
 23
0.0
 33
0.0
 40
0.0
 40
0.0
 40
0.0
 40
0.0
 40
0.2446932873243689
 40
0.2446932873243689
 40
0.2446932873243689
 40
0.4884910005539669
 40
0.4884910005539669
 40
0.4884910005539669
 40
0.7450711890927024
 40
0.7450711890927024
 40
0.7450711890927024
 40
1.0
 40
1.0
 40
1.0
 40
1.0
 10
336.9435500701564
 20
137.2793159064032
 30
0.0
 10
336.9435500701564
 20
137.255101108806
 30
0.0
 10
336.9477962765727
 20
137.2305508738336
 30
0.0
 10
336.9557462186695
 20
137.2077756706943
 30
0.0
 10
336.9636797965779
 20
137.1850473481127
 30
0.0
 10
336.9754678256085
 20
137.1634767497837
 30
0.0
 10
336.9898924723934
 20
137.1444714128889
 30
0.0
 10
337.0050846517081
 20
137.1244548058728
 30
0.0
 10
337.0235313076527
 20
137.1067800815487
 30
0.0
 10
337.0437241233274
 20
137.0922500485723
 30
0.0
 10
337.0638199449562
 20
137.0777898090664
 30
0.0
 10
337.0860253121278
 20
137.0661321437563
 30
0.0
 10
337.1090625408182
 20
137.0575848185997
 30
0.0
  0
SPLINE
  5
24B
330
1F
100
AcDbEntity
  8
0
  6
Continuous
 62
     7
370
    15
100
AcDbSpline
210
0.0
220
0.0
230
1.0
 70
     8
 71
     3
 72
    21
 73
    17
 74
     0
 42
0.00000001
 43
0.00000001
 12
1.0
 22
0.0
 32
0.0
 13
1.0
 23
0.0
 33
0.0
 40
0.0
 40
0.0
 40
0.0
 40
0.0
 40
0.0553225026457022
 40
0.1106610338201368
 40
0.1660196915458428
 40
0.2214025693776029
 40
0.2768137555023486
 40
0.3322573318449922
 40
0.3877373731811499
 40
0.4432579462577017
 40
0.4988231089221214
 40
0.5988925963869893
 40
0.6990215259917101
 40
0.799233431794241
 40
0.8995517894554678
 40
1.0
 40
1.0
 40
1.0
 40
1.0
 10
337.1090625408185
 20
137.0575848185996
 30
0.0
 10
337.4261342975198
 20
136.9396850762021
 30
0.0
 10
338.0603696757787
 20
136.7038514324427
 30
0.0
 10
339.0082075719292
 20
136.3480045046369
 30
0.0
 10
339.9536111234838
 20
135.9905715263933
 30
0.0
 10
340.8963212069282
 20
135.631404281888
 30
0.0
 10
341.8364072771275
 20
135.2705425255013
 30
0.0
 10
342.7738506902041
 20
134.9079755721438
 30
0.0
 10
343.708656438902
 20
134.5437064207746
 30
0.0
 10
344.6408231280469
 20
134.17773380632
 30
0.0
 10
345.8182392457563
 20
133.7120079697291
 30
0.0
 10
347.2369852688917
 20
133.1449179176622
 30
0.0
 10
348.8918765768811
 20
132.4745399630143
 30
0.0
 10
350.5359328858339
 20
131.7993790738577
 30
0.0
 10
352.17033530163
 20
131.1197686749264
 30
0.0
 10
353.2497698159419
 20
130.6632308850688
 30
0.0
 10
353.7898361543351
 20
130.4348143491536
 30
0.0
  0
SPLINE
  5
24C
330
1F
100
AcDbEntity
  8
0
  6
Continuous
 62
     7
370
    15
100
AcDbSpline
210
0.0
220
0.0
230
1.0
 70
     8
 71
     3
 72
     9
 73
     5
 74
     0
 42
0.00000001
 43
0.00000001
 12
1.0
 22
0.0
 32
0.0
 13
1.0
 23
0.0
 33
0.0
 40
0.0
 40
0.0
 40
0.0
 40
0.0
 40
0.9152886776694941
 40
0.9999999999999999
 40
0.9999999999999999
 40
0.9999999999999999
 40
0.9999999999999999
 10
353.7898347279425
 20
130.434814178434
 30
0.0
 10
353.816906180103
 20
130.4241193067482
 30
0.0
 10
353.8464831352439
 20
130.4124346088525
 30
0.0
 10
353.8765322795808
 20
130.4174070311858
 30
0.0
 10
353.8790777823325
 20
130.4178282516569
 30
0.0
  0
SPLINE
  5
24D
330
1F
100
AcDbEntity
  8
0
  6
Continuous
 62
     7
370
    15
100
AcDbSpline
210
0.0
220
0.0
230
1.0
 70
     8
 71
     3
 72
    10
 73
     6
 74
     0
 42
0.00000001
 43
0.00000001
 12
1.0
 22
0.0
 32
0.0
 13
1.0
 23
0.0
 33
0.0
 40
0.0
 40
0.0
 40
0.0
 40
0.0
 40
0.1090396085939482
 40
0.7467765876995693
 40
1.0
 40
1.0
 40
1.0
 40
1.0
 10
353.8789995512362
 20
148.1526468778521
 30
0.0
 10
353.874263496083
 20
148.1533016843758
 30
0.0
 10
353.841827804575
 20
148.1577862399214
 30
0.0
 10
353.7976858328265
 20
148.1426582445624
 30
0.0
 10
353.7633790884183
 20
148.1228014723762
 30
0.0
 10
353.7536286315318
 20
148.1171578998238
 30
0.0
  0
SPLINE
  5
24E
330
1F
100
AcDbEntity
  8
0
  6
Continuous
 62
     7
370
    15
100
AcDbSpline
210
0.0
220
0.0
230
1.0
 70
     8
 71
     3
 72
     9
 73
     5
 74
     0
 42
0.00000001
 43
0.00000001
 12
1.0
 22
0.0
 32
0.0
 13
1.0
 23
0.0
 33
0.0
 40
0.0
 40
0.0
 40
0.0
 40
0.0
 40
0.6057124962906704
 40
1.0
 40
1.0
 40
1.0
 40
1.0
 10
353.7536286315318
 20
148.1171578998238
 30
0.0
 10
352.6943653494242
 20
147.4292056849364
 30
0.0
 10
350.9455764626265
 20
146.2934321635045
 30
0.0
 10
349.1530092829717
 20
145.1742884715517
 30
0.0
 10
348.4462224444743
 20
144.7330240989596
 30
0.0
  0
LINE
  5
24F
330
1F
100
AcDbEntity
  8
0
  6
Continuous
 62
     7
370
    15
100
AcDbLine
 10
336.9435504577
 20
103.0642048354
 30
0.0
 11
336.9435504577
 21
115.073095345
 31
0.0
  0
SPLINE
  5
250
330
1F
100
AcDbEntity
  8
0
  6
Continuous
 62
     7
370
    15
100
AcDbSpline
210
0.0
220
0.0
230
1.0
 70
     8
 71
     3
 72
    20
 73
    16
 74
     0
 42
0.00000001
 43
0.00000001
 12
1.0
 22
0.0
 32
0.0
 13
1.0
 23
0.0
 33
0.0
 40
0.0
 40
0.0
 40
0.0
 40
0.0
 40
0.1794752703477644
 40
0.1794752703477644
 40
0.1794752703477644
 40
0.3582936636535298
 40
0.3582936636535298
 40
0.3582936636535298
 40
0.5464876235590279
 40
0.5464876235590279
 40
0.5464876235590279
 40
0.7591752932445047
 40
0.7591752932445047
 40
0.7591752932445047
 40
1.0
 40
1.0
 40
1.0
 40
1.0
 10
336.9435500701564
 20
103.0642057329088
 30
0.0
 10
336.9435500701564
 20
103.0399909353117
 30
0.0
 10
336.9477962765727
 20
103.0154407003393
 30
0.0
 10
336.9557462186695
 20
102.9926654972
 30
0.0
 10
336.9636797965779
 20
102.9699371746184
 30
0.0
 10
336.9754678256085
 20
102.9483665762894
 30
0.0
 10
336.9898924723935
 20
102.9293612393946
 30
0.0
 10
337.0050846517082
 20
102.9093446323785
 30
0.0
 10
337.0235313076527
 20
102.8916699080544
 30
0.0
 10
337.0437241233274
 20
102.8771398750779
 30
0.0
 10
337.0665252408371
 20
102.8607330007394
 30
0.0
 10
337.0920701798269
 20
102.8479307524882
 30
0.0
 10
337.1185106664702
 20
102.8391554087519
 30
0.0
 10
337.148401725669
 20
102.8292348531037
 30
0.0
 10
337.1801733623304
 20
102.8242057329089
 30
0.0
 10
337.2115562796649
 20
102.8242057329089
 30
0.0
  0
SPLINE
  5
251
330
1F
100
AcDbEntity
  8
0
  6
Continuous
 62
     7
370
    15
100
AcDbSpline
210
0.0
220
0.0
230
1.0
 70
     8
 71
     3
 72
    11
 73
     7
 74
     0
 42
0.00000001
 43
0.00000001
 12
1.0
 22
0.0
 32
0.0
 13
1.0
 23
0.0
 33
0.0
 40
0.0
 40
0.0
 40
0.0
 40
0.0
 40
0.1437694541032885
 40
0.4286783324118962
 40
0.7140240829954889
 40
1.0
 40
1.0
 40
1.0
 40
1.0
 10
343.9653203389045
 20
105.5504039759308
 30
0.0
 10
344.4465656772869
 20
105.3623932687461
 30
0.0
 10
345.881498086438
 20
104.8018004993418
 30
0.0
 10
348.2364979234943
 20
103.8536405807337
 30
0.0
 10
351.035186900596
 20
102.7077971164357
 30
0.0
 10
352.8709438403353
 20
101.9333232284783
 30
0.0
 10
353.7898347279425
 20
101.5456591630846
 30
0.0
  0
SPLINE
  5
252
330
1F
100
AcDbEntity
  8
0
  6
Continuous
 62
     7
370
    15
100
AcDbSpline
210
0.0
220
0.0
230
1.0
 70
     8
 71
     3
 72
     9
 73
     5
 74
     0
 42
0.00000001
 43
0.00000001
 12
1.0
 22
0.0
 32
0.0
 13
1.0
 23
0.0
 33
0.0
 40
0.0
 40
0.0
 40
0.0
 40
0.0
 40
0.915289098925778
 40
1.0
 40
1.0
 40
1.0
 40
1.0
 10
353.7898347279425
 20
101.5456591630846
 30
0.0
 10
353.8169061116866
 20
101.534965499056
 30
0.0
 10
353.8464829784665
 20
101.5232821259652
 30
0.0
 10
353.8765322790071
 20
101.5282526448364
 30
0.0
 10
353.8790777823325
 20
101.5286737019688
 30
0.0
  0
SPLINE
  5
253
330
1F
100
AcDbEntity
  8
0
  6
Continuous
 62
     7
370
    15
100
AcDbSpline
210
0.0
220
0.0
230
1.0
 70
     8
 71
     3
 72
     9
 73
     5
 74
     0
 42
0.00000001
 43
0.00000001
 12
1.0
 22
0.0
 32
0.0
 13
1.0
 23
0.0
 33
0.0
 40
0.0
 40
0.0
 40
0.0
 40
0.0
 40
0.157194868653961
 40
0.9999999999999999
 40
0.9999999999999999
 40
0.9999999999999999
 40
0.9999999999999999
 10
353.8789995512362
 20
121.9337697038919
 30
0.0
 10
353.8742534242191
 20
121.9344416476482
 30
0.0
 10
353.8440607909744
 20
121.9387162385559
 30
0.0
 10
353.8146349650368
 20
121.9272560191257
 30
0.0
 10
353.7898347279425
 20
121.9175972873837
 30
0.0
  0
SPLINE
  5
254
330
1F
100
AcDbEntity
  8
0
  6
Continuous
 62
     7
370
    15
100
AcDbSpline
210
0.0
220
0.0
230
1.0
 70
     8
 71
     3
 72
    21
 73
    17
 74
     0
 42
0.00000001
 43
0.00000001
 12
1.0
 22
0.0
 32
0.0
 13
1.0
 23
0.0
 33
0.0
 40
0.0
 40
0.0
 40
0.0
 40
0.0
 40
0.0558166076658251
 40
0.1115913724534508
 40
0.1673282969840685
 40
0.2230313920360584
 40
0.2787046756991631
 40
0.3343521725208211
 40
0.389977912645541
 40
0.4455859309482249
 40
0.5011802661623703
 40
0.6011553810866467
 40
0.701001141010977
 40
0.8007412808040225
 40
0.9003996107987103
 40
1.0
 40
1.0
 40
1.0
 40
1.0
 10
353.7898361543351
 20
121.9175971166641
 30
0.0
 10
353.4900460300771
 20
121.7905855946505
 30
0.0
 10
352.8906905190034
 20
121.5366577647157
 30
0.0
 10
351.9869305952352
 20
121.1573612432219
 30
0.0
 10
351.0801692624096
 20
120.7794280153555
 30
0.0
 10
350.1700407246292
 20
120.402960826329
 30
0.0
 10
349.2566429392573
 20
120.0279321802382
 30
0.0
 10
348.3399496119506
 20
119.6543494474839
 30
0.0
 10
347.419968120542
 20
119.2822106571629
 30
0.0
 10
346.4966953094951
 20
118.9115163649167
 30
0.0
 10
345.3235326131016
 20
118.4439903573457
 30
0.0
 10
343.8971886165923
 20
117.8814852540311
 30
0.0
 10
342.2135731017852
 20
117.22636614535
 30
0.0
 10
340.5211467961393
 20
116.5768366502407
 30
0.0
 10
338.8207527149548
 20
115.9324169833447
 30
0.0
 10
337.6795153152055
 20
115.5073155553514
 30
0.0
 10
337.1090625408187
 20
115.2948266472172
 30
0.0
  0
SPLINE
  5
255
330
1F
100
AcDbEntity
  8
0
  6
Continuous
 62
     7
370
    15
100
AcDbSpline
210
0.0
220
0.0
230
1.0
 70
     8
 71
     3
 72
    17
 73
    13
 74
     0
 42
0.00000001
 43
0.00000001
 12
1.0
 22
0.0
 32
0.0
 13
1.0
 23
0.0
 33
0.0
 40
0.0
 40
0.0
 40
0.0
 40
0.0
 40
0.3153725247568784
 40
0.3153725247568784
 40
0.3153725247568784
 40
0.6332746188973369
 40
0.6332746188973369
 40
0.6332746188973369
 40
0.9132927023718137
 40
0.9132927023718137
 40
0.9132927023718137
 40
1.0
 40
1.0
 40
1.0
 40
1.0
 10
337.1090625408187
 20
115.2948266472172
 30
0.0
 10
337.0806466078175
 20
115.2842837029136
 30
0.0
 10
337.0534142289699
 20
115.2689340665392
 30
0.0
 10
337.029822208657
 20
115.2494372761962
 30
0.0
 10
337.0061218329739
 20
115.2298509393919
 30
0.0
 10
336.9853985937884
 20
115.2053650275553
 30
0.0
 10
336.9705364382911
 20
115.1780040167972
 30
0.0
 10
336.9574264184751
 20
115.1538686621853
 30
0.0
 10
336.9485043160527
 20
115.126677994014
 30
0.0
 10
336.9451432446898
 20
115.0992116739934
 30
0.0
 10
336.944084295476
 20
115.0905580529148
 30
0.0
 10
336.9435500701564
 20
115.081818250147
 30
0.0
 10
336.9435500701564
 20
115.0730955594145
 30
0.0
  0
LINE
  5
256
330
1F
100
AcDbEntity
  8
0
  6
Continuous
 62
     7
370
    15
100
AcDbLine
 10
355.8809072277
 20
124.1325664232
 30
0.0
 11
355.8809072277
 21
128.2198450426
 31
0.0
  0
SPLINE
  5
257
330
1F
100
AcDbEntity
  8
0
  6
Continuous
 62
     7
370
    15
100
AcDbSpline
210
0.0
220
0.0
230
1.0
 70
     8
 71
     3
 72
    20
 73
    16
 74
     0
 42
0.00000001
 43
0.00000001
 12
1.0
 22
0.0
 32
0.0
 13
1.0
 23
0.0
 33
0.0
 40
0.0
 40
0.0
 40
0.0
 40
0.0
 40
0.1248373376559401
 40
0.2498800959417739
 40
0.3744221221105403
 40
0.4994634234190944
 40
0.5244618272940798
 40
0.5618890660515408
 40
0.6240953061537943
 40
0.6954794827750622
 40
0.7491507758843545
 40
0.8308127307856227
 40
0.8919492388703266
 40
0.9536999243024846
 40
1.0
 40
1.0
 40
1.0
 40
1.0
 10
355.736671957722
 20
123.9108354338793
 30
0.0
 10
355.7467550323908
 20
123.9156414321821
 30
0.0
 10
355.7669377734916
 20
123.9252613370883
 30
0.0
 10
355.7945570017106
 20
123.9452394703232
 30
0.0
 10
355.8194459664496
 20
123.9690562234749
 30
0.0
 10
355.8351488651448
 20
123.9893305270745
 30
0.0
 10
355.8446739956734
 20
124.0040899893685
 30
0.0
 10
355.8506666141914
 20
124.0141613976623
 30
0.0
 10
355.858097807068
 20
124.0285237406394
 30
0.0
 10
355.8649998594551
 20
124.0449549628669
 30
0.0
 10
355.8713148436112
 20
124.0636684709901
 30
0.0
 10
355.8759521534209
 20
124.0819697537724
 30
0.0
 10
355.8791366549526
 20
124.1014095231739
 30
0.0
 10
355.8806680102835
 20
124.1176720143479
 30
0.0
 10
355.8808362587593
 20
124.1280986688915
 30
0.0
 10
355.8809083537365
 20
124.132566521682
 30
0.0
  0
SPLINE
  5
258
330
1F
100
AcDbEntity
  8
0
  6
Continuous
 62
     7
370
    15
100
AcDbSpline
210
0.0
220
0.0
230
1.0
 70
     8
 71
     3
 72
    19
 73
    15
 74
     0
 42
0.00000001
 43
0.00000001
 12
1.0
 22
0.0
 32
0.0
 13
1.0
 23
0.0
 33
0.0
 40
0.0
 40
0.0
 40
0.0
 40
0.0
 40
0.0491815435384217
 40
0.0986559518164827
 40
0.1484233649961187
 40
0.1984839207776237
 40
0.2488377544558221
 40
0.3727322953291792
 40
0.4986533583030102
 40
0.6227754614965939
 40
0.7491446556801392
 40
0.8316455012814494
 40
0.9152638320644393
 40
1.0
 40
1.0
 40
1.0
 40
1.0
 10
336.8836232095522
 20
116.4783164855982
 30
0.0
 10
337.2031338737704
 20
116.5952465952226
 30
0.0
 10
337.8440578144625
 20
116.8298031062844
 30
0.0
 10
338.8047538200389
 20
117.1848223626974
 30
0.0
 10
339.7684242829457
 20
117.5434913422378
 30
0.0
 10
340.7347021595088
 20
117.9059669539928
 30
0.0
 10
342.1732975108981
 20
118.4497881070228
 30
0.0
 10
344.0874578925118
 20
119.1831390234562
 30
0.0
 10
346.4513340790017
 20
120.1061871604488
 30
0.0
 10
348.8089295250181
 20
121.0444472046626
 30
0.0
 10
350.8743903398858
 20
121.882081110845
 30
0.0
 10
352.6728049898456
 20
122.6231757797508
 30
0.0
 10
354.2051907360023
 20
123.2620201321992
 30
0.0
 10
355.2239234960368
 20
123.6936084492214
 30
0.0
 10
355.7366719577221
 20
123.9108354338793
 30
0.0
  0
SPLINE
  5
259
330
1F
100
AcDbEntity
  8
0
  6
Continuous
 62
     7
370
    15
100
AcDbSpline
210
0.0
220
0.0
230
1.0
 70
     8
 71
     3
 72
    22
 73
    18
 74
     0
 42
0.00000001
 43
0.00000001
 12
1.0
 22
0.0
 32
0.0
 13
1.0
 23
0.0
 33
0.0
 40
0.0
 40
0.0
 40
0.0
 40
0.0
 40
0.0155544025872355
 40
0.0311337902340253
 40
0.0623528427317582
 40
0.1249257335903079
 40
0.1964072815570793
 40
0.2498091392132403
 40
0.3211847086678576
 40
0.3748722164966951
 40
0.4106671531291026
 40
0.4374833950078412
 40
0.4998628867272696
 40
0.624897717859415
 40
0.7498540852317365
 40
0.8749340967425421
 40
1.0
 40
1.0
 40
1.0
 40
1.0
 10
336.7154492986178
 20
116.2565853977956
 30
0.0
 10
336.7154596108721
 20
116.2581400944762
 30
0.0
 10
336.7154802519454
 20
116.2612519851489
 30
0.0
 10
336.7156997729222
 20
116.2674808262093
 30
0.0
 10
336.7164340320799
 20
116.2783895475015
 30
0.0
 10
336.7186384352911
 20
116.2947752523414
 30
0.0
 10
336.7228299397141
 20
116.3130422047599
 30
0.0
 10
336.7288441259068
 20
116.3316731694708
 30
0.0
 10
336.7357595021027
 20
116.3480625770045
 30
0.0
 10
336.7431561607675
 20
116.3622361613492
 30
0.0
 10
336.7490693190871
 20
116.3721429232451
 30
0.0
 10
336.7558315012618
 20
116.3825181007069
 30
0.0
 10
336.7684024330518
 20
116.3996003320662
 30
0.0
 10
336.78947733407
 20
116.4222306702031
 30
0.0
 10
336.8182590250551
 20
116.4453387862497
 30
0.0
 10
336.8497153112621
 20
116.46452201665
 30
0.0
 10
336.8723210017761
 20
116.473718502177
 30
0.0
 10
336.8836232095515
 20
116.4783164855992
 30
0.0
  0
LINE
  5
25A
330
1F
100
AcDbEntity
  8
0
  6
Continuous
 62
     7
370
    15
100
AcDbLine
 10
336.71544907
 20
103.0642048354
 30
0.0
 11
336.71544907
 21
116.2565856139
 31
0.0
  0
SPLINE
  5
25B
330
1F
100
AcDbEntity
  8
0
  6
Continuous
 62
     7
370
    15
100
AcDbSpline
210
0.0
220
0.0
230
1.0
 70
     8
 71
     3
 72
    25
 73
    21
 74
     0
 42
0.00000001
 43
0.00000001
 12
1.0
 22
0.0
 32
0.0
 13
1.0
 23
0.0
 33
0.0
 40
0.0
 40
0.0
 40
0.0
 40
0.0
 40
0.1245374729631974
 40
0.2493505094961783
 40
0.3737188330692766
 40
0.4987299974679118
 40
0.6234526366070136
 40
0.7488262935130896
 40
0.7800478408818344
 40
0.7956962209491836
 40
0.8113724284088982
 40
0.8364913884867837
 40
0.8515751341014002
 40
0.8741986371235387
 40
0.8993106120218899
 40
0.9143552820179324
 40
0.9368743237001181
 40
0.9511372904459549
 40
0.9728275590676055
 40
0.9999999999999999
 40
0.9999999999999999
 40
0.9999999999999999
 40
0.9999999999999999
 10
336.4425405648792
 20
102.8242057329088
 30
0.0
 10
336.4590682425093
 20
102.8249831495909
 30
0.0
 10
336.4921601684957
 20
102.8265397031419
 30
0.0
 10
336.5405691937356
 20
102.8388235954283
 30
0.0
 10
336.5865031135418
 20
102.8586022009971
 30
0.0
 10
336.6284358426246
 20
102.8864035378658
 30
0.0
 10
336.6646414545394
 20
102.9219319591223
 30
0.0
 10
336.6859092061496
 20
102.953889528883
 30
0.0
 10
336.6959858620967
 20
102.9749851288951
 30
0.0
 10
336.6993068595571
 20
102.98280527699
 30
0.0
 10
336.7021010691382
 20
102.9899495850316
 30
0.0
 10
336.7046030870975
 20
102.9971285304004
 30
0.0
 10
336.7071173681752
 20
103.0053009297572
 30
0.0
 10
336.7093478214235
 20
103.0135610713088
 30
0.0
 10
336.7112097981282
 20
103.021912953046
 30
0.0
 10
336.7127500788139
 20
103.0303166462707
 30
0.0
 10
336.7137748776395
 20
103.0373114550468
 30
0.0
 10
336.7146382634942
 20
103.0452398594655
 30
0.0
 10
336.7152937031162
 20
103.053830609895
 30
0.0
 10
336.7153936939462
 20
103.0604980080545
 30
0.0
 10
336.7154492986178
 20
103.0642057329088
 30
0.0
  0
LINE
  5
25C
330
1F
100
AcDbEntity
  8
0
  6
Continuous
 62
     7
370
    15
100
AcDbLine
 10
331.4250935367
 20
102.8242048705
 30
0.0
 11
336.4425398907
 21
102.8242048705
 31
0.0
  0
SPLINE
  5
25D
330
1F
100
AcDbEntity
  8
0
  6
Continuous
 62
     7
370
    15
100
AcDbSpline
210
0.0
220
0.0
230
1.0
 70
     8
 71
     3
 72
    26
 73
    22
 74
     0
 42
0.00000001
 43
0.00000001
 12
1.0
 22
0.0
 32
0.0
 13
1.0
 23
0.0
 33
0.0
 40
0.0
 40
0.0
 40
0.0
 40
0.0
 40
0.0089011391085977
 40
0.0133563221085909
 40
0.0178143623845563
 40
0.0356711530818479
 40
0.0499814625117756
 40
0.0714738731966683
 40
0.087861160526294
 40
0.1124371059947259
 40
0.1247155684988143
 40
0.1431079547909552
 40
0.1698492204778949
 40
0.1966258337369584
 40
0.2503436521281674
 40
0.3753513944770664
 40
0.5005904984399641
 40
0.6255888912022475
 40
0.7505281328699015
 40
0.8753078104546234
 40
1.0
 40
1.0
 40
1.0
 40
1.0
 10
331.140309549198
 20
103.0642057329088
 30
0.0
 10
331.1403160408787
 20
103.0629693703453
 30
0.0
 10
331.1403257817643
 20
103.0611141856953
 30
0.0
 10
331.1403860977274
 20
103.0586405102389
 30
0.0
 10
331.1405084557026
 20
103.0549243248649
 30
0.0
 10
331.1407959913766
 20
103.0498441510205
 30
0.0
 10
331.1414623433598
 20
103.0424210967682
 30
0.0
 10
331.1423729284294
 20
103.0352288500737
 30
0.0
 10
331.1437879358589
 20
103.0266731272141
 30
0.0
 10
331.1452908135605
 20
103.0194343410968
 30
0.0
 10
331.1471227852809
 20
103.0119902141445
 30
0.0
 10
331.1492612373528
 20
103.0043168492877
 30
0.0
 10
331.1523710401135
 20
102.9948381319685
 30
0.0
 10
331.157762477279
 20
102.9809841878303
 30
0.0
 10
331.170115347065
 20
102.9553108074555
 30
0.0
 10
331.1944820893193
 20
102.9206693305048
 30
0.0
 10
331.2325784397052
 20
102.8853658204944
 30
0.0
 10
331.2764064501341
 20
102.8578975126066
 30
0.0
 10
331.324033872733
 20
102.8384974115353
 30
0.0
 10
331.3740214189394
 20
102.8264652129536
 30
0.0
 10
331.4080736306896
 20
102.8249587168179
 30
0.0
 10
331.4250937656284
 20
102.8242057329088
 30
0.0
  0
LINE
  5
25E
330
1F
100
AcDbEntity
  8
0
  6
Continuous
 62
     7
370
    15
100
AcDbLine
 10
331.1403099945
 20
103.0642048354
 30
0.0
 11
331.1403099945
 21
119.4638426314
 31
0.0
  0
SPLINE
  5
25F
330
1F
100
AcDbEntity
  8
0
  6
Continuous
 62
     7
370
    15
100
AcDbSpline
210
0.0
220
0.0
230
1.0
 70
     8
 71
     3
 72
    21
 73
    17
 74
     0
 42
0.00000001
 43
0.00000001
 12
1.0
 22
0.0
 32
0.0
 13
1.0
 23
0.0
 33
0.0
 40
0.0
 40
0.0
 40
0.0
 40
0.0
 40
0.1247734956603249
 40
0.2497880955810181
 40
0.4159743193028027
 40
0.49950407364875
 40
0.6241785521644584
 40
0.6553344624710414
 40
0.6865743486428537
 40
0.7491493665235737
 40
0.7818360061084966
 40
0.8307509634475717
 40
0.855137927401417
 40
0.8918396155632327
 40
0.9536578857250176
 40
1.0
 40
1.0
 40
1.0
 40
1.0
 10
331.3161890411805
 20
119.6855739476109
 30
0.0
 10
331.3045731788403
 20
119.6810602712976
 30
0.0
 10
331.2813190084164
 20
119.6720241967337
 30
0.0
 10
331.2451984173632
 20
119.6511279511659
 30
0.0
 10
331.2156065129747
 20
119.627641740522
 30
0.0
 10
331.1898840986473
 20
119.6001249920468
 30
0.0
 10
331.1756824722952
 20
119.5804878970471
 30
0.0
 10
331.1663191162107
 20
119.564097106291
 30
0.0
 10
331.1605260804687
 20
119.5528860388859
 30
0.0
 10
331.1553835468806
 20
119.5411631599681
 30
0.0
 10
331.150416347793
 20
119.5274516920968
 30
0.0
 10
331.1473481965126
 20
119.5171639515039
 30
0.0
 10
331.1447408417328
 20
119.5063343694431
 30
0.0
 10
331.1424062260446
 20
119.494104065978
 30
0.0
 10
331.1406340535385
 20
119.4795022474624
 30
0.0
 10
331.1404068823632
 20
119.4685398008817
 30
0.0
 10
331.140309549198
 20
119.4638428598082
 30
0.0
  0
SPLINE
  5
260
330
1F
100
AcDbEntity
  8
0
  6
Continuous
 62
     7
370
    15
100
AcDbSpline
210
0.0
220
0.0
230
1.0
 70
     8
 71
     3
 72
    19
 73
    15
 74
     0
 42
0.00000001
 43
0.00000001
 12
1.0
 22
0.0
 32
0.0
 13
1.0
 23
0.0
 33
0.0
 40
0.0
 40
0.0
 40
0.0
 40
0.0
 40
0.0507613404445954
 40
0.1012275480401437
 40
0.1513987028644764
 40
0.2012748864170164
 40
0.2508561816522141
 40
0.3769183465083962
 40
0.5012941032695687
 40
0.6269664675018211
 40
0.7510837532745016
 40
0.8346938657173648
 40
0.9176657514442027
 40
1.0
 40
1.0
 40
1.0
 40
1.0
 10
348.0890005917856
 20
125.9544746451061
 30
0.0
 10
347.8131359229324
 20
125.8444944118632
 30
0.0
 10
347.2630104972771
 20
125.6251733843538
 30
0.0
 10
346.4367509000936
 20
125.298536071191
 30
0.0
 10
345.6128647237528
 20
124.9748346036556
 30
0.0
 10
344.7911876059638
 20
124.6541662556104
 30
0.0
 10
343.5489804053818
 20
124.1725434900237
 30
0.0
 10
341.8875823844058
 20
123.5358596498036
 30
0.0
 10
339.7898397452346
 20
122.745250914811
 30
0.0
 10
337.6887139669454
 20
121.96655897473
 30
0.0
 10
335.8045305948239
 20
121.2799049337063
 30
0.0
 10
334.1533280665662
 20
120.6867473538383
 30
0.0
 10
332.7343604385667
 20
120.1823982601824
 30
0.0
 10
331.7876956468026
 20
119.8507556355528
 30
0.0
 10
331.3161890411805
 20
119.6855739476109
 30
0.0
  0
SPLINE
  5
261
330
1F
100
AcDbEntity
  8
0
  6
Continuous
 62
     7
370
    15
100
AcDbSpline
210
0.0
220
0.0
230
1.0
 70
     8
 71
     3
 72
    61
 73
    57
 74
     0
 42
0.00000001
 43
0.00000001
 12
1.0
 22
0.0
 32
0.0
 13
1.0
 23
0.0
 33
0.0
 40
0.0
 40
0.0
 40
0.0
 40
0.0
 40
0.0624119301157334
 40
0.1249298136653894
 40
0.1871695742000697
 40
0.2496617331421528
 40
0.3119073618659444
 40
0.3743376193751953
 40
0.4056270141992854
 40
0.4134387768994706
 40
0.4212425214557838
 40
0.4274788597119676
 40
0.4321517905918972
 40
0.4368206969602959
 40
0.4445924801761745
 40
0.4523753771902025
 40
0.4586126615833203
 40
0.4632954009041597
 40
0.4679818389125879
 40
0.4757997570115934
 40
0.4797117536083469
 40
0.4836254618300517
 40
0.4898903832060615
 40
0.4945910923578185
 40
0.4992930962009759
 40
0.5032121580907591
 40
0.507131638946738
 40
0.5110513191950379
 40
0.5149709788254191
 40
0.518890397669096
 40
0.5228093556762972
 40
0.5267276331941104
 40
0.5306450112447633
 40
0.5345612718042009
 40
0.5384761980819207
 40
0.5423895748017739
 40
0.5463011884837851
 40
0.550210827727983
 40
0.5541182834996797
 40
0.5580233494167461
 40
0.5619258220393799
 40
0.5658255011619979
 40
0.5697221901078963
 40
0.5736156960267405
 40
0.5775103977352201
 40
0.5814098988778019
 40
0.5853121180234915
 40
0.5892169044274119
 40
0.5931241016495648
 40
0.6244393729197526
 40
0.6959540201763182
 40
0.7495356334121444
 40
0.8210880096891958
 40
0.8746331632761486
 40
0.9372784209833297
 40
1.0
 40
1.0
 40
1.0
 40
1.0
 10
348.0890005917855
 20
126.3979368207115
 30
0.0
 10
348.0995762204313
 20
126.3932108037329
 30
0.0
 10
348.1207454314084
 20
126.3837507466665
 30
0.0
 10
348.1498834436093
 20
126.3640845121656
 30
0.0
 10
348.1763034983662
 20
126.3405475161798
 30
0.0
 10
348.1991524257994
 20
126.3131228807712
 30
0.0
 10
348.2179567538456
 20
126.2823684749701
 30
0.0
 10
348.229529289339
 20
126.2543526364363
 30
0.0
 10
348.2349486998613
 20
126.235362189214
 30
0.0
 10
348.2370242885852
 20
126.2264718583387
 30
0.0
 10
348.2379106513426
 20
126.2223096122115
 30
0.0
 10
348.2386066903857
 20
126.2187308042949
 30
0.0
 10
348.239144886204
 20
126.2157428290511
 30
0.0
 10
348.2396969642671
 20
126.2124526344052
 30
0.0
 10
348.240287186641
 20
126.2085530530697
 30
0.0
 10
348.2408379003314
 20
126.2043374373411
 30
0.0
 10
348.2412449808584
 20
126.2007104766949
 30
0.0
 10
348.2415422994381
 20
126.1976790116166
 30
0.0
 10
348.2418298468867
 20
126.1943363712061
 30
0.0
 10
348.2420538450517
 20
126.191138942365
 30
0.0
 10
348.2422222411981
 20
126.1880890406327
 30
0.0
 10
348.242346908851
 20
126.1853403668904
 30
0.0
 10
348.2424415337458
 20
126.1824361018749
 30
0.0
 10
348.2424992934992
 20
126.1793768358821
 30
0.0
 10
348.2425179276534
 20
126.1767751631898
 30
0.0
 10
348.2425092024004
 20
126.1743260315932
 30
0.0
 10
348.2424786508683
 20
126.1720298970522
 30
0.0
 10
348.2424257412757
 20
126.1697341070647
 30
0.0
 10
348.2423504870148
 20
126.1674390361561
 30
0.0
 10
348.242252901471
 20
126.1651450598657
 30
0.0
 10
348.2421329980215
 20
126.1628525534611
 30
0.0
 10
348.2419907900353
 20
126.1605618922827
 30
0.0
 10
348.2418262908734
 20
126.1582734516516
 30
0.0
 10
348.2416395138887
 20
126.1559876068939
 30
0.0
 10
348.2414304724262
 20
126.1537047333347
 30
0.0
 10
348.2411991798228
 20
126.1514252062991
 30
0.0
 10
348.2409456494062
 20
126.1491494011126
 30
0.0
 10
348.2406698945002
 20
126.1468776930995
 30
0.0
 10
348.2403719284046
 20
126.144610457588
 30
0.0
 10
348.2400517644695
 20
126.1423480698925
 30
0.0
 10
348.2397094158183
 20
126.1400909053791
 30
0.0
 10
348.2393448963797
 20
126.1378393392206
 30
0.0
 10
348.2389582170405
 20
126.1355937473116
 30
0.0
 10
348.2385492401205
 20
126.1333536272097
 30
0.0
 10
348.2381176062345
 20
126.1311177703116
 30
0.0
 10
348.2376633127166
 20
126.1288852673402
 30
0.0
 10
348.2371864332593
 20
126.1266560903661
 30
0.0
 10
348.2366871986878
 20
126.1244309226067
 30
0.0
 10
348.234946604341
 20
126.1170175403523
 30
0.0
 10
348.2293064842779
 20
126.0970365092435
 30
0.0
 10
348.2174279789941
 20
126.0690087281536
 30
0.0
 10
348.197462605435
 20
126.036911877465
 30
0.0
 10
348.1753743483383
 20
126.0108621345299
 30
0.0
 10
348.1486990091059
 20
125.9875680305255
 30
0.0
 10
348.1208797302362
 20
125.9687011919519
 30
0.0
 10
348.0996312831731
 20
125.9592187516403
 30
0.0
 10
348.0890005917855
 20
125.9544746451061
 30
0.0
  0
SPLINE
  5
262
330
1F
100
AcDbEntity
  8
0
  6
Continuous
 62
     7
370
    15
100
AcDbSpline
210
0.0
220
0.0
230
1.0
 70
     8
 71
     3
 72
    19
 73
    15
 74
     0
 42
0.00000001
 43
0.00000001
 12
1.0
 22
0.0
 32
0.0
 13
1.0
 23
0.0
 33
0.0
 40
0.0
 40
0.0
 40
0.0
 40
0.0
 40
0.0493226044876558
 40
0.0988755112624375
 40
0.1486588494537755
 40
0.1986727464060749
 40
0.2489173277105056
 40
0.3730292495916664
 40
0.4987069714870583
 40
0.6230773518417864
 40
0.7491448868593521
 40
0.8319413928752148
 40
0.9155596381854915
 40
1.0
 40
1.0
 40
1.0
 40
1.0
 10
331.3161890411805
 20
132.6668375182068
 30
0.0
 10
331.5987591346726
 20
132.5679766612643
 30
0.0
 10
332.1652187276268
 20
132.3697933358788
 30
0.0
 10
333.014591847726
 20
132.070037558868
 30
0.0
 10
333.8661570524987
 20
131.7675916114887
 30
0.0
 10
334.7196819160649
 20
131.4623249639024
 30
0.0
 10
335.9930390353788
 20
131.0037846442177
 30
0.0
 10
337.6886917332002
 20
130.385868639592
 30
0.0
 10
339.7897800069765
 20
129.607182845541
 30
0.0
 10
341.8875433404361
 20
128.8165588213824
 30
0.0
 10
343.7329163566415
 20
128.1094073324461
 30
0.0
 10
345.342232642523
 20
127.483981788371
 30
0.0
 10
346.7158900349959
 20
126.9446624778836
 30
0.0
 10
347.6298068267033
 20
126.5807720714804
 30
0.0
 10
348.0890005917856
 20
126.3979368207115
 30
0.0
  0
SPLINE
  5
263
330
1F
100
AcDbEntity
  8
0
  6
Continuous
 62
     7
370
    15
100
AcDbSpline
210
0.0
220
0.0
230
1.0
 70
     8
 71
     3
 72
    22
 73
    18
 74
     0
 42
0.00000001
 43
0.00000001
 12
1.0
 22
0.0
 32
0.0
 13
1.0
 23
0.0
 33
0.0
 40
0.0
 40
0.0
 40
0.0
 40
0.0
 40
0.0155580903450377
 40
0.0311421988715246
 40
0.0623727545339226
 40
0.1249681053090144
 40
0.1536000952312429
 40
0.196474246233356
 40
0.2498828298623399
 40
0.3123928798218127
 40
0.3482011017913815
 40
0.3750673204538477
 40
0.499953823243862
 40
0.6251145543189259
 40
0.7500092095371526
 40
0.8750512691286532
 40
1.0
 40
1.0
 40
1.0
 40
1.0
 10
331.140309549198
 20
132.8885686060095
 30
0.0
 10
331.1403206620167
 20
132.8869918095098
 30
0.0
 10
331.1403429062382
 20
132.8838355795945
 30
0.0
 10
331.1405793245742
 20
132.8775179803835
 30
0.0
 10
331.1413694545035
 20
132.8664557630161
 30
0.0
 10
331.1431244911644
 20
132.8541519291581
 30
0.0
 10
331.145924883256
 20
132.8408610698694
 30
0.0
 10
331.1491700915522
 20
132.8286305660721
 30
0.0
 10
331.1543829348472
 20
132.8134200510239
 30
0.0
 10
331.1605604759825
 20
132.7993637549821
 30
0.0
 10
331.1664070787227
 20
132.7881543174948
 30
0.0
 10
331.175848490203
 20
132.7717523863976
 30
0.0
 10
331.1922014243468
 20
132.7489868497385
 30
0.0
 10
331.2187238080922
 20
132.7220519965585
 30
0.0
 10
331.2487186716033
 20
132.6992492091179
 30
0.0
 10
331.2812809930868
 20
132.6803938600477
 30
0.0
 10
331.3045559215483
 20
132.6713551740203
 30
0.0
 10
331.3161890411805
 20
132.6668375182068
 30
0.0
  0
LINE
  5
264
330
1F
100
AcDbEntity
  8
0
  6
Continuous
 62
     7
370
    15
100
AcDbLine
 10
331.1403099945
 20
132.8885688345
 30
0.0
 11
331.1403099945
 21
150.5842053229
 31
0.0
  0
SPLINE
  5
265
330
1F
100
AcDbEntity
  8
0
  6
Continuous
 62
     7
370
    15
100
AcDbSpline
210
0.0
220
0.0
230
1.0
 70
     8
 71
     3
 72
    26
 73
    22
 74
     0
 42
0.00000001
 43
0.00000001
 12
1.0
 22
0.0
 32
0.0
 13
1.0
 23
0.0
 33
0.0
 40
0.0
 40
0.0
 40
0.0
 40
0.0
 40
0.1246655110475157
 40
0.2495453154142194
 40
0.3739281685715898
 40
0.4988463173387747
 40
0.6234595715723035
 40
0.7488510656583098
 40
0.8113534593158664
 40
0.8270483403606155
 40
0.8427559698771335
 40
0.8553257986374934
 40
0.8741761522571163
 40
0.8885284017347611
 40
0.9100261005589979
 40
0.9207576456386684
 40
0.936826777302581
 40
0.9510786724731061
 40
0.9728172162526336
 40
0.9836924239013031
 40
1.0
 40
1.0
 40
1.0
 40
1.0
 10
331.4250937656284
 20
150.8242057329088
 30
0.0
 10
331.4080781616634
 20
150.8234499988951
 30
0.0
 10
331.3740177048238
 20
150.8219372318014
 30
0.0
 10
331.3240934502928
 20
150.8099277701863
 30
0.0
 10
331.2765394044803
 20
150.7905524322421
 30
0.0
 10
331.2328412717652
 20
150.7632082729391
 30
0.0
 10
331.1947393082779
 20
150.7279929741304
 30
0.0
 10
331.1695724166224
 20
150.6924640708658
 30
0.0
 10
331.1575364296453
 20
150.6669037493455
 30
0.0
 10
331.1529031968628
 20
150.6547422115009
 30
0.0
 10
331.1509047429811
 20
150.6489824303523
 30
0.0
 10
331.148931774592
 20
150.6427519146594
 30
0.0
 10
331.1471998266126
 20
150.6366420724384
 30
0.0
 10
331.1453687023881
 20
150.629275994835
 30
0.0
 10
331.144032714293
 20
150.6229482138683
 30
0.0
 10
331.1428628060477
 20
150.6163461051749
 30
0.0
 10
331.1420229460186
 20
150.6107074239076
 30
0.0
 10
331.1411860262814
 20
150.603526069026
 30
0.0
 10
331.1406811329919
 20
150.5970347185467
 30
0.0
 10
331.1403668725208
 20
150.5902465982041
 30
0.0
 10
331.1403310437189
 20
150.5864708755946
 30
0.0
 10
331.1403095491981
 20
150.5842057329089
 30
0.0
  0
LINE
  5
266
330
1F
100
AcDbEntity
  8
0
  6
Continuous
 62
     7
370
    15
100
AcDbLine
 10
336.4425398907
 20
150.8242052878
 30
0.0
 11
331.4250935367
 21
150.8242052878
 31
0.0
  0
SPLINE
  5
267
330
1F
100
AcDbEntity
  8
0
  6
Continuous
 62
     7
370
    15
100
AcDbSpline
210
0.0
220
0.0
230
1.0
 70
     8
 71
     3
 72
    26
 73
    22
 74
     0
 42
0.00000001
 43
0.00000001
 12
1.0
 22
0.0
 32
0.0
 13
1.0
 23
0.0
 33
0.0
 40
0.0
 40
0.0
 40
0.0
 40
0.0
 40
0.0088994897814476
 40
0.0133536447267546
 40
0.017810535772314
 40
0.0356618145721846
 40
0.0499668932683896
 40
0.0714513234923391
 40
0.0878332955840924
 40
0.1124048763466768
 40
0.1246835259769169
 40
0.1430805034209429
 40
0.1698404673396154
 40
0.1965784175468388
 40
0.2502468532825509
 40
0.3752355508762154
 40
0.5004166599798293
 40
0.6253287124793583
 40
0.7503910493988002
 40
0.8751807452972945
 40
1.0
 40
1.0
 40
1.0
 40
1.0
 10
336.7154492986178
 20
150.5842057329089
 30
0.0
 10
336.7154433224326
 20
150.5854199651799
 30
0.0
 10
336.7154343551933
 20
150.5872419152873
 30
0.0
 10
336.715378799058
 20
150.5896713131055
 30
0.0
 10
336.7152660760048
 20
150.5933208191011
 30
0.0
 10
336.715001083408
 20
150.598310052257
 30
0.0
 10
336.7143864341054
 20
150.6056019407815
 30
0.0
 10
336.7135458224972
 20
150.6126696381594
 30
0.0
 10
336.7122382818128
 20
150.6210825190651
 30
0.0
 10
336.7108482388273
 20
150.6282061868991
 30
0.0
 10
336.7091522911384
 20
150.6355394021777
 30
0.0
 10
336.707170564212
 20
150.6431070982362
 30
0.0
 10
336.7042897352028
 20
150.6524619587913
 30
0.0
 10
336.6992875470891
 20
150.6661531296648
 30
0.0
 10
336.6877759128528
 20
150.6915910564618
 30
0.0
 10
336.6649334598468
 20
150.7261763449768
 30
0.0
 10
336.6287672512009
 20
150.7617620901426
 30
0.0
 10
336.5867554538512
 20
150.7896982440314
 30
0.0
 10
336.5407600495589
 20
150.8095380559149
 30
0.0
 10
336.4922349558941
 20
150.8218869829393
 30
0.0
 10
336.459106669573
 20
150.8234327552353
 30
0.0
 10
336.4425405648792
 20
150.8242057329088
 30
0.0
  0
LINE
  5
268
330
1F
100
AcDbEntity
  8
0
  6
Continuous
 62
     7
370
    15
100
AcDbLine
 10
336.71544907
 20
136.0958258519
 30
0.0
 11
336.71544907
 21
150.5842053229
 31
0.0
  0
SPLINE
  5
269
330
1F
100
AcDbEntity
  8
0
  6
Continuous
 62
     7
370
    15
100
AcDbSpline
210
0.0
220
0.0
230
1.0
 70
     8
 71
     3
 72
    21
 73
    17
 74
     0
 42
0.00000001
 43
0.00000001
 12
1.0
 22
0.0
 32
0.0
 13
1.0
 23
0.0
 33
0.0
 40
0.0
 40
0.0
 40
0.0
 40
0.0
 40
0.1249862430843504
 40
0.2502012042886164
 40
0.4991679358600424
 40
0.5616807013086788
 40
0.5928577629711482
 40
0.6239583241453652
 40
0.6523656864566607
 40
0.695159867698318
 40
0.7488476378878038
 40
0.7816196232832787
 40
0.8307416145430578
 40
0.891937469116799
 40
0.9534930685150541
 40
1.0
 40
1.0
 40
1.0
 40
1.0
 10
336.8836232095521
 20
135.8740949802194
 30
0.0
 10
336.872335512897
 20
135.8786936524669
 30
0.0
 10
336.8497394637074
 20
135.8878994122855
 30
0.0
 10
336.8079287389802
 20
135.9133308904172
 30
0.0
 10
336.7758249937487
 20
135.9428526833178
 30
0.0
 10
336.7556918658579
 20
135.9701157183856
 30
0.0
 10
336.7489406911088
 20
135.9804662265668
 30
0.0
 10
336.7443356587516
 20
135.9881871368389
 30
0.0
 10
336.7394841003186
 20
135.9971040801958
 30
0.0
 10
336.7340858272202
 20
136.008279686683
 30
0.0
 10
336.7292427468307
 20
136.0202021051576
 30
0.0
 10
336.724888567972
 20
136.032984725079
 30
0.0
 10
336.7210295640959
 20
136.0467266781423
 30
0.0
 10
336.7176704746567
 20
136.0635612302216
 30
0.0
 10
336.7157503910093
 20
136.0803846532729
 30
0.0
 10
336.7155398914362
 20
136.0911800479948
 30
0.0
 10
336.7154492986178
 20
136.0958260680221
 30
0.0
  0
SPLINE
  5
26A
330
1F
100
AcDbEntity
  8
0
  6
Continuous
 62
     7
370
    15
100
AcDbSpline
210
0.0
220
0.0
230
1.0
 70
     8
 71
     3
 72
    19
 73
    15
 74
     0
 42
0.00000001
 43
0.00000001
 12
1.0
 22
0.0
 32
0.0
 13
1.0
 23
0.0
 33
0.0
 40
0.0
 40
0.0
 40
0.0
 40
0.0
 40
0.0509745941499094
 40
0.1015474887610893
 40
0.1517187581325857
 40
0.2014884783637242
 40
0.2508567274123248
 40
0.3772212606367354
 40
0.501348033185287
 40
0.6272644481039208
 40
0.751163645404609
 40
0.8349212793026711
 40
0.9178665183692479
 40
1.0
 40
1.0
 40
1.0
 40
1.0
 10
355.7366719577221
 20
128.4415760319384
 30
0.0
 10
355.4284929411332
 20
128.572328202901
 30
0.0
 10
354.8145634779301
 20
128.8328021670934
 30
0.0
 10
353.8920069639597
 20
129.2204405654357
 30
0.0
 10
352.9730408066901
 20
129.6038647509929
 30
0.0
 10
352.0574369947177
 20
129.9829683417264
 30
0.0
 10
350.6688641941757
 20
130.5536475750237
 30
0.0
 10
348.8089726045368
 20
131.3079575027943
 30
0.0
 10
346.4513922097637
 20
132.2462014199022
 30
0.0
 10
344.0874751477172
 20
133.1692550592856
 30
0.0
 10
341.9603557286871
 20
133.9842416578882
 30
0.0
 10
340.0944137649033
 20
134.6876762253035
 30
0.0
 10
338.4887769329412
 20
135.2857888578837
 30
0.0
 10
337.4169175316486
 20
135.6786368691833
 30
0.0
 10
336.8836232095522
 20
135.8740949802194
 30
0.0
  0
SPLINE
  5
26B
330
1F
100
AcDbEntity
  8
0
  6
Continuous
 62
     7
370
    15
100
AcDbSpline
210
0.0
220
0.0
230
1.0
 70
     8
 71
     3
 72
    22
 73
    18
 74
     0
 42
0.00000001
 43
0.00000001
 12
1.0
 22
0.0
 32
0.0
 13
1.0
 23
0.0
 33
0.0
 40
0.0
 40
0.0
 40
0.0
 40
0.0
 40
0.015552287582163
 40
0.0311271361215748
 40
0.0623321824091789
 40
0.1248766438992886
 40
0.1963765436356895
 40
0.2498534631938502
 40
0.3210498101314475
 40
0.3746543597241214
 40
0.437257980288515
 40
0.4730021030697423
 40
0.4997665102919622
 40
0.6244400923826054
 40
0.74951376474525
 40
0.87455417613167
 40
1.0
 40
1.0
 40
1.0
 40
1.0
 10
355.8809083537365
 20
128.2198449441356
 30
0.0
 10
355.880900162905
 20
128.2213456110196
 30
0.0
 10
355.8808837693602
 20
128.2243491217328
 30
0.0
 10
355.880709132244
 20
128.230361081132
 30
0.0
 10
355.8801239086725
 20
128.2408926205699
 30
0.0
 10
355.8783608679694
 20
128.256737378777
 30
0.0
 10
355.8749870157131
 20
128.2744743293909
 30
0.0
 10
355.8701386924143
 20
128.2926526273573
 30
0.0
 10
355.8645250875607
 20
128.3087409629115
 30
0.0
 10
355.8574442535798
 20
128.3250796438994
 30
0.0
 10
355.8508591503127
 20
128.337853069567
 30
0.0
 10
355.8448815161844
 20
128.3479899180131
 30
0.0
 10
355.8354250397713
 20
128.3627704409992
 30
0.0
 10
355.8195966407439
 20
128.3831771027979
 30
0.0
 10
355.7947214722807
 20
128.4070303332152
 30
0.0
 10
355.7670467550507
 20
128.4271230033076
 30
0.0
 10
355.7468078090901
 20
128.436753160252
 30
0.0
 10
355.7366719577221
 20
128.4415760319385
 30
0.0
  0
LINE
  5
26C
330
1F
100
AcDbEntity
  8
0
  6
Continuous
 62
     7
370
    15
100
AcDbLine
 10
329.6573259434
 20
150.8242052878
 30
0.0
 11
331.4250935367
 21
150.8242052878
 31
0.0
  0
LINE
  5
26D
330
1F
100
AcDbEntity
  8
0
  6
Continuous
 62
     7
370
    15
100
AcDbLine
 10
329.6573259434
 20
102.8242048705
 30
0.0
 11
331.4250935367
 21
102.8242048705
 31
0.0
  0
LINE
  5
26E
330
1F
100
AcDbEntity
  8
0
  6
Continuous
 62
     7
370
    15
100
AcDbLine
 10
338.7113161883
 20
146.0203447277
 30
0.0
 11
338.7113161883
 21
150.5842053229
 31
0.0
  0
LINE
  5
26F
330
1F
100
AcDbEntity
  8
0
  6
Continuous
 62
     7
370
    15
100
AcDbLine
 10
337.211557155
 20
150.8242052878
 30
0.0
 11
338.9793228856
 21
150.8242052878
 31
0.0
  0
SPLINE
  5
270
330
1F
100
AcDbEntity
  8
0
  6
Continuous
 62
     7
370
    15
100
AcDbSpline
210
0.0
220
0.0
230
1.0
 70
     8
 71
     3
 72
    25
 73
    21
 74
     0
 42
0.00000001
 43
0.00000001
 12
1.0
 22
0.0
 32
0.0
 13
1.0
 23
0.0
 33
0.0
 40
0.0
 40
0.0
 40
0.0
 40
0.0
 40
0.1246608180780601
 40
0.2496281564868476
 40
0.374175760723132
 40
0.4994179065416013
 40
0.6240922110139586
 40
0.7493659407258361
 40
0.7805833618149669
 40
0.7961513696831698
 40
0.8117589613422624
 40
0.836808120406001
 40
0.851874166529852
 40
0.8745051538016857
 40
0.8909407871596314
 40
0.9155936787841111
 40
0.9463715461897363
 40
0.9678682897893267
 40
0.9807397333982004
 40
0.9999999999999999
 40
0.9999999999999999
 40
0.9999999999999999
 40
0.9999999999999999
 10
338.9793232326313
 20
150.8242057329088
 30
0.0
 10
338.9629961744924
 20
150.8234138147297
 30
0.0
 10
338.9303019126795
 20
150.8218280311758
 30
0.0
 10
338.8825048222659
 20
150.8093655145384
 30
0.0
 10
338.8372225365576
 20
150.7893439919148
 30
0.0
 10
338.7960261968552
 20
150.7612996705438
 30
0.0
 10
338.7606224471954
 20
150.7256176018062
 30
0.0
 10
338.739961481933
 20
150.6936831782502
 30
0.0
 10
338.7301464046167
 20
150.6726970028922
 30
0.0
 10
338.7269156945926
 20
150.6649329167509
 30
0.0
 10
338.724209477416
 20
150.657849251475
 30
0.0
 10
338.721792658885
 20
150.6507239177442
 30
0.0
 10
338.7193675680766
 20
150.6426024664417
 30
0.0
 10
338.7175161480428
 20
150.6355218554044
 30
0.0
 10
338.715633729027
 20
150.6271120622056
 30
0.0
 10
338.713866313202
 20
150.6175471219709
 30
0.0
 10
338.7124940881632
 20
150.6072172391953
 30
0.0
 10
338.7117676174176
 20
150.5984227426991
 30
0.0
 10
338.7113917550522
 20
150.5911675765824
 30
0.0
 10
338.7113450305469
 20
150.5868148359928
 30
0.0
 10
338.7113170231228
 20
150.5842057329088
 30
0.0
  0
SPLINE
  5
271
330
1F
100
AcDbEntity
  8
0
  6
Continuous
 62
     7
370
    15
100
AcDbSpline
210
0.0
220
0.0
230
1.0
 70
     8
 71
     3
 72
    13
 73
     9
 74
     0
 42
0.00000001
 43
0.00000001
 12
1.0
 22
0.0
 32
0.0
 13
1.0
 23
0.0
 33
0.0
 40
0.0
 40
0.0
 40
0.0
 40
0.0
 40
0.1234128807296114
 40
0.2477354036282197
 40
0.3729678839872402
 40
0.4991106302731748
 40
0.7475756560281283
 40
1.0
 40
1.0
 40
1.0
 40
1.0
 10
349.0222342343785
 20
138.7406463924253
 30
0.0
 10
349.3043554747842
 20
138.9156262839377
 30
0.0
 10
349.8706773931353
 20
139.2668757952882
 30
0.0
 10
350.7188549643997
 20
139.7975468455559
 30
0.0
 10
351.5699342725136
 20
140.3334344111556
 30
0.0
 10
352.6971661755988
 20
141.0483736850057
 30
0.0
 10
354.1030350222983
 20
141.9484046835521
 30
0.0
 10
355.2132958679824
 20
142.6718256136643
 30
0.0
 10
355.7728143615818
 20
143.0363952466726
 30
0.0
  0
SPLINE
  5
272
330
1F
100
AcDbEntity
  8
0
  6
Continuous
 62
     7
370
    15
100
AcDbSpline
210
0.0
220
0.0
230
1.0
 70
     8
 71
     3
 72
    58
 73
    54
 74
     0
 42
0.00000001
 43
0.00000001
 12
1.0
 22
0.0
 32
0.0
 13
1.0
 23
0.0
 33
0.0
 40
0.0
 40
0.0
 40
0.0
 40
0.0
 40
0.0624060629841086
 40
0.1249529486710332
 40
0.2493897491801055
 40
0.2993603024625822
 40
0.3740275601622346
 40
0.4053245022537485
 40
0.4209795505683464
 40
0.4288035089439694
 40
0.4366230832016197
 40
0.4423390627203586
 40
0.4509061923147241
 40
0.4594638142713213
 40
0.472278863795597
 40
0.4829371348016945
 40
0.4893441108418779
 40
0.4941544872373683
 40
0.4989689218629518
 40
0.5067778409005383
 40
0.5145952688893154
 40
0.5224198251921209
 40
0.5263343806427967
 40
0.5302501854286018
 40
0.542786600834959
 40
0.5465488949168128
 40
0.5503114692642236
 40
0.5615989178240828
 40
0.5673313384643538
 40
0.5716297461429775
 40
0.5759270917613392
 40
0.5812968970212
 40
0.5866641934603247
 40
0.5920285152625947
 40
0.5947094312089614
 40
0.5973894314376222
 40
0.6080988572978845
 40
0.6145156955153517
 40
0.6193233928091206
 40
0.6241280482691405
 40
0.6280260899319725
 40
0.6319266954553865
 40
0.6358297392984193
 40
0.6397350914205191
 40
0.6436426174810148
 40
0.6475521790364059
 40
0.6553767472288414
 40
0.6867194607371946
 40
0.7493276145702551
 40
0.8118135905425858
 40
0.8744786247707199
 40
0.9371433558758685
 40
1.0
 40
1.0
 40
1.0
 40
1.0
 10
349.0604193257482
 20
138.3165013576275
 30
0.0
 10
349.0507054450449
 20
138.3208435888428
 30
0.0
 10
349.0312557637338
 20
138.3295378497563
 30
0.0
 10
348.9953211950325
 20
138.3530766202691
 30
0.0
 10
348.9653366182718
 20
138.3821061259211
 30
0.0
 10
348.9402029892798
 20
138.4180864606915
 30
0.0
 10
348.9275889781519
 20
138.4429022240277
 30
0.0
 10
348.9201604543616
 20
138.4633156886258
 30
0.0
 10
348.9172936717966
 20
138.4726877822863
 30
0.0
 10
348.9157969936717
 20
138.4780886488345
 30
0.0
 10
348.9148403022014
 20
138.4817942367712
 30
0.0
 10
348.9139090405013
 20
138.4856453119936
 30
0.0
 10
348.9130112302832
 20
138.4896423556207
 30
0.0
 10
348.9119373257328
 20
138.4949067554539
 30
0.0
 10
348.9109278315398
 20
138.5005698930309
 30
0.0
 10
348.9101324988972
 20
138.5058798020295
 30
0.0
 10
348.9096296130066
 20
138.5097795113388
 30
0.0
 10
348.9092990043457
 20
138.5126426854756
 30
0.0
 10
348.9089747686913
 20
138.5157606385829
 30
0.0
 10
348.9086486497832
 20
138.5194225025044
 30
0.0
 10
348.9083508554078
 20
138.523630529809
 30
0.0
 10
348.9081659416746
 20
138.5271442343932
 30
0.0
 10
348.9080558735745
 20
138.5299587739033
 30
0.0
 10
348.9079455551524
 20
138.5336217095527
 30
0.0
 10
348.9079045054915
 20
138.5372595778616
 30
0.0
 10
348.9079308107799
 20
138.5408693243171
 30
0.0
 10
348.9079844833578
 20
138.5442539629276
 30
0.0
 10
348.9081078281201
 20
138.5479918168219
 30
0.0
 10
348.9083085863656
 20
138.5518219383382
 30
0.0
 10
348.9084729343148
 20
138.5543942294159
 30
0.0
 10
348.9086577033901
 20
138.5568994890229
 30
0.0
 10
348.9088863952496
 20
138.5595938391551
 30
0.0
 10
348.9091667802556
 20
138.5624757189821
 30
0.0
 10
348.9094299127916
 20
138.5648728545367
 30
0.0
 10
348.9096580820182
 20
138.5667873450576
 30
0.0
 10
348.9100177112921
 20
138.5696534678137
 30
0.0
 10
348.9105156663977
 20
138.5731780845531
 30
0.0
 10
348.9111449762291
 20
138.5770674632545
 30
0.0
 10
348.9116423046734
 20
138.5799025732995
 30
0.0
 10
348.9120886355782
 20
138.5822865733158
 30
0.0
 10
348.9125278265452
 20
138.584505480699
 30
0.0
 10
348.91295438899
 20
138.5865613152155
 30
0.0
 10
348.9133999045819
 20
138.5886139151777
 30
0.0
 10
348.9138642492951
 20
138.5906630368266
 30
0.0
 10
348.9143473040357
 20
138.5927084352974
 30
0.0
 10
348.9150163180695
 20
138.5954309657752
 30
0.0
 10
348.9169591523503
 20
138.6029001546158
 30
0.0
 10
348.9223312202334
 20
138.6203093831093
 30
0.0
 10
348.9333319223811
 20
138.6460141595527
 30
0.0
 10
348.9506453042995
 20
138.6744431178772
 30
0.0
 10
348.9715089809497
 20
138.6999757474099
 30
0.0
 10
348.995331853624
 20
138.72255847116
 30
0.0
 10
349.0132576383883
 20
138.7346109428871
 30
0.0
 10
349.0222342343785
 20
138.7406463924253
 30
0.0
  0
SPLINE
  5
273
330
1F
100
AcDbEntity
  8
0
  6
Continuous
 62
     7
370
    15
100
AcDbSpline
210
0.0
220
0.0
230
1.0
 70
     8
 71
     3
 72
    13
 73
     9
 74
     0
 42
0.00000001
 43
0.00000001
 12
1.0
 22
0.0
 32
0.0
 13
1.0
 23
0.0
 33
0.0
 40
0.0
 40
0.0
 40
0.0
 40
0.0
 40
0.1264920285039298
 40
0.2520624927516105
 40
0.3767115413791265
 40
0.5004393263458178
 40
0.7519002083458711
 40
1.0
 40
1.0
 40
1.0
 40
1.0
 10
355.736671957722
 20
135.5542108300221
 30
0.0
 10
355.4592490648374
 20
135.6719403016877
 30
0.0
 10
354.9064244579915
 20
135.9065415208264
 30
0.0
 10
354.0759056598716
 20
136.2559189896988
 30
0.0
 10
353.2484549859458
 20
136.6018224947559
 30
0.0
 10
352.1379515934049
 20
137.0627742785947
 30
0.0
 10
350.7459069374538
 20
137.6352769008058
 30
0.0
 10
349.6197228394458
 20
138.0904473482885
 30
0.0
 10
349.0604193257482
 20
138.3165013576275
 30
0.0
  0
SPLINE
  5
274
330
1F
100
AcDbEntity
  8
0
  6
Continuous
 62
     7
370
    15
100
AcDbSpline
210
0.0
220
0.0
230
1.0
 70
     8
 71
     3
 72
    22
 73
    18
 74
     0
 42
0.00000001
 43
0.00000001
 12
1.0
 22
0.0
 32
0.0
 13
1.0
 23
0.0
 33
0.0
 40
0.0
 40
0.0
 40
0.0
 40
0.0
 40
0.0155522875820678
 40
0.0311271361215752
 40
0.0623321824091854
 40
0.1248766438991889
 40
0.1963765436355963
 40
0.2498534631937586
 40
0.321049810131358
 40
0.37465435972412
 40
0.4372579802885048
 40
0.4730021030697105
 40
0.4997665102919551
 40
0.6244400923825429
 40
0.7495137647452544
 40
0.8745541761316257
 40
1.0
 40
1.0
 40
1.0
 40
1.0
 10
355.8809083537365
 20
135.3324797422194
 30
0.0
 10
355.880900162905
 20
135.3339804091033
 30
0.0
 10
355.8808837693601
 20
135.3369839198165
 30
0.0
 10
355.880709132244
 20
135.3429958792157
 30
0.0
 10
355.8801239086725
 20
135.3535274186536
 30
0.0
 10
355.8783608679695
 20
135.3693721768608
 30
0.0
 10
355.8749870157131
 20
135.3871091274746
 30
0.0
 10
355.8701386924143
 20
135.405287425441
 30
0.0
 10
355.8645250875607
 20
135.4213757609952
 30
0.0
 10
355.8574442535798
 20
135.4377144419831
 30
0.0
 10
355.8508591503127
 20
135.4504878676508
 30
0.0
 10
355.8448815161844
 20
135.4606247160969
 30
0.0
 10
355.8354250397713
 20
135.4754052390829
 30
0.0
 10
355.8195966407438
 20
135.4958119008816
 30
0.0
 10
355.7947214722808
 20
135.519665131299
 30
0.0
 10
355.7670467550507
 20
135.5397578013913
 30
0.0
 10
355.7468078090901
 20
135.5493879583357
 30
0.0
 10
355.7366719577221
 20
135.5542108300222
 30
0.0
  0
LINE
  5
275
330
1F
100
AcDbEntity
  8
0
  6
Continuous
 62
     7
370
    15
100
AcDbLine
 10
355.8809072277
 20
130.6565453196
 30
0.0
 11
355.8809072277
 21
135.3324794109
 31
0.0
  0
SPLINE
  5
276
330
1F
100
AcDbEntity
  8
0
  6
Continuous
 62
     7
370
    15
100
AcDbSpline
210
0.0
220
0.0
230
1.0
 70
     8
 71
     3
 72
    31
 73
    27
 74
     0
 42
0.00000001
 43
0.00000001
 12
1.0
 22
0.0
 32
0.0
 13
1.0
 23
0.0
 33
0.0
 40
0.0
 40
0.0
 40
0.0
 40
0.0
 40
0.0622605175877419
 40
0.1250256861668159
 40
0.2496664998510807
 40
0.3122826578492512
 40
0.3746963376509843
 40
0.4370852886263584
 40
0.4996807631570048
 40
0.6242106665140292
 40
0.6868122189129814
 40
0.7491467769178176
 40
0.8116417391221474
 40
0.842988988605217
 40
0.858654346462756
 40
0.8743015050856549
 40
0.8906230721467832
 40
0.9003991221607691
 40
0.9150765221685914
 40
0.9274204469390942
 40
0.9459534808127653
 40
0.9583146550766732
 40
0.976852519215801
 40
0.9814851763846885
 40
0.9861165283708578
 40
1.0
 40
1.0
 40
1.0
 40
1.0
 10
355.5576031073014
 20
130.4348143491536
 30
0.0
 10
355.5663715365554
 20
130.4314593992053
 30
0.0
 10
355.5839794673366
 20
130.4247223058499
 30
0.0
 10
355.6205744075673
 20
130.4168642064288
 30
0.0
 10
355.6581322242951
 20
130.4154753555949
 30
0.0
 10
355.6950261099297
 20
130.4210661437118
 30
0.0
 10
355.7221407905458
 20
130.4285821379877
 30
0.0
 10
355.7482697307568
 20
130.4395180933619
 30
0.0
 10
355.7813031903347
 20
130.4582947550253
 30
0.0
 10
355.8111087749803
 20
130.483459991036
 30
0.0
 10
355.835896051037
 20
130.5139083564198
 30
0.0
 10
355.8517974968166
 20
130.5391704533551
 30
0.0
 10
355.8623766581857
 20
130.5619768455645
 30
0.0
 10
355.8683286668021
 20
130.5786416766284
 30
0.0
 10
355.8712993904522
 20
130.5883462506283
 30
0.0
 10
355.8733332464241
 20
130.5958020075095
 30
0.0
 10
355.8749101461489
 20
130.6023996682025
 30
0.0
 10
355.8762824859014
 20
130.6088885004511
 30
0.0
 10
355.8773757084221
 20
130.6147799592844
 30
0.0
 10
355.8785311486474
 20
130.6221136109097
 30
0.0
 10
355.8794150358482
 20
130.6291123266574
 30
0.0
 10
355.8801807512456
 20
130.6371444503094
 30
0.0
 10
355.8805556206079
 20
130.642936351726
 30
0.0
 10
355.8807435236452
 20
130.6474734273845
 30
0.0
 10
355.8808687118222
 20
130.6512525152436
 30
0.0
 10
355.8808913661949
 20
130.6542772889602
 30
0.0
 10
355.8809083537367
 20
130.6565454369562
 30
0.0
  0
SPLINE
  5
277
330
1F
100
AcDbEntity
  8
0
  6
Continuous
 62
     7
370
    15
100
AcDbSpline
210
0.0
220
0.0
230
1.0
 70
     8
 71
     3
 72
    19
 73
    15
 74
     0
 42
0.00000001
 43
0.00000001
 12
1.0
 22
0.0
 32
0.0
 13
1.0
 23
0.0
 33
0.0
 40
0.0
 40
0.0
 40
0.0
 40
0.0
 40
0.0492621498114899
 40
0.0987927379791455
 40
0.1485918681413002
 40
0.1986596422683401
 40
0.2489961606976873
 40
0.3729881869653078
 40
0.4988219601913657
 40
0.6230194502310525
 40
0.7492384450358613
 40
0.8318316631453521
 40
0.9154187561310415
 40
1.0
 40
1.0
 40
1.0
 40
1.0
 10
338.8768294937852
 20
137.0575848186004
 30
0.0
 10
339.1591931240079
 20
136.9526162675242
 30
0.0
 10
339.7254590348986
 20
136.7421071727686
 30
0.0
 10
340.5742327755777
 20
136.4238544218251
 30
0.0
 10
341.4253754429121
 20
136.1026956412623
 30
0.0
 10
342.2785953214678
 20
135.778511450901
 30
0.0
 10
343.5494933231886
 20
135.2923362556305
 30
0.0
 10
345.2405788336218
 20
134.6377123173606
 30
0.0
 10
347.331083000789
 20
133.8147196834297
 30
0.0
 10
349.4164703545507
 20
132.9797987562524
 30
0.0
 10
351.2461144225267
 20
132.2349265094818
 30
0.0
 10
352.8401139962249
 20
131.5767156237224
 30
0.0
 10
354.199187805893
 20
131.0096956945872
 30
0.0
 10
355.1030169688999
 20
130.6271951995377
 30
0.0
 10
355.5576031073014
 20
130.4348143491536
 30
0.0
  0
SPLINE
  5
278
330
1F
100
AcDbEntity
  8
0
  6
Continuous
 62
     7
370
    15
100
AcDbSpline
210
0.0
220
0.0
230
1.0
 70
     8
 71
     3
 72
    22
 73
    18
 74
     0
 42
0.00000001
 43
0.00000001
 12
1.0
 22
0.0
 32
0.0
 13
1.0
 23
0.0
 33
0.0
 40
0.0
 40
0.0
 40
0.0
 40
0.0
 40
0.0155537540913564
 40
0.0311321658520076
 40
0.0623486090387414
 40
0.1249163685301397
 40
0.1963995530355609
 40
0.2498045656175732
 40
0.3211568450850169
 40
0.3748348858106814
 40
0.4106293173392824
 40
0.4374492192071437
 40
0.4998330455216816
 40
0.6248236846520463
 40
0.749795049449021
 40
0.8748900328650335
 40
1.0
 40
1.0
 40
1.0
 40
1.0
 10
338.7113170231228
 20
137.2793159064032
 30
0.0
 10
338.7113270734823
 20
137.2777683364014
 30
0.0
 10
338.7113471901343
 20
137.274670743005
 30
0.0
 10
338.7115611796088
 20
137.2684705074085
 30
0.0
 10
338.7122771149671
 20
137.2576114847563
 30
0.0
 10
338.7144274577307
 20
137.241296695502
 30
0.0
 10
338.718519555927
 20
137.2230990907486
 30
0.0
 10
338.724391690077
 20
137.2045257895143
 30
0.0
 10
338.7311520013632
 20
137.1881741785982
 30
0.0
 10
338.7383920959275
 20
137.1740205300736
 30
0.0
 10
338.7441856569558
 20
137.1641188244812
 30
0.0
 10
338.750815570535
 20
137.1537421660227
 30
0.0
 10
338.7631448497505
 20
137.1366452916029
 30
0.0
 10
338.7838632087744
 20
137.1139627418107
 30
0.0
 10
338.8122195407155
 20
137.0907538178029
 30
0.0
 10
338.8432811524803
 20
137.0714601918127
 30
0.0
 10
338.8656462668991
 20
137.0622101276531
 30
0.0
 10
338.8768294937846
 20
137.0575848185996
 30
0.0
  0
LINE
  5
279
330
1F
100
AcDbEntity
  8
0
  6
Continuous
 62
     7
370
    15
100
AcDbLine
 10
338.7113161883
 20
137.2793161208
 30
0.0
 11
338.7113161883
 21
141.955250212
 31
0.0
  0
SPLINE
  5
27A
330
1F
100
AcDbEntity
  8
0
  6
Continuous
 62
     7
370
    15
100
AcDbSpline
210
0.0
220
0.0
230
1.0
 70
     8
 71
     3
 72
    36
 73
    32
 74
     0
 42
0.00000001
 43
0.00000001
 12
1.0
 22
0.0
 32
0.0
 13
1.0
 23
0.0
 33
0.0
 40
0.0
 40
0.0
 40
0.0
 40
0.0
 40
0.061941097223823
 40
0.124691905088491
 40
0.2492197764296796
 40
0.3117496084190852
 40
0.3744319775765929
 40
0.4990956233631477
 40
0.5617279287659287
 40
0.6242222258811109
 40
0.748881439747338
 40
0.7989617019955257
 40
0.8739442203773676
 40
0.8818155018683893
 40
0.8896904226991884
 40
0.8959920068173481
 40
0.905445186791904
 40
0.9180470192677518
 40
0.9256049140826491
 40
0.9312707922426481
 40
0.9369339088148073
 40
0.9447938064050704
 40
0.952646201187222
 40
0.9604899085096275
 40
0.9683238115343658
 40
0.9761987000187408
 40
0.980165494786896
 40
0.9841325842821864
 40
0.9904800219314944
 40
0.9952403224496034
 40
1.0
 40
1.0
 40
1.0
 40
1.0
 10
339.0817330844801
 20
142.176981299469
 30
0.0
 10
339.0719668512374
 20
142.1802584507004
 30
0.0
 10
339.0523067179311
 20
142.1868555929634
 30
0.0
 10
339.0116347443023
 20
142.1946248752181
 30
0.0
 10
338.9699955172298
 20
142.1963939956117
 30
0.0
 10
338.9288374396941
 20
142.1914706306297
 30
0.0
 10
338.8883481968732
 20
142.1823253366484
 30
0.0
 10
338.8493923422559
 20
142.1666581650471
 30
0.0
 10
338.8137988682748
 20
142.1446512203136
 30
0.0
 10
338.7808412720796
 20
142.1186263282057
 30
0.0
 10
338.7542634851562
 20
142.087898145874
 30
0.0
 10
338.7328553404593
 20
142.0512012949158
 30
0.0
 10
338.7242450211407
 20
142.0300539157189
 30
0.0
 10
338.719826204994
 20
142.0151859915419
 30
0.0
 10
338.7188172030248
 20
142.0115524737342
 30
0.0
 10
338.7177995199502
 20
142.0076401819339
 30
0.0
 10
338.7166633955382
 20
142.0029221671135
 30
0.0
 10
338.7156026334709
 20
141.9979641021657
 30
0.0
 10
338.7147792059005
 20
141.9936187289651
 30
0.0
 10
338.7142262245814
 20
141.9904313522403
 30
0.0
 10
338.7137075521061
 20
141.9871853216501
 30
0.0
 10
338.713187590738
 20
141.9835599035185
 30
0.0
 10
338.7126894471876
 20
141.9795539277909
 30
0.0
 10
338.7122674703958
 20
141.9755430751605
 30
0.0
 10
338.7119215158841
 20
141.9715205686334
 30
0.0
 10
338.7116976716839
 20
141.968154853825
 30
0.0
 10
338.7115561561685
 20
141.9654483209313
 30
0.0
 10
338.7114514126903
 20
141.9630021093626
 30
0.0
 10
338.7113733657623
 20
141.9604186517759
 30
0.0
 10
338.7113251047489
 20
141.9576985108908
 30
0.0
 10
338.7113197168807
 20
141.9560662758045
 30
0.0
 10
338.7113170231228
 20
141.9552502116663
 30
0.0
  0
SPLINE
  5
27B
330
1F
100
AcDbEntity
  8
0
  6
Continuous
 62
     7
370
    15
100
AcDbSpline
210
0.0
220
0.0
230
1.0
 70
     8
 71
     3
 72
    13
 73
     9
 74
     0
 42
0.00000001
 43
0.00000001
 12
1.0
 22
0.0
 32
0.0
 13
1.0
 23
0.0
 33
0.0
 40
0.0
 40
0.0
 40
0.0
 40
0.0
 40
0.1691437100151299
 40
0.3372960926749627
 40
0.5044575253782313
 40
0.6706283922772156
 40
0.835809084437108
 40
0.9999999999999999
 40
0.9999999999999999
 40
0.9999999999999999
 40
0.9999999999999999
 10
344.5967359693195
 20
140.0815961811014
 30
0.0
 10
344.2884948481016
 20
140.2010570651931
 30
0.0
 10
343.6738191632699
 20
140.4392786900353
 30
0.0
 10
342.750581628535
 20
140.7937397813569
 30
0.0
 10
341.8300355007368
 20
141.1447719914405
 30
0.0
 10
340.91193990592
 20
141.492209711395
 30
0.0
 10
339.9967221409615
 20
141.8362252331754
 30
0.0
 10
339.386117805414
 20
142.0636237249597
 30
0.0
 10
339.0817330844802
 20
142.176981299469
 30
0.0
  0
SPLINE
  5
27C
330
1F
100
AcDbEntity
  8
0
  6
Continuous
 62
     7
370
    15
100
AcDbSpline
210
0.0
220
0.0
230
1.0
 70
     8
 71
     3
 72
    71
 73
    67
 74
     0
 42
0.00000001
 43
0.00000001
 12
1.0
 22
0.0
 32
0.0
 13
1.0
 23
0.0
 33
0.0
 40
0.0
 40
0.0
 40
0.0
 40
0.0
 40
0.0077878083647567
 40
0.0155857146874222
 40
0.0194881951641744
 40
0.0233928330561091
 40
0.031207981926128
 40
0.0437261474201823
 40
0.0512439552668488
 40
0.0568848912920421
 40
0.0625275175392661
 40
0.0664467762878643
 40
0.0703664771938562
 40
0.0742864648830152
 40
0.0782065827523359
 40
0.0821266731142226
 40
0.0860465773399224
 40
0.0899661360029129
 40
0.0938851890215063
 40
0.0958444804249515
 40
0.0978035851612262
 40
0.0997624830998323
 40
0.1017211540961076
 40
0.1036795779955626
 40
0.1056377346385087
 40
0.1075956038643453
 40
0.1095531655161257
 40
0.1115103994450315
 40
0.1134672855148216
 40
0.1154238036062283
 40
0.1173799336215197
 40
0.1193356554890135
 40
0.1212909491675126
 40
0.1232457946507826
 40
0.1252001719721744
 40
0.1271540612090267
 40
0.1291074424872066
 40
0.1310602959857848
 40
0.1330126019413064
 40
0.1349643406528303
 40
0.1369154924859179
 40
0.1388660378776352
 40
0.140815957341105
 40
0.142765231469899
 40
0.1447138409429834
 40
0.1466617665290433
 40
0.1486089890915454
 40
0.1505554895930168
 40
0.1515284637521177
 40
0.1525022548006047
 40
0.153476611065866
 40
0.154451107767702
 40
0.1554257436376714
 40
0.1564005173912457
 40
0.1642034140779713
 40
0.1720143470428353
 40
0.1876566445478856
 40
0.2503275133611673
 40
0.3751664739097914
 40
0.5000455619254479
 40
0.5626695282746615
 40
0.6252276929678643
 40
0.7500110897615562
 40
0.8747863411608648
 40
0.9375679129533557
 40
1.0
 40
1.0
 40
1.0
 40
1.0
 10
344.9499437751122
 20
140.2937616277611
 30
0.0
 10
344.9498827945683
 20
140.2924781805815
 30
0.0
 10
344.9497607544109
 20
140.2899096220577
 30
0.0
 10
344.9495364929155
 20
140.2867023796175
 30
0.0
 10
344.9493268020815
 20
140.2841369672529
 30
0.0
 10
344.949094134417
 20
140.2815708635409
 30
0.0
 10
344.9486820029937
 20
140.2775949273511
 30
0.0
 10
344.9481068864315
 20
140.2730387414636
 30
0.0
 10
344.9474859304468
 20
140.2688525316568
 30
0.0
 10
344.946987933745
 20
140.2657947894721
 30
0.0
 10
344.9465553937322
 20
140.2633278879251
 30
0.0
 10
344.9461495100619
 20
140.2611447904882
 30
0.0
 10
344.9457795872532
 20
140.2592439949258
 30
0.0
 10
344.945393787761
 20
140.2573465576153
 30
0.0
 10
344.944992175872
 20
140.2554526954102
 30
0.0
 10
344.9445748160811
 20
140.2535626263318
 30
0.0
 10
344.94414177275
 20
140.2516765677911
 30
0.0
 10
344.9436931105483
 20
140.2497947384728
 30
0.0
 10
344.9433062466495
 20
140.2482301856584
 30
0.0
 10
344.9429890056056
 20
140.246980860705
 30
0.0
 10
344.9427472194467
 20
140.246045096623
 30
0.0
 10
344.9425015767695
 20
140.2451105531669
 30
0.0
 10
344.9422520855671
 20
140.2441772573215
 30
0.0
 10
344.9419987539092
 20
140.2432452363694
 30
0.0
 10
344.9417415898447
 20
140.2423145175138
 30
0.0
 10
344.9414806014281
 20
140.241385127979
 30
0.0
 10
344.9412157967119
 20
140.2404570949835
 30
0.0
 10
344.9409471837494
 20
140.2395304457477
 30
0.0
 10
344.9406747705932
 20
140.2386052074912
 30
0.0
 10
344.9403985652961
 20
140.2376814074339
 30
0.0
 10
344.9401185759107
 20
140.2367590727957
 30
0.0
 10
344.9398348104893
 20
140.2358382307964
 30
0.0
 10
344.9395472770844
 20
140.234918908656
 30
0.0
 10
344.9392559837479
 20
140.2340011335943
 30
0.0
 10
344.9389609385321
 20
140.2330849328312
 30
0.0
 10
344.938662149489
 20
140.2321703335865
 30
0.0
 10
344.9383596246703
 20
140.2312573630801
 30
0.0
 10
344.9380533721278
 20
140.2303460485319
 30
0.0
 10
344.9377433999131
 20
140.2294364171619
 30
0.0
 10
344.9374297160776
 20
140.2285284961898
 30
0.0
 10
344.9371123286728
 20
140.2276223128356
 30
0.0
 10
344.9367912457497
 20
140.2267178943191
 30
0.0
 10
344.9364664753599
 20
140.2258152678608
 30
0.0
 10
344.9361380255536
 20
140.2249144606782
 30
0.0
 10
344.9358059043838
 20
140.2240155000001
 30
0.0
 10
344.9354701198944
 20
140.2231184130132
 30
0.0
 10
344.9351306801608
 20
140.2222232270618
 30
0.0
 10
344.9348447471831
 20
140.2214787746283
 30
0.0
 10
344.9346141204301
 20
140.2208840355652
 30
0.0
 10
344.9344401376928
 20
140.2204382088693
 30
0.0
 10
344.9342651311581
 20
140.2199925547553
 30
0.0
 10
344.9340891408024
 20
140.2195471793795
 30
0.0
 10
344.9339121943553
 20
140.219102149298
 30
0.0
 10
344.9333189153197
 20
140.2176191813013
 30
0.0
 10
344.9322860468847
 20
140.215107147972
 30
0.0
 10
344.9302621152227
 20
140.2104103480514
 30
0.0
 10
344.9243677746716
 20
140.1976240636757
 30
0.0
 10
344.9080715888207
 20
140.1687142488644
 30
0.0
 10
344.8749740554053
 20
140.1299432591304
 30
0.0
 10
344.8341343761865
 20
140.1006526803284
 30
0.0
 10
344.7984426377987
 20
140.0834197840366
 30
0.0
 10
344.7612228638681
 20
140.0702888352885
 30
0.0
 10
344.7125559609307
 20
140.0617907351608
 30
0.0
 10
344.663284714513
 20
140.063975252887
 30
0.0
 10
344.62468175441
 20
140.0717718158977
 30
0.0
 10
344.6060338816122
 20
140.0783274918984
 30
0.0
 10
344.5967359693194
 20
140.0815961811014
 30
0.0
  0
SPLINE
  5
27D
330
1F
100
AcDbEntity
  8
0
  6
Continuous
 62
     7
370
    15
100
AcDbSpline
210
0.0
220
0.0
230
1.0
 70
     8
 71
     3
 72
    29
 73
    25
 74
     0
 42
0.00000001
 43
0.00000001
 12
1.0
 22
0.0
 32
0.0
 13
1.0
 23
0.0
 33
0.0
 40
0.0
 40
0.0
 40
0.0
 40
0.0
 40
0.0210094922431436
 40
0.0419705704938927
 40
0.0628991447364422
 40
0.0942758596011981
 40
0.1255454382403195
 40
0.1879482572275223
 40
0.2501660999415865
 40
0.3122762227441411
 40
0.3743973993587483
 40
0.4366981958893801
 40
0.4994040346158566
 40
0.5621527573364602
 40
0.6245302193524684
 40
0.6867727336646674
 40
0.749187647381311
 40
0.7700631037239647
 40
0.8117650762688371
 40
0.8742797313237199
 40
0.9056385815376157
 40
0.9369593346645544
 40
0.9684758782523816
 40
1.0
 40
1.0
 40
1.0
 40
1.0
 10
338.9893332091028
 20
145.7805134324454
 30
0.0
 10
339.0523055596108
 20
145.7821099207788
 30
0.0
 10
339.1781051479861
 20
145.7852992185191
 30
0.0
 10
339.3665911648393
 20
145.78328101644
 30
0.0
 10
339.5858904537235
 20
145.7750927803232
 30
0.0
 10
339.835482888482
 20
145.7566407633862
 30
0.0
 10
340.20718325271
 20
145.7128605914846
 30
0.0
 10
340.6662854305362
 20
145.6277836824216
 30
0.0
 10
341.2048021375555
 20
145.4767231606142
 30
0.0
 10
341.7267253297168
 20
145.2765539679114
 30
0.0
 10
342.2283006721275
 20
145.0270563582175
 30
0.0
 10
342.7057645453582
 20
144.7279403707248
 30
0.0
 10
343.153935901052
 20
144.380342406854
 30
0.0
 10
343.5659446645134
 20
143.9868972260186
 30
0.0
 10
343.9343761106638
 20
143.5507436605602
 30
0.0
 10
344.2540218267247
 20
143.075616927799
 30
0.0
 10
344.4611003612089
 20
142.6784614784104
 30
0.0
 10
344.6126633556395
 20
142.3246458129119
 30
0.0
 10
344.744066239678
 20
141.9613512532528
 30
0.0
 10
344.8485207373026
 20
141.5539166924307
 30
0.0
 10
344.9120212931633
 20
141.1708693811229
 30
0.0
 10
344.9426008388089
 20
140.8800932866794
 30
0.0
 10
344.9573254343412
 20
140.5873017914028
 30
0.0
 10
344.9524045253705
 20
140.3916161901398
 30
0.0
 10
344.9499437751122
 20
140.2937616277611
 30
0.0
  0
SPLINE
  5
27E
330
1F
100
AcDbEntity
  8
0
  6
Continuous
 62
     7
370
    15
100
AcDbSpline
210
0.0
220
0.0
230
1.0
 70
     8
 71
     3
 72
    26
 73
    22
 74
     0
 42
0.00000001
 43
0.00000001
 12
1.0
 22
0.0
 32
0.0
 13
1.0
 23
0.0
 33
0.0
 40
0.0
 40
0.0
 40
0.0
 40
0.0
 40
0.0089038514824168
 40
0.0133602235329036
 40
0.017819350457098
 40
0.0356796727601959
 40
0.0499920030304754
 40
0.07148703605608
 40
0.0878766712115793
 40
0.112458652978257
 40
0.124741901780127
 40
0.1431448460331464
 40
0.1699112262624021
 40
0.1966660640113072
 40
0.2503652287917343
 40
0.3753862721916189
 40
0.5006145010345967
 40
0.6255766965548236
 40
0.75059046420663
 40
0.8753162185487866
 40
1.0
 40
1.0
 40
1.0
 40
1.0
 10
338.7113170231228
 20
146.0203456006062
 30
0.0
 10
338.7113231222721
 20
146.0191087897263
 30
0.0
 10
338.7113322740416
 20
146.0172529557813
 30
0.0
 10
338.7113889750942
 20
146.0147783804281
 30
0.0
 10
338.7115040241304
 20
146.0110609857251
 30
0.0
 10
338.7117744936958
 20
146.0059789831696
 30
0.0
 10
338.712401889813
 20
145.9985517969409
 30
0.0
 10
338.7132599949248
 20
145.9913534061413
 30
0.0
 10
338.7145948555215
 20
145.9827859056272
 30
0.0
 10
338.7160140690682
 20
145.9755323174408
 30
0.0
 10
338.7177457724711
 20
145.968066705744
 30
0.0
 10
338.7197693044874
 20
145.9603639779909
 30
0.0
 10
338.722711929848
 20
145.9508433150123
 30
0.0
 10
338.7278222035172
 20
145.9369127813821
 30
0.0
 10
338.739577609525
 20
145.9110462809145
 30
0.0
 10
338.7629162505383
 20
145.8759450591741
 30
0.0
 10
338.7998636898949
 20
145.840015177586
 30
0.0
 10
338.84276804817
 20
145.8121156437695
 30
0.0
 10
338.8896653102947
 20
145.7927399301246
 30
0.0
 10
338.9390359452661
 20
145.7813068418735
 30
0.0
 10
338.9725693355913
 20
145.7807778725815
 30
0.0
 10
338.9893332091028
 20
145.7805134324454
 30
0.0
  0
LINE
  5
27F
330
1F
100
AcDbEntity
  8
0
  6
Continuous
 62
     7
370
    15
100
AcDbLine
 10
343.7077947459
 20
150.8242052878
 30
0.0
 11
338.9793228856
 21
150.8242052878
 31
0.0
  0
SPLINE
  5
280
330
1F
100
AcDbEntity
  8
0
  6
Continuous
 62
     7
370
    15
100
AcDbSpline
210
0.0
220
0.0
230
1.0
 70
     8
 71
     3
 72
    27
 73
    23
 74
     0
 42
0.00000001
 43
0.00000001
 12
1.0
 22
0.0
 32
0.0
 13
1.0
 23
0.0
 33
0.0
 40
0.0
 40
0.0
 40
0.0
 40
0.0
 40
0.0088960933999593
 40
0.0133483258742174
 40
0.0178031610105627
 40
0.0356452040504048
 40
0.0499419835452497
 40
0.0714137509452298
 40
0.0877868093396845
 40
0.1123486572687549
 40
0.1430195958387403
 40
0.1644454991777098
 40
0.1965011752573407
 40
0.2232767655272231
 40
0.2501116300862355
 40
0.3217207080659101
 40
0.3752634078249703
 40
0.5003021719994859
 40
0.6251297497727369
 40
0.7502051450207239
 40
0.8750379003470239
 40
1.0
 40
1.0
 40
1.0
 40
1.0
 10
343.9653187867917
 20
150.5842057329089
 30
0.0
 10
343.9653133963176
 20
150.585394022955
 30
0.0
 10
343.9653053080702
 20
150.5871770171363
 30
0.0
 10
343.9652551680452
 20
150.5895545063789
 30
0.0
 10
343.9651534141928
 20
150.5931258543962
 30
0.0
 10
343.9649141139612
 20
150.5980084420714
 30
0.0
 10
343.964358536153
 20
150.6051462136738
 30
0.0
 10
343.963598071459
 20
150.6120670871935
 30
0.0
 10
343.9624139406649
 20
150.6203107819736
 30
0.0
 10
343.9607184493726
 20
150.6297115411616
 30
0.0
 10
343.9584221140589
 20
150.6396692713656
 30
0.0
 10
343.9554088512264
 20
150.650458009863
 30
0.0
 10
343.9520494900163
 20
150.6605888798347
 30
0.0
 10
343.947910577634
 20
150.6711796163083
 30
0.0
 10
343.9411639039525
 20
150.6863367592946
 30
0.0
 10
343.9314789139087
 20
150.7039800848818
 30
0.0
 10
343.912732598013
 20
150.7310329310211
 30
0.0
 10
343.8854237757696
 20
150.7601084179127
 30
0.0
 10
343.8458367118178
 20
150.788601228961
 30
0.0
 10
343.8020542193728
 20
150.8090019150378
 30
0.0
 10
343.7555680538955
 20
150.8218040697736
 30
0.0
 10
343.7237252322009
 20
150.8234049022256
 30
0.0
 10
343.707795577212
 20
150.8242057329088
 30
0.0
  0
LINE
  5
281
330
1F
100
AcDbEntity
  8
0
  6
Continuous
 62
     7
370
    15
100
AcDbLine
 10
343.9653203389
 20
149.2061850513
 30
0.0
 11
343.9653203389
 21
150.5842053229
 31
0.0
  0
SPLINE
  5
282
330
1F
100
AcDbEntity
  8
0
  6
Continuous
 62
     7
370
    15
100
AcDbSpline
210
0.0
220
0.0
230
1.0
 70
     8
 71
     3
 72
    19
 73
    15
 74
     0
 42
0.00000001
 43
0.00000001
 12
1.0
 22
0.0
 32
0.0
 13
1.0
 23
0.0
 33
0.0
 40
0.0
 40
0.0
 40
0.0
 40
0.0
 40
0.1250006416628563
 40
0.2502623960966813
 40
0.499421620974718
 40
0.5244775300516055
 40
0.5620243107174561
 40
0.6244263663797656
 40
0.6742016968146897
 40
0.7492038498809189
 40
0.8208546615626593
 40
0.8745610378735048
 40
0.9245456457139801
 40
1.0
 40
1.0
 40
1.0
 40
1.0
 10
344.1024058983892
 20
148.993941372014
 30
0.0
 10
344.092846239059
 20
148.9990968949845
 30
0.0
 10
344.0737069513081
 20
149.0094187102535
 30
0.0
 10
344.0389054798825
 20
149.0359457888916
 30
0.0
 10
344.0150524909592
 20
149.0625659555929
 30
0.0
 10
343.999995016001
 20
149.0858062744926
 30
0.0
 10
343.9942708528828
 20
149.0953449200858
 30
0.0
 10
343.9880496403929
 20
149.1071741214698
 30
0.0
 10
343.9812489276349
 20
149.1224757903999
 30
0.0
 10
343.9753135083747
 20
149.1390810599624
 30
0.0
 10
343.9707070714934
 20
149.1565116128388
 30
0.0
 10
343.9678250117968
 20
149.1720361126202
 30
0.0
 10
343.9657805660673
 20
149.1880636726502
 30
0.0
 10
343.9654922283859
 20
149.1993785874797
 30
0.0
 10
343.9653187867917
 20
149.2061847629916
 30
0.0
  0
SPLINE
  5
283
330
1F
100
AcDbEntity
  8
0
  6
Continuous
 62
     7
370
    15
100
AcDbSpline
210
0.0
220
0.0
230
1.0
 70
     8
 71
     3
 72
    20
 73
    16
 74
     0
 42
0.00000001
 43
0.00000001
 12
1.0
 22
0.0
 32
0.0
 13
1.0
 23
0.0
 33
0.0
 40
0.0
 40
0.0
 40
0.0
 40
0.0
 40
0.0418126887407174
 40
0.0836810764860845
 40
0.125649151687862
 40
0.1879450543345465
 40
0.2505154491165214
 40
0.3749880897618789
 40
0.4994116289502549
 40
0.6240041223416165
 40
0.748908124456947
 40
0.8114610061062881
 40
0.8742349045046561
 40
0.9370343431632534
 40
1.0
 40
1.0
 40
1.0
 40
1.0
 10
348.7300361081321
 20
144.1402242045777
 30
0.0
 10
348.6914706427041
 20
144.2293084111581
 30
0.0
 10
348.6142883384944
 20
144.4075954940762
 30
0.0
 10
348.4880666596626
 20
144.6700293326675
 30
0.0
 10
348.3326853261453
 20
144.9703593793695
 30
0.0
 10
348.1422114895615
 20
145.3053969825361
 30
0.0
 10
347.8354954846425
 20
145.7912116587716
 30
0.0
 10
347.4123714184847
 20
146.3688133737423
 30
0.0
 10
346.8472611269013
 20
147.009720274251
 30
0.0
 10
346.2294239441479
 20
147.5962483799336
 30
0.0
 10
345.6749465203811
 20
148.0372716864595
 30
0.0
 10
345.2099776314925
 20
148.3605975138765
 30
0.0
 10
344.8505680271171
 20
148.5878772887058
 30
0.0
 10
344.4819120729688
 20
148.8010344806646
 30
0.0
 10
344.2290193689589
 20
148.9295824428408
 30
0.0
 10
344.1024058983891
 20
148.993941372014
 30
0.0
  0
SPLINE
  5
284
330
1F
100
AcDbEntity
  8
0
  6
Continuous
 62
     7
370
    15
100
AcDbSpline
210
0.0
220
0.0
230
1.0
 70
     8
 71
     3
 72
    17
 73
    13
 74
     0
 42
0.00000001
 43
0.00000001
 12
1.0
 22
0.0
 32
0.0
 13
1.0
 23
0.0
 33
0.0
 40
0.0
 40
0.0
 40
0.0
 40
0.0
 40
0.0621723318235631
 40
0.1251049378623834
 40
0.2499151775045554
 40
0.3750727763728038
 40
0.4998271154341076
 40
0.6247872804329342
 40
0.7495635288832965
 40
0.8743572754732749
 40
0.9373792576051546
 40
1.0
 40
1.0
 40
1.0
 40
1.0
 10
349.0916801303276
 20
144.0287107193744
 30
0.0
 10
349.0839886600353
 20
144.0242798329623
 30
0.0
 10
349.0685116643241
 20
144.0153638770541
 30
0.0
 10
349.035654947341
 20
144.0019384934414
 30
0.0
 10
348.9925201937029
 20
143.9914744884953
 30
0.0
 10
348.9395491732996
 20
143.9900458845434
 30
0.0
 10
348.8872959363661
 20
143.9995403859884
 30
0.0
 10
348.8377965990831
 20
144.0197286028947
 30
0.0
 10
348.7932154592595
 20
144.0504029876962
 30
0.0
 10
348.7620647211473
 20
144.0840283913256
 30
0.0
 10
348.7417877522967
 20
144.1148842242239
 30
0.0
 10
348.7339449742227
 20
144.1317955465487
 30
0.0
 10
348.7300361081321
 20
144.1402242045777
 30
0.0
  0
SPLINE
  5
285
330
1F
100
AcDbEntity
  8
0
  6
Continuous
 62
     7
370
    15
100
AcDbSpline
210
0.0
220
0.0
230
1.0
 70
     8
 71
     3
 72
    13
 73
     9
 74
     0
 42
0.00000001
 43
0.00000001
 12
1.0
 22
0.0
 32
0.0
 13
1.0
 23
0.0
 33
0.0
 40
0.0
 40
0.0
 40
0.0
 40
0.0
 40
0.1266167745159731
 40
0.252297479005167
 40
0.3770423511981333
 40
0.5008516342179488
 40
0.7521519037574755
 40
1.0
 40
1.0
 40
1.0
 40
1.0
 10
355.5213960171644
 20
148.1171574459259
 30
0.0
 10
355.2542130799854
 20
147.9430685485631
 30
0.0
 10
354.7218224726496
 20
147.5961777823488
 30
0.0
 10
353.921806924192
 20
147.0792772148591
 30
0.0
 10
353.1246484294686
 20
146.5673332709399
 30
0.0
 10
352.0552898763794
 20
145.8852497215213
 30
0.0
 10
350.7150929613276
 20
145.0379741196958
 30
0.0
 10
349.6303169245215
 20
144.363577114456
 30
0.0
 10
349.0916801303276
 20
144.0287107193744
 30
0.0
  0
SPLINE
  5
286
330
1F
100
AcDbEntity
  8
0
  6
Continuous
 62
     7
370
    15
100
AcDbSpline
210
0.0
220
0.0
230
1.0
 70
     8
 71
     3
 72
    40
 73
    36
 74
     0
 42
0.00000001
 43
0.00000001
 12
1.0
 22
0.0
 32
0.0
 13
1.0
 23
0.0
 33
0.0
 40
0.0
 40
0.0
 40
0.0
 40
0.0
 40
0.0077881213502354
 40
0.011686244239343
 40
0.0155868609333497
 40
0.0218326414430786
 40
0.0265205842676588
 40
0.0312113140385898
 40
0.0351221991512614
 40
0.0390346790140474
 40
0.0429485952022597
 40
0.0468637873047982
 40
0.0546972662155683
 40
0.0586153063075978
 40
0.0625339642333031
 40
0.0750754590063253
 40
0.0826004286329105
 40
0.0882432361186456
 40
0.0938846607032567
 40
0.097801247923597
 40
0.101716751644736
 40
0.1095437476185504
 40
0.1251766544068135
 40
0.1875809507659406
 40
0.2502289975089567
 40
0.3749775706639354
 40
0.499715975183956
 40
0.5712429669418503
 40
0.6246904751396702
 40
0.6872594477173333
 40
0.749749056783901
 40
0.8120849858315782
 40
0.8746463011136685
 40
0.9374030406596023
 40
1.0
 40
1.0
 40
1.0
 40
1.0
 10
355.8809083537365
 20
147.9147434989308
 30
0.0
 10
355.8809017114963
 20
147.9161300794095
 30
0.0
 10
355.8808917446715
 20
147.9182106733553
 30
0.0
 10
355.880829940308
 20
147.9209849256649
 30
0.0
 10
355.8807547813612
 20
147.9234839921532
 30
0.0
 10
355.8806454353864
 20
147.9261224049327
 30
0.0
 10
355.8804973601727
 20
147.928899391784
 30
0.0
 10
355.8803473390851
 20
147.9312597033284
 30
0.0
 10
355.8801854249796
 20
147.9334805701821
 30
0.0
 10
355.88001600459
 20
147.9355619445413
 30
0.0
 10
355.8798290186479
 20
147.9376422772033
 30
0.0
 10
355.8795563159214
 20
147.9404146651524
 30
0.0
 10
355.8792487140596
 20
147.9431835430138
 30
0.0
 10
355.8789064296159
 20
147.9459479784231
 30
0.0
 10
355.87843136945
 20
147.9495383346977
 30
0.0
 10
355.8777983675714
 20
147.9537523147736
 30
0.0
 10
355.8770241577768
 20
147.9582500178462
 30
0.0
 10
355.8764119304565
 20
147.9615306370399
 30
0.0
 10
355.875885503686
 20
147.9641745415288
 30
0.0
 10
355.8753951773469
 20
147.9665121283245
 30
0.0
 10
355.8748027714249
 20
147.9692230706318
 30
0.0
 10
355.8737078459302
 20
147.9739465864744
 30
0.0
 10
355.8699071125661
 20
147.9886546010789
 30
0.0
 10
355.8616141097496
 20
148.0120999437586
 30
0.0
 10
355.8416977911778
 20
148.0509660804415
 30
0.0
 10
355.8077161120064
 20
148.0931769881703
 30
0.0
 10
355.7636506441152
 20
148.1248544666686
 30
0.0
 10
355.7259327464255
 20
148.1414586995476
 30
0.0
 10
355.6964453907165
 20
148.1499561849511
 30
0.0
 10
355.6676958585906
 20
148.1544690671819
 30
0.0
 10
355.6372154119786
 20
148.1552119927205
 30
0.0
 10
355.6068689592718
 20
148.1518362635814
 30
0.0
 10
355.577113816845
 20
148.1443811222017
 30
0.0
 10
355.5482160093065
 20
148.1332281065533
 30
0.0
 10
355.530328414494
 20
148.1225097788167
 30
0.0
 10
355.5213960171644
 20
148.1171574459259
 30
0.0
  0
LINE
  5
287
330
1F
100
AcDbEntity
  8
0
  6
Continuous
 62
     7
370
    15
100
AcDbLine
 10
355.8809072277
 20
143.2388082976
 30
0.0
 11
355.8809072277
 21
147.9147442515
 31
0.0
  0
SPLINE
  5
288
330
1F
100
AcDbEntity
  8
0
  6
Continuous
 62
     7
370
    15
100
AcDbSpline
210
0.0
220
0.0
230
1.0
 70
     8
 71
     3
 72
    17
 73
    13
 74
     0
 42
0.00000001
 43
0.00000001
 12
1.0
 22
0.0
 32
0.0
 13
1.0
 23
0.0
 33
0.0
 40
0.0
 40
0.0
 40
0.0
 40
0.0
 40
0.1253292819827427
 40
0.2501900092005667
 40
0.3126685577458751
 40
0.3749528748183385
 40
0.4999899402998063
 40
0.5817742126744734
 40
0.6429595014113998
 40
0.7498151516487161
 40
0.8750742076898578
 40
1.0
 40
1.0
 40
1.0
 40
1.0
 10
355.7728143615819
 20
143.0363952466726
 30
0.0
 10
355.7806745342289
 20
143.0419502352746
 30
0.0
 10
355.7963654935622
 20
143.0530394446553
 30
0.0
 10
355.813863700326
 20
143.0700699506311
 30
0.0
 10
355.8267084602929
 20
143.0848372412954
 30
0.0
 10
355.8386597500923
 20
143.1005115715809
 30
0.0
 10
355.8500253325693
 20
143.1187210927001
 30
0.0
 10
355.8595182149038
 20
143.1380258090781
 30
0.0
 10
355.8671290934554
 20
143.1566851196558
 30
0.0
 10
355.8741594824073
 20
143.1794360867393
 30
0.0
 10
355.8797731801217
 20
143.2081140359534
 30
0.0
 10
355.8805302987099
 20
143.2285865647101
 30
0.0
 10
355.8809083537365
 20
143.2388091936677
 30
0.0
  0
SPLINE
  5
289
330
1F
100
AcDbEntity
  8
0
  6
Continuous
 62
     7
370
    15
100
AcDbSpline
210
0.0
220
0.0
230
1.0
 70
     8
 71
     3
 72
    11
 73
     7
 74
     0
 42
0.00000001
 43
0.00000001
 12
1.0
 22
0.0
 32
0.0
 13
1.0
 23
0.0
 33
0.0
 40
0.0
 40
0.0
 40
0.0
 40
0.0
 40
0.2474762470424408
 40
0.4966348299329926
 40
0.7474759991093447
 40
0.9999999999999999
 40
0.9999999999999999
 40
0.9999999999999999
 40
0.9999999999999999
 10
352.7148000462939
 20
115.5291794956261
 30
0.0
 10
352.9656325049207
 20
115.6333947269284
 30
0.0
 10
353.4690025734449
 20
115.8425336414414
 30
0.0
 10
354.2231637459486
 20
116.1583736600198
 30
0.0
 10
354.9800493891472
 20
116.4770518741065
 30
0.0
 10
355.4839029467059
 20
116.6909127246854
 30
0.0
 10
355.736671957722
 20
116.7982006357955
 30
0.0
  0
SPLINE
  5
28A
330
1F
100
AcDbEntity
  8
0
  6
Continuous
 62
     7
370
    15
100
AcDbSpline
210
0.0
220
0.0
230
1.0
 70
     8
 71
     3
 72
    22
 73
    18
 74
     0
 42
0.00000001
 43
0.00000001
 12
1.0
 22
0.0
 32
0.0
 13
1.0
 23
0.0
 33
0.0
 40
0.0
 40
0.0
 40
0.0
 40
0.0
 40
0.0155520851384165
 40
0.0311270433554302
 40
0.0623329566598027
 40
0.1248793871112215
 40
0.196375668892419
 40
0.2498399714686795
 40
0.3210551715807844
 40
0.3746722311416653
 40
0.4104563627347665
 40
0.4372890081146235
 40
0.4997700659542693
 40
0.6244830128103637
 40
0.7495507511454943
 40
0.8746105829060523
 40
1.0
 40
1.0
 40
1.0
 40
1.0
 10
352.5667439519754
 20
115.3074484078234
 30
0.0
 10
352.5667524549563
 20
115.3089560875051
 30
0.0
 10
352.5667694734239
 20
115.3119736642737
 30
0.0
 10
352.5669507250984
 20
115.3180137757746
 30
0.0
 10
352.5675579599369
 20
115.3285943151134
 30
0.0
 10
352.5693863954776
 20
115.3445096282527
 30
0.0
 10
352.5728823052108
 20
115.3623159763294
 30
0.0
 10
352.5779039454439
 20
115.3805544536821
 30
0.0
 10
352.5837143941181
 20
115.3966827777438
 30
0.0
 10
352.5899850118893
 20
115.4107078546279
 30
0.0
 10
352.5950297784294
 20
115.4205680765975
 30
0.0
 10
352.6008295155535
 20
115.4309457277324
 30
0.0
 10
352.6116338640815
 20
115.4481044072983
 30
0.0
 10
352.6300152201404
 20
115.4710879848424
 30
0.0
 10
352.6555233773227
 20
115.4948480252453
 30
0.0
 10
352.6838283472164
 20
115.5148149806007
 30
0.0
 10
352.7044670932328
 20
115.5243871250453
 30
0.0
 10
352.7148000462937
 20
115.5291794956264
 30
0.0
  0
LINE
  5
28B
330
1F
100
AcDbEntity
  8
0
  6
Continuous
 62
     7
370
    15
100
AcDbLine
 10
352.5667436919
 20
108.1558086807
 30
0.0
 11
352.5667436919
 21
115.3074487011
 31
0.0
  0
SPLINE
  5
28C
330
1F
100
AcDbEntity
  8
0
  6
Continuous
 62
     7
370
    15
100
AcDbSpline
210
0.0
220
0.0
230
1.0
 70
     8
 71
     3
 72
    20
 73
    16
 74
     0
 42
0.00000001
 43
0.00000001
 12
1.0
 22
0.0
 32
0.0
 13
1.0
 23
0.0
 33
0.0
 40
0.0
 40
0.0
 40
0.0
 40
0.0
 40
0.1248466390527492
 40
0.2499018537218946
 40
0.3744340808409843
 40
0.4994690648009617
 40
0.5618928201037214
 40
0.5930085189054161
 40
0.6241016880764633
 40
0.6954634403904659
 40
0.7491355012712554
 40
0.8308162168380469
 40
0.8919060215697294
 40
0.9536785982841942
 40
1.0
 40
1.0
 40
1.0
 40
1.0
 10
352.7148000462939
 20
107.9340776491838
 30
0.0
 10
352.7045150451697
 20
107.9388550958219
 30
0.0
 10
352.6839278602368
 20
107.9484179705613
 30
0.0
 10
352.6556821513919
 20
107.9682829809493
 30
0.0
 10
352.6301606312193
 20
107.9919980392334
 30
0.0
 10
352.6118161960342
 20
108.0149764706155
 30
0.0
 10
352.6007243193436
 20
108.0324541293264
 30
0.0
 10
352.5949487176094
 20
108.04279610509
 30
0.0
 10
352.589170657707
 20
108.0541360358564
 30
0.0
 10
352.5832218233265
 20
108.0678594050502
 30
0.0
 10
352.5766900213062
 20
108.0866209806395
 30
0.0
 10
352.5718875649462
 20
108.104983177704
 30
0.0
 10
352.5685817497754
 20
108.1245019918873
 30
0.0
 10
352.5669935315916
 20
108.1408381831568
 30
0.0
 10
352.5668188206682
 20
108.1513178822725
 30
0.0
 10
352.5667439519754
 20
108.1558087369865
 30
0.0
  0
SPLINE
  5
28D
330
1F
100
AcDbEntity
  8
0
  6
Continuous
 62
     7
370
    15
100
AcDbSpline
210
0.0
220
0.0
230
1.0
 70
     8
 71
     3
 72
    11
 73
     7
 74
     0
 42
0.00000001
 43
0.00000001
 12
1.0
 22
0.0
 32
0.0
 13
1.0
 23
0.0
 33
0.0
 40
0.0
 40
0.0
 40
0.0
 40
0.0
 40
0.2525240008907028
 40
0.5033651700670676
 40
0.7525237529576062
 40
1.0
 40
1.0
 40
1.0
 40
1.0
 10
355.736671957722
 20
106.6650565090144
 30
0.0
 10
355.4839029467059
 20
106.7723444201246
 30
0.0
 10
354.9800493891471
 20
106.9862052707036
 30
0.0
 10
354.2231637459485
 20
107.3048834847902
 30
0.0
 10
353.4690025734449
 20
107.6207235033686
 30
0.0
 10
352.9656325049207
 20
107.8298624178816
 30
0.0
 10
352.7148000462939
 20
107.9340776491838
 30
0.0
  0
SPLINE
  5
28E
330
1F
100
AcDbEntity
  8
0
  6
Continuous
 62
     7
370
    15
100
AcDbSpline
210
0.0
220
0.0
230
1.0
 70
     8
 71
     3
 72
    22
 73
    18
 74
     0
 42
0.00000001
 43
0.00000001
 12
1.0
 22
0.0
 32
0.0
 13
1.0
 23
0.0
 33
0.0
 40
0.0
 40
0.0
 40
0.0
 40
0.0
 40
0.0155522875821646
 40
0.031127136121577
 40
0.0623321824091877
 40
0.1248766438992924
 40
0.1963765436355966
 40
0.2498534631938478
 40
0.3210498101313694
 40
0.3746543597241344
 40
0.4372579802885334
 40
0.4730021030696832
 40
0.4997665102919838
 40
0.6244400923825646
 40
0.7495137647452034
 40
0.874554176131579
 40
1.0
 40
1.0
 40
1.0
 40
1.0
 10
355.8809083537365
 20
106.4433254212117
 30
0.0
 10
355.880900162905
 20
106.4448260880956
 30
0.0
 10
355.8808837693601
 20
106.4478295988088
 30
0.0
 10
355.880709132244
 20
106.453841558208
 30
0.0
 10
355.8801239086725
 20
106.4643730976459
 30
0.0
 10
355.8783608679694
 20
106.4802178558531
 30
0.0
 10
355.8749870157131
 20
106.4979548064669
 30
0.0
 10
355.8701386924143
 20
106.5161331044333
 30
0.0
 10
355.8645250875607
 20
106.5322214399875
 30
0.0
 10
355.8574442535798
 20
106.5485601209754
 30
0.0
 10
355.8508591503127
 20
106.561333546643
 30
0.0
 10
355.8448815161844
 20
106.5714703950891
 30
0.0
 10
355.8354250397713
 20
106.5862509180752
 30
0.0
 10
355.8195966407438
 20
106.6066575798739
 30
0.0
 10
355.7947214722808
 20
106.6305108102912
 30
0.0
 10
355.7670467550507
 20
106.6506034803836
 30
0.0
 10
355.7468078090901
 20
106.660233637328
 30
0.0
 10
355.7366719577221
 20
106.6650565090145
 30
0.0
  0
LINE
  5
28F
330
1F
100
AcDbEntity
  8
0
  6
Continuous
 62
     7
370
    15
100
AcDbLine
 10
355.8809072277
 20
101.7673903043
 30
0.0
 11
355.8809072277
 21
106.4433262581
 31
0.0
  0
SPLINE
  5
290
330
1F
100
AcDbEntity
  8
0
  6
Continuous
 62
     7
370
    15
100
AcDbSpline
210
0.0
220
0.0
230
1.0
 70
     8
 71
     3
 72
    31
 73
    27
 74
     0
 42
0.00000001
 43
0.00000001
 12
1.0
 22
0.0
 32
0.0
 13
1.0
 23
0.0
 33
0.0
 40
0.0
 40
0.0
 40
0.0
 40
0.0
 40
0.0622605175902843
 40
0.1250256861668586
 40
0.2496664998511164
 40
0.3122826578492913
 40
0.3746963376510049
 40
0.4370852886263821
 40
0.4996807631570533
 40
0.6242106665140736
 40
0.6868122189130124
 40
0.7491467769178191
 40
0.8116417391222023
 40
0.8429889886052596
 40
0.8586543464627416
 40
0.8743015050856483
 40
0.8906230721467745
 40
0.9003991221607639
 40
0.9150765221685868
 40
0.9274204469391525
 40
0.9459534808127615
 40
0.9583146550766714
 40
0.9768525192157982
 40
0.9814851763846865
 40
0.9861165283708566
 40
1.0
 40
1.0
 40
1.0
 40
1.0
 10
355.5576031073014
 20
101.5456600281458
 30
0.0
 10
355.5663715365558
 20
101.5423050781973
 30
0.0
 10
355.5839794673369
 20
101.5355679848418
 30
0.0
 10
355.6205744075677
 20
101.5277098854212
 30
0.0
 10
355.6581322242951
 20
101.5263210345872
 30
0.0
 10
355.6950261099296
 20
101.5319118227041
 30
0.0
 10
355.7221407905458
 20
101.53942781698
 30
0.0
 10
355.7482697307568
 20
101.5503637723542
 30
0.0
 10
355.7813031903347
 20
101.5691404340176
 30
0.0
 10
355.8111087749803
 20
101.5943056700283
 30
0.0
 10
355.835896051037
 20
101.6247540354121
 30
0.0
 10
355.8517974968166
 20
101.6500161323473
 30
0.0
 10
355.8623766581857
 20
101.6728225245568
 30
0.0
 10
355.8683286668021
 20
101.6894873556207
 30
0.0
 10
355.8712993904522
 20
101.6991919296206
 30
0.0
 10
355.8733332464241
 20
101.7066476865018
 30
0.0
 10
355.8749101461489
 20
101.7132453471948
 30
0.0
 10
355.8762824859014
 20
101.7197341794434
 30
0.0
 10
355.8773757084221
 20
101.7256256382767
 30
0.0
 10
355.8785311486474
 20
101.732959289902
 30
0.0
 10
355.8794150358482
 20
101.7399580056497
 30
0.0
 10
355.8801807512456
 20
101.7479901293016
 30
0.0
 10
355.8805556206079
 20
101.7537820307183
 30
0.0
 10
355.8807435236452
 20
101.7583191063768
 30
0.0
 10
355.8808687118222
 20
101.7620981942358
 30
0.0
 10
355.8808913661949
 20
101.7651229679525
 30
0.0
 10
355.8809083537367
 20
101.7673911159485
 30
0.0
  0
SPLINE
  5
291
330
1F
100
AcDbEntity
  8
0
  6
Continuous
 62
     7
370
    15
100
AcDbSpline
210
0.0
220
0.0
230
1.0
 70
     8
 71
     3
 72
    16
 73
    12
 74
     0
 42
0.00000001
 43
0.00000001
 12
1.0
 22
0.0
 32
0.0
 13
1.0
 23
0.0
 33
0.0
 40
0.0
 40
0.0
 40
0.0
 40
0.0
 40
0.081764420801657
 40
0.1641053442059131
 40
0.2470229468937994
 40
0.3305174018838629
 40
0.4145888786315794
 40
0.499237543125476
 40
0.6635129085595396
 40
0.83043337525457
 40
1.0
 40
1.0
 40
1.0
 40
1.0
 10
344.3205193407742
 20
106.104119317667
 30
0.0
 10
344.6336366421469
 20
105.9825131324323
 30
0.0
 10
345.2620789647955
 20
105.7384433440102
 30
0.0
 10
346.2038139856693
 20
105.3691846840995
 30
0.0
 10
347.1489095923669
 20
104.9959919360943
 30
0.0
 10
348.0969301091599
 20
104.6187289403386
 30
0.0
 10
349.0478079586129
 20
104.2374295874526
 30
0.0
 10
350.2982538832792
 20
103.7321477444472
 30
0.0
 10
351.8501626283064
 20
103.0976989047461
 30
0.0
 10
353.7046377611192
 20
102.3289033945132
 30
0.0
 10
354.9367182694418
 20
101.8081063450906
 30
0.0
 10
355.5576031073015
 20
101.5456600281459
 30
0.0
  0
SPLINE
  5
292
330
1F
100
AcDbEntity
  8
0
  6
Continuous
 62
     7
370
    15
100
AcDbSpline
210
0.0
220
0.0
230
1.0
 70
     8
 71
     3
 72
    41
 73
    37
 74
     0
 42
0.00000001
 43
0.00000001
 12
1.0
 22
0.0
 32
0.0
 13
1.0
 23
0.0
 33
0.0
 40
0.0
 40
0.0
 40
0.0
 40
0.0
 40
0.0077909115776798
 40
0.0116903899284346
 40
0.0155923483917407
 40
0.0312214094834155
 40
0.043745838692417
 40
0.0512673438263451
 40
0.056910959331823
 40
0.0625561458108967
 40
0.0664770954963784
 40
0.0703984026611906
 40
0.0743199010178697
 40
0.0782414232048937
 40
0.0821628009489949
 40
0.0841233878560193
 40
0.0860838752165527
 40
0.0880442418124011
 40
0.0900044663989265
 40
0.0919645277096264
 40
0.0939244044614703
 40
0.1118297958968875
 40
0.1252381935890023
 40
0.1408483080903761
 40
0.156441169760246
 40
0.1877212701956519
 40
0.2504166065563911
 40
0.3752965120950723
 40
0.5001874178299662
 40
0.5628545144256429
 40
0.6253309534063642
 40
0.6878120885951442
 40
0.7504226377993838
 40
0.8750654003834164
 40
0.9377753621101752
 40
1.0
 40
1.0
 40
1.0
 40
1.0
 10
343.9653187867917
 20
105.8823882298643
 30
0.0
 10
343.9653253674735
 20
105.8837011371733
 30
0.0
 10
343.9653352418938
 20
105.8856711760102
 30
0.0
 10
343.9653964217322
 20
105.8882980135047
 30
0.0
 10
343.9655205664926
 20
105.8922442532396
 30
0.0
 10
343.9658124380539
 20
105.8976388661702
 30
0.0
 10
343.9663268160749
 20
105.9036271526077
 30
0.0
 10
343.9667935521255
 20
105.9079286253033
 30
0.0
 10
343.9671812423408
 20
105.9110722912405
 30
0.0
 10
343.9675264331115
 20
105.9136096924472
 30
0.0
 10
343.9678562489349
 20
105.9158560286986
 30
0.0
 10
343.9681608222032
 20
105.9178124690981
 30
0.0
 10
343.9684822717682
 20
105.919766028998
 30
0.0
 10
343.9688205406468
 20
105.9217164681053
 30
0.0
 10
343.9691164060752
 20
105.9233390665245
 30
0.0
 10
343.9693614547697
 20
105.9246353611109
 30
0.0
 10
343.9695494077051
 20
105.9256066361351
 30
0.0
 10
343.9697415228852
 20
105.9265769508602
 30
0.0
 10
343.969937793115
 20
105.9275462748366
 30
0.0
 10
343.9701382117092
 20
105.9285145804791
 30
0.0
 10
343.9708975392599
 20
105.9321050410132
 30
0.0
 10
343.972174503227
 20
105.9375515717451
 30
0.0
 10
343.974238480995
 20
105.9451573943203
 30
0.0
 10
343.9764321353666
 20
105.9523155706178
 30
0.0
 10
343.9798539516739
 20
105.9622154369253
 30
0.0
 10
343.9867488782078
 20
105.9792179254138
 30
0.0
 10
344.0038246238158
 20
106.0115733009377
 30
0.0
 10
344.0368656523569
 20
106.0520270580074
 30
0.0
 10
344.0782199883989
 20
106.0826995634513
 30
0.0
 10
344.1145084214676
 20
106.1008337020657
 30
0.0
 10
344.1429969383819
 20
106.1112540458265
 30
0.0
 10
344.1723813023382
 20
106.1183451646218
 30
0.0
 10
344.2122049880974
 20
106.1234954347733
 30
0.0
 10
344.252588417704
 20
106.1218990381977
 30
0.0
 10
344.2920143155007
 20
106.1140941203935
 30
0.0
 10
344.3110423045385
 20
106.1074356300006
 30
0.0
 10
344.3205193407741
 20
106.104119317667
 30
0.0
  0
LINE
  5
293
330
1F
100
AcDbEntity
  8
0
  6
Continuous
 62
     7
370
    15
100
AcDbLine
 10
343.9653203389
 20
103.0642048354
 30
0.0
 11
343.9653203389
 21
105.8823888088
 31
0.0
  0
SPLINE
  5
294
330
1F
100
AcDbEntity
  8
0
  6
Continuous
 62
     7
370
    15
100
AcDbSpline
210
0.0
220
0.0
230
1.0
 70
     8
 71
     3
 72
    26
 73
    22
 74
     0
 42
0.00000001
 43
0.00000001
 12
1.0
 22
0.0
 32
0.0
 13
1.0
 23
0.0
 33
0.0
 40
0.0
 40
0.0
 40
0.0
 40
0.0
 40
0.1249375112674168
 40
0.2498538541306494
 40
0.3746698359440723
 40
0.4994292369911305
 40
0.6242333403219703
 40
0.7488767914289606
 40
0.7801293217551452
 40
0.7957958025738496
 40
0.8114789905365706
 40
0.8365886409321238
 40
0.8516560504428742
 40
0.8742425746178883
 40
0.8906129746550956
 40
0.9151208848463577
 40
0.9273492665027779
 40
0.9457328774305477
 40
0.9674397812722937
 40
0.9804668420477091
 40
1.0
 40
1.0
 40
1.0
 40
1.0
 10
343.707795577212
 20
102.8242057329088
 30
0.0
 10
343.7237178137956
 20
102.8250119012055
 30
0.0
 10
343.7555595892273
 20
102.8266241012081
 30
0.0
 10
343.8020265222569
 20
102.839379640176
 30
0.0
 10
343.8457388818993
 20
102.8598151623671
 30
0.0
 10
343.8853417291552
 20
102.8881694040727
 30
0.0
 10
343.9189036363336
 20
102.9240520376991
 30
0.0
 10
343.9384758062981
 20
102.9557984823786
 30
0.0
 10
343.9476249134846
 20
102.9766092489353
 30
0.0
 10
343.9506584373587
 20
102.9843407019055
 30
0.0
 10
343.9532075142174
 20
102.9913907608005
 30
0.0
 10
343.9554874081269
 20
102.9984594857172
 30
0.0
 10
343.957774884547
 20
103.0064908182137
 30
0.0
 10
343.9595200740513
 20
103.0134715524903
 30
0.0
 10
343.9612912478016
 20
103.0217416186378
 30
0.0
 10
343.9625239937226
 20
103.0287177724551
 30
0.0
 10
343.9635632812348
 20
103.0359980323935
 30
0.0
 10
343.9643559969381
 20
103.0429369344507
 30
0.0
 10
343.964901745174
 20
103.0500092584738
 30
0.0
 10
343.9652501811487
 20
103.0572483531804
 30
0.0
 10
343.9652930621229
 20
103.061596963698
 30
0.0
 10
343.9653187867917
 20
103.0642057329088
 30
0.0
  0
LINE
  5
295
330
1F
100
AcDbEntity
  8
0
  6
Continuous
 62
     7
370
    15
100
AcDbLine
 10
338.9793228856
 20
102.8242048705
 30
0.0
 11
343.7077947459
 21
102.8242048705
 31
0.0
  0
SPLINE
  5
296
330
1F
100
AcDbEntity
  8
0
  6
Continuous
 62
     7
370
    15
100
AcDbSpline
210
0.0
220
0.0
230
1.0
 70
     8
 71
     3
 72
    27
 73
    23
 74
     0
 42
0.00000001
 43
0.00000001
 12
1.0
 22
0.0
 32
0.0
 13
1.0
 23
0.0
 33
0.0
 40
0.0
 40
0.0
 40
0.0
 40
0.0
 40
0.0088986642598488
 40
0.0133523345595945
 40
0.01780869851493
 40
0.0356575523202553
 40
0.0499604154732304
 40
0.0714414957108387
 40
0.0878211941940455
 40
0.1123906136929622
 40
0.1430638936348309
 40
0.1644846193824979
 40
0.1773078714206706
 40
0.1965597631748474
 40
0.2233651666922324
 40
0.2502241759380002
 40
0.3752115492990389
 40
0.5003595164810275
 40
0.6252443248213374
 40
0.7503227269953833
 40
0.8751319615200555
 40
1.0
 40
1.0
 40
1.0
 40
1.0
 10
338.7113170231228
 20
103.0642057329088
 30
0.0
 10
338.7113228169365
 20
103.0630002784938
 30
0.0
 10
338.7113315104816
 20
103.0611915092025
 30
0.0
 10
338.711385380192
 20
103.0587796753997
 30
0.0
 10
338.7114946874795
 20
103.0551566120416
 30
0.0
 10
338.71175167876
 20
103.050203461704
 30
0.0
 10
338.7123479297245
 20
103.0429637314965
 30
0.0
 10
338.7131635681343
 20
103.0359457747352
 30
0.0
 10
338.7144326622355
 20
103.0275901753872
 30
0.0
 10
338.7162484275376
 20
103.0180680215675
 30
0.0
 10
338.7187050042494
 20
103.0079923196619
 30
0.0
 10
338.7211905238204
 20
102.9995803011205
 30
0.0
 10
338.7234579356479
 20
102.9927230755677
 30
0.0
 10
338.7261791974869
 20
102.9852585520657
 30
0.0
 10
338.7299338349684
 20
102.9761717469905
 30
0.0
 10
338.7401706607111
 20
102.9544073587877
 30
0.0
 10
338.7604779667254
 20
102.9229061118495
 30
0.0
 10
338.7958683411394
 20
102.8872347402174
 30
0.0
 10
338.8371132437272
 20
102.8591080692983
 30
0.0
 10
338.8823965176097
 20
102.8390712505192
 30
0.0
 10
338.9302625865752
 20
102.8265577668248
 30
0.0
 10
338.9629671164239
 20
102.8249898673046
 30
0.0
 10
338.9793232326313
 20
102.8242057329088
 30
0.0
  0
LINE
  5
297
330
1F
100
AcDbEntity
  8
0
  6
Continuous
 62
     7
370
    15
100
AcDbLine
 10
338.7113161883
 20
103.0642048354
 30
0.0
 11
338.7113161883
 21
115.073095345
 31
0.0
  0
SPLINE
  5
298
330
1F
100
AcDbEntity
  8
0
  6
Continuous
 62
     7
370
    15
100
AcDbSpline
210
0.0
220
0.0
230
1.0
 70
     8
 71
     3
 72
    20
 73
    16
 74
     0
 42
0.00000001
 43
0.00000001
 12
1.0
 22
0.0
 32
0.0
 13
1.0
 23
0.0
 33
0.0
 40
0.0
 40
0.0
 40
0.0
 40
0.0
 40
0.1249788024373204
 40
0.2501828332585156
 40
0.4991663214718849
 40
0.5616727532136218
 40
0.5928443025394075
 40
0.6239379179519762
 40
0.6951621252714584
 40
0.7488574676803563
 40
0.7816251795609848
 40
0.830731885080342
 40
0.891899263731169
 40
0.9535183949157569
 40
1.0
 40
1.0
 40
1.0
 40
1.0
 10
338.8768294937851
 20
115.2948266472172
 30
0.0
 10
338.8656656513934
 20
115.2902023908774
 30
0.0
 10
338.8433178478847
 20
115.2809455446743
 30
0.0
 10
338.8020378015207
 20
115.255377791834
 30
0.0
 10
338.7704414686084
 20
115.2257466355417
 30
0.0
 10
338.7506832798472
 20
115.1984621582733
 30
0.0
 10
338.7440658774472
 20
115.1881120351848
 30
0.0
 10
338.7374251159663
 20
115.176752806224
 30
0.0
 10
338.7305599692322
 20
115.1629313778907
 30
0.0
 10
338.7247831854102
 20
115.14842219808
 30
0.0
 10
338.7205270555069
 20
115.1356782585242
 30
0.0
 10
338.7167584192814
 20
115.121988205281
 30
0.0
 10
338.7134816552173
 20
115.1052181027105
 30
0.0
 10
338.7116110115099
 20
115.0884676969583
 30
0.0
 10
338.711405422949
 20
115.0777178314047
 30
0.0
 10
338.7113170231228
 20
115.0730955594145
 30
0.0
  0
SPLINE
  5
299
330
1F
100
AcDbEntity
  8
0
  6
Continuous
 62
     7
370
    15
100
AcDbSpline
210
0.0
220
0.0
230
1.0
 70
     8
 71
     3
 72
    19
 73
    15
 74
     0
 42
0.00000001
 43
0.00000001
 12
1.0
 22
0.0
 32
0.0
 13
1.0
 23
0.0
 33
0.0
 40
0.0
 40
0.0
 40
0.0
 40
0.0
 40
0.0508665406097119
 40
0.1013760161055711
 40
0.1515284848924873
 40
0.2013240066324329
 40
0.2507626422805292
 40
0.3769763785398035
 40
0.5011791328985726
 40
0.6270076606964013
 40
0.751004938151481
 40
0.8347471869793507
 40
0.917745383588795
 40
1.0
 40
1.0
 40
1.0
 40
1.0
 10
355.5576031073015
 20
121.9175971166641
 30
0.0
 10
355.2844328774412
 20
121.801841206091
 30
0.0
 10
354.7400099760617
 20
121.5711419504721
 30
0.0
 10
353.9220914691443
 20
121.2275144680159
 30
0.0
 10
353.1070113370671
 20
120.8872086967167
 30
0.0
 10
352.2945779140713
 20
120.5503086996451
 30
0.0
 10
351.0639494372194
 20
120.0433488385264
 30
0.0
 10
349.4165105192172
 20
119.3726205975033
 30
0.0
 10
347.3311411493794
 20
118.537714847577
 30
0.0
 10
345.2405983434683
 20
117.7147152032504
 30
0.0
 10
343.3613525263116
 20
116.9872167092702
 30
0.0
 10
341.7129486680793
 20
116.3581561866416
 30
0.0
 10
340.2947800153747
 20
115.822640860182
 30
0.0
 10
339.3480596968992
 20
115.4702361519883
 30
0.0
 10
338.8768294937851
 20
115.2948266472172
 30
0.0
  0
SPLINE
  5
29A
330
1F
100
AcDbEntity
  8
0
  6
Continuous
 62
     7
370
    15
100
AcDbSpline
210
0.0
220
0.0
230
1.0
 70
     8
 71
     3
 72
    31
 73
    27
 74
     0
 42
0.00000001
 43
0.00000001
 12
1.0
 22
0.0
 32
0.0
 13
1.0
 23
0.0
 33
0.0
 40
0.0
 40
0.0
 40
0.0
 40
0.0
 40
0.0077888198876474
 40
0.0116869802036604
 40
0.0155874609839364
 40
0.0312094447351653
 40
0.0437272204548441
 40
0.0625262907357968
 40
0.0768601382346414
 40
0.0854617302997017
 40
0.098361448957572
 40
0.1091058105305885
 40
0.1252056762632215
 40
0.1408313831654305
 40
0.1564215907895413
 40
0.1876380216855807
 40
0.2502830382061221
 40
0.3750655843481145
 40
0.437733491655578
 40
0.5001579734696581
 40
0.5627521539298712
 40
0.625347759017523
 40
0.7501131969869126
 40
0.8748517544054883
 40
0.9375034102827764
 40
1.0
 40
1.0
 40
1.0
 40
1.0
 10
355.8809083537365
 20
121.6958660288614
 30
0.0
 10
355.8809027612207
 20
121.6971381763528
 30
0.0
 10
355.8808943697542
 20
121.6990470101379
 30
0.0
 10
355.8808423343835
 20
121.7015922964343
 30
0.0
 10
355.8807367154001
 20
121.7054157717476
 30
0.0
 10
355.8804882587352
 20
121.7106429679153
 30
0.0
 10
355.8799110835695
 20
121.7182838748799
 30
0.0
 10
355.8791206046166
 20
121.7256914716349
 30
0.0
 10
355.8781796755236
 20
121.7324301732203
 30
0.0
 10
355.8772430762536
 20
121.7381922554083
 30
0.0
 10
355.8762921379647
 20
121.7433550783981
 30
0.0
 10
355.8749742973255
 20
121.7496835205238
 30
0.0
 10
355.8733896023444
 20
121.7563997639049
 30
0.0
 10
355.8713923858008
 20
121.7638116096008
 30
0.0
 10
355.868456528569
 20
121.7734874431244
 30
0.0
 10
355.8625153351215
 20
121.7901464234991
 30
0.0
 10
355.8476994348113
 20
121.8220341498387
 30
0.0
 10
355.8243980050528
 20
121.8545470304528
 30
0.0
 10
355.796344778075
 20
121.8814429832069
 30
0.0
 10
355.7731978751087
 20
121.8987375449789
 30
0.0
 10
355.7483459701557
 20
121.9128620271991
 30
0.0
 10
355.7135186836562
 20
121.9274275802179
 30
0.0
 10
355.6674806343642
 20
121.9372537583642
 30
0.0
 10
355.6206500526944
 20
121.9355728472859
 30
0.0
 10
355.58402505988
 20
121.9277000169251
 30
0.0
 10
355.5664031466262
 20
121.9209619671356
 30
0.0
 10
355.5576031073014
 20
121.9175971166641
 30
0.0
  0
LINE
  5
29B
330
1F
100
AcDbEntity
  8
0
  6
Continuous
 62
     7
370
    15
100
AcDbLine
 10
355.8809072277
 20
117.019932055
 30
0.0
 11
355.8809072277
 21
121.6958661462
 31
0.0
  0
SPLINE
  5
29C
330
1F
100
AcDbEntity
  8
0
  6
Continuous
 62
     7
370
    15
100
AcDbSpline
210
0.0
220
0.0
230
1.0
 70
     8
 71
     3
 72
    20
 73
    16
 74
     0
 42
0.00000001
 43
0.00000001
 12
1.0
 22
0.0
 32
0.0
 13
1.0
 23
0.0
 33
0.0
 40
0.0
 40
0.0
 40
0.0
 40
0.0
 40
0.1248373376559766
 40
0.2498800959417884
 40
0.3744221221105526
 40
0.4994634234191474
 40
0.5244618272941103
 40
0.5618890660515525
 40
0.6240953061537501
 40
0.695479482775035
 40
0.7491507758843331
 40
0.830812730785605
 40
0.8919492388703195
 40
0.9536999243024777
 40
1.0
 40
1.0
 40
1.0
 40
1.0
 10
355.736671957722
 20
116.7982006357956
 30
0.0
 10
355.7467550323909
 20
116.8030066340983
 30
0.0
 10
355.7669377734916
 20
116.8126265390046
 30
0.0
 10
355.7945570017106
 20
116.8326046722394
 30
0.0
 10
355.8194459664495
 20
116.8564214253912
 30
0.0
 10
355.8351488651448
 20
116.8766957289907
 30
0.0
 10
355.8446739956734
 20
116.8914551912848
 30
0.0
 10
355.8506666141914
 20
116.9015265995786
 30
0.0
 10
355.858097807068
 20
116.9158889425557
 30
0.0
 10
355.8649998594551
 20
116.9323201647832
 30
0.0
 10
355.8713148436112
 20
116.9510336729063
 30
0.0
 10
355.8759521534209
 20
116.9693349556887
 30
0.0
 10
355.8791366549526
 20
116.9887747250901
 30
0.0
 10
355.8806680102835
 20
117.0050372162642
 30
0.0
 10
355.8808362587593
 20
117.0154638708077
 30
0.0
 10
355.8809083537365
 20
117.0199317235983
 30
0.0
  0
SPLINE
  5
29D
330
1F
100
AcDbEntity
  8
0
  6
Continuous
 62
     7
370
    15
100
AcDbSpline
210
0.0
220
0.0
230
1.0
 70
     8
 71
     3
 72
    14
 73
    10
 74
     0
 42
0.00000001
 43
0.00000001
 12
1.0
 22
0.0
 32
0.0
 13
1.0
 23
0.0
 33
0.0
 40
0.0
 40
0.0
 40
0.0
 40
0.0
 40
0.25
 40
0.25
 40
0.5
 40
0.5
 40
0.75
 40
0.75
 40
1.0
 40
1.0
 40
1.0
 40
1.0
 10
343.7766765848339
 20
111.9533596602077
 30
0.0
 10
343.7322813330915
 20
111.9362300525618
 30
0.0
 10
343.6925584996043
 20
111.9071426991461
 30
0.0
 10
343.6349870410986
 20
111.8302606913979
 30
0.0
 10
343.6176226399023
 20
111.7811742067679
 30
0.0
 10
343.6174810408635
 20
111.6830228712631
 30
0.0
 10
343.6345308709209
 20
111.6338183275353
 30
0.0
 10
343.6922297287225
 20
111.556287066479
 30
0.0
 10
343.7322336690545
 20
111.5270454830945
 30
0.0
 10
343.776676584834
 20
111.5098974846023
 30
0.0
  0
SPLINE
  5
29E
330
1F
100
AcDbEntity
  8
0
  6
Continuous
 62
     7
370
    15
100
AcDbSpline
210
0.0
220
0.0
230
1.0
 70
     8
 71
     3
 72
    11
 73
     7
 74
     0
 42
0.00000001
 43
0.00000001
 12
1.0
 22
0.0
 32
0.0
 13
1.0
 23
0.0
 33
0.0
 40
0.0
 40
0.0
 40
0.0
 40
0.0
 40
0.2502224471591569
 40
0.5002831262792261
 40
0.7502022336750568
 40
1.0
 40
1.0
 40
1.0
 40
1.0
 10
347.700079606094
 20
109.9720083760594
 30
0.0
 10
347.3749679968854
 20
110.1011745018265
 30
0.0
 10
346.7249549621192
 20
110.3594232478594
 30
0.0
 10
345.7453643498495
 20
110.7447000459267
 30
0.0
 10
344.7631636905763
 20
111.1284052508197
 30
0.0
 10
344.1054523850074
 20
111.3827539936314
 30
0.0
 10
343.7766765848339
 20
111.5098974846023
 30
0.0
  0
SPLINE
  5
29F
330
1F
100
AcDbEntity
  8
0
  6
Continuous
 62
     7
370
    15
100
AcDbSpline
210
0.0
220
0.0
230
1.0
 70
     8
 71
     3
 72
    23
 73
    19
 74
     0
 42
0.00000001
 43
0.00000001
 12
1.0
 22
0.0
 32
0.0
 13
1.0
 23
0.0
 33
0.0
 40
0.0
 40
0.0
 40
0.0
 40
0.0
 40
0.0634795960524255
 40
0.0634795960524255
 40
0.0634795960524255
 40
0.2290583593855843
 40
0.2290583593855843
 40
0.2290583593855843
 40
0.4131309431659799
 40
0.4131309431659799
 40
0.4131309431659799
 40
0.6092501334209492
 40
0.6092501334209492
 40
0.6092501334209492
 40
0.8045732488779723
 40
0.8045732488779723
 40
0.8045732488779723
 40
1.0
 40
1.0
 40
1.0
 40
1.0
 10
348.0447956601326
 20
110.1937394638622
 30
0.0
 10
348.0447956601326
 20
110.1830466862592
 30
0.0
 10
348.0440496567367
 20
110.1723252201183
 30
0.0
 10
348.0425739486214
 20
110.1617483401878
 30
0.0
 10
348.0387813327102
 20
110.1345654286757
 30
0.0
 10
348.0299338760643
 20
110.1077533860592
 30
0.0
 10
348.0171687656866
 20
110.0838625117444
 30
0.0
 10
348.0030007722268
 20
110.0573460351121
 30
0.0
 10
347.9835485209999
 20
110.0334941721244
 30
0.0
 10
347.9612122399521
 20
110.0143662018721
 30
0.0
 10
347.9374081710549
 20
109.9939812720456
 30
0.0
 10
347.9095508586617
 20
109.978211659471
 30
0.0
 10
347.880503472767
 20
109.9680835246238
 30
0.0
 10
347.8515323252003
 20
109.9579819722743
 30
0.0
 10
347.820506533759
 20
109.9531443652251
 30
0.0
 10
347.7900141466841
 20
109.9537992496721
 30
0.0
 10
347.7595078696041
 20
109.9544544324345
 30
0.0
 10
347.7286610350813
 20
109.9606274647717
 30
0.0
 10
347.7000796060939
 20
109.9720083760594
 30
0.0
  0
LINE
  5
2A0
330
1F
100
AcDbEntity
  8
0
  6
Continuous
 62
     7
370
    15
100
AcDbLine
 10
348.0447963378
 20
110.1937399144
 30
0.0
 11
348.0447963378
 21
113.2695174674
 31
0.0
  0
SPLINE
  5
2A1
330
1F
100
AcDbEntity
  8
0
  6
Continuous
 62
     7
370
    15
100
AcDbSpline
210
0.0
220
0.0
230
1.0
 70
     8
 71
     3
 72
    23
 73
    19
 74
     0
 42
0.00000001
 43
0.00000001
 12
1.0
 22
0.0
 32
0.0
 13
1.0
 23
0.0
 33
0.0
 40
0.0
 40
0.0
 40
0.0
 40
0.0
 40
0.1879765485128114
 40
0.1879765485128114
 40
0.1879765485128114
 40
0.373422133550014
 40
0.373422133550014
 40
0.373422133550014
 40
0.5433719215628574
 40
0.5433719215628574
 40
0.5433719215628574
 40
0.699250146428267
 40
0.699250146428267
 40
0.699250146428267
 40
0.8494340021312803
 40
0.8494340021312803
 40
0.8494340021312803
 40
1.0
 40
1.0
 40
1.0
 40
1.0
 10
347.7000796060939
 20
113.4912487687505
 30
0.0
 10
347.727570514549
 20
113.5021954429173
 30
0.0
 10
347.7571421516374
 20
113.5083268883448
 30
0.0
 10
347.7864747922928
 20
113.5093577021511
 30
0.0
 10
347.8154254356663
 20
113.5103750917289
 30
0.0
 10
347.8448940334913
 20
113.5064553390609
 30
0.0
 10
347.8726738456409
 20
113.4977627987539
 30
0.0
 10
347.8981640349106
 20
113.4897867009867
 30
0.0
 10
347.9228312867289
 20
113.4775989808991
 30
0.0
 10
347.9448304062509
 20
113.4617628318163
 30
0.0
 10
347.9650216637615
 20
113.4472280790148
 30
0.0
 10
347.9834108073289
 20
113.4292785639022
 30
0.0
 10
347.9984934239169
 20
113.408906922871
 30
0.0
 10
348.0130174780718
 20
113.389289715483
 30
0.0
 10
348.0248001373772
 20
113.3669398651787
 30
0.0
 10
348.032696480403
 20
113.3434245216917
 30
0.0
 10
348.0406040724515
 20
113.3198756785674
 30
0.0
 10
348.0447956601326
 20
113.2945241815395
 30
0.0
 10
348.0447956601326
 20
113.2695176809478
 30
0.0
  0
SPLINE
  5
2A2
330
1F
100
AcDbEntity
  8
0
  6
Continuous
 62
     7
370
    15
100
AcDbSpline
210
0.0
220
0.0
230
1.0
 70
     8
 71
     3
 72
    11
 73
     7
 74
     0
 42
0.00000001
 43
0.00000001
 12
1.0
 22
0.0
 32
0.0
 13
1.0
 23
0.0
 33
0.0
 40
0.0
 40
0.0
 40
0.0
 40
0.0
 40
0.2497977663250348
 40
0.4997168737208964
 40
0.7497775528409347
 40
0.9999999999999999
 40
0.9999999999999999
 40
0.9999999999999999
 40
0.9999999999999999
 10
343.7766765848339
 20
111.9533596602077
 30
0.0
 10
344.1054523850076
 20
112.0805031511786
 30
0.0
 10
344.7631636905767
 20
112.3348518939903
 30
0.0
 10
345.7453643498499
 20
112.7185570988834
 30
0.0
 10
346.7249549621195
 20
113.1038338969507
 30
0.0
 10
347.3749679968855
 20
113.3620826429835
 30
0.0
 10
347.700079606094
 20
113.4912487687505
 30
0.0
  0
LINE
  5
2A3
330
1F
100
AcDbEntity
  8
0
  6
Continuous
 62
     7
370
    15
100
AcDbLine
 10
337.211557155
 20
102.8242048705
 30
0.0
 11
338.9793228856
 21
102.8242048705
 31
0.0
  0
LINE
  5
2A4
330
1F
100
AcDbEntity
  8
0
  6
Continuous
 62
     7
370
    15
100
AcDbLine
 10
346.2770268819
 20
110.5342184091
 30
0.0
 11
346.2770268819
 21
112.9290380413
 31
0.0
  0
LINE
  5
2A5
330
1F
100
AcDbEntity
  8
0
  6
Continuous
 62
     7
370
    15
100
AcDbLine
 10
81.3702032468
 20
37.4712769771
 30
0.0
 11
82.4350253245
 21
31.796817937
 31
0.0
  0
LINE
  5
2A6
330
1F
100
AcDbEntity
  8
0
  6
Continuous
 62
     7
370
    15
100
AcDbLine
 10
85.7520238063
 20
41.230668583
 30
0.0
 11
81.3702032468
 21
37.4712769771
 31
0.0
  0
LINE
  5
2A7
330
1F
100
AcDbEntity
  8
0
  6
Continuous
 62
     7
370
    15
100
AcDbLine
 10
91.1986515424
 20
39.3155936981
 30
0.0
 11
85.7520238063
 21
41.230668583
 31
0.0
  0
LINE
  5
2A8
330
1F
100
AcDbEntity
  8
0
  6
Continuous
 62
     7
370
    15
100
AcDbLine
 10
92.2634736201
 20
33.6411346579
 30
0.0
 11
91.1986515424
 21
39.3155936981
 31
0.0
  0
LINE
  5
2A9
330
1F
100
AcDbEntity
  8
0
  6
Continuous
 62
     7
370
    15
100
AcDbLine
 10
87.8816530606
 20
29.8817430521
 30
0.0
 11
92.2634736201
 21
33.6411346579
 31
0.0
  0
LINE
  5
2AA
330
1F
100
AcDbEntity
  8
0
  6
Continuous
 62
     7
370
    15
100
AcDbLine
 10
82.4350253245
 20
31.796817937
 30
0.0
 11
87.8816530606
 21
29.8817430521
 31
0.0
  0
LINE
  5
2AB
330
1F
100
AcDbEntity
  8
0
  6
Continuous
 62
     7
370
    15
100
AcDbLine
 10
42.9268315932
 20
32.6694522882
 30
0.0
 11
47.9268268248
 21
29.7827024842
 31
0.0
  0
LINE
  5
2AC
330
1F
100
AcDbEntity
  8
0
  6
Continuous
 62
     7
370
    15
100
AcDbLine
 10
42.9268315932
 20
38.4429593469
 30
0.0
 11
42.9268315932
 21
32.6694522882
 31
0.0
  0
LINE
  5
2AD
330
1F
100
AcDbEntity
  8
0
  6
Continuous
 62
     7
370
    15
100
AcDbLine
 10
47.9268268248
 20
41.3297091509
 30
0.0
 11
42.9268315932
 21
38.4429593469
 31
0.0
  0
LINE
  5
2AE
330
1F
100
AcDbEntity
  8
0
  6
Continuous
 62
     7
370
    15
100
AcDbLine
 10
52.9268518588
 20
38.4429593469
 30
0.0
 11
47.9268268248
 21
41.3297091509
 31
0.0
  0
LINE
  5
2AF
330
1F
100
AcDbEntity
  8
0
  6
Continuous
 62
     7
370
    15
100
AcDbLine
 10
52.9268518588
 20
32.6694522882
 30
0.0
 11
52.9268518588
 21
38.4429593469
 31
0.0
  0
LINE
  5
2B0
330
1F
100
AcDbEntity
  8
0
  6
Continuous
 62
     7
370
    15
100
AcDbLine
 10
47.9268268248
 20
29.7827024842
 30
0.0
 11
52.9268518588
 21
32.6694522882
 31
0.0
  0
LINE
  5
2B1
330
1F
100
AcDbEntity
  8
0
  6
Continuous
 62
     7
370
    15
100
AcDbLine
 10
42.9268315932
 20
71.559452721
 30
0.0
 11
47.9268268248
 21
68.6727029169
 31
0.0
  0
LINE
  5
2B2
330
1F
100
AcDbEntity
  8
0
  6
Continuous
 62
     7
370
    15
100
AcDbLine
 10
42.9268315932
 20
77.3329560543
 30
0.0
 11
42.9268315932
 21
71.559452721
 31
0.0
  0
LINE
  5
2B3
330
1F
100
AcDbEntity
  8
0
  6
Continuous
 62
     7
370
    15
100
AcDbLine
 10
47.9268268248
 20
80.2197095836
 30
0.0
 11
42.9268315932
 21
77.3329560543
 31
0.0
  0
LINE
  5
2B4
330
1F
100
AcDbEntity
  8
0
  6
Continuous
 62
     7
370
    15
100
AcDbLine
 10
52.9268518588
 20
77.3329560543
 30
0.0
 11
47.9268268248
 21
80.2197095836
 31
0.0
  0
LINE
  5
2B5
330
1F
100
AcDbEntity
  8
0
  6
Continuous
 62
     7
370
    15
100
AcDbLine
 10
52.9268518588
 20
71.559452721
 30
0.0
 11
52.9268518588
 21
77.3329560543
 31
0.0
  0
LINE
  5
2B6
330
1F
100
AcDbEntity
  8
0
  6
Continuous
 62
     7
370
    15
100
AcDbLine
 10
47.9268268248
 20
68.6727029169
 30
0.0
 11
52.9268518588
 21
71.559452721
 31
0.0
  0
LINE
  5
2B7
330
1F
100
AcDbEntity
  8
0
  6
Continuous
 62
     7
370
    15
100
AcDbLine
 10
81.8168357512
 20
71.559452721
 30
0.0
 11
86.816845884
 21
68.6727029169
 31
0.0
  0
LINE
  5
2B8
330
1F
100
AcDbEntity
  8
0
  6
Continuous
 62
     7
370
    15
100
AcDbLine
 10
81.8168357512
 20
77.3329560543
 30
0.0
 11
81.8168357512
 21
71.559452721
 31
0.0
  0
LINE
  5
2B9
330
1F
100
AcDbEntity
  8
0
  6
Continuous
 62
     7
370
    15
100
AcDbLine
 10
86.816845884
 20
80.2197095836
 30
0.0
 11
81.8168357512
 21
77.3329560543
 31
0.0
  0
LINE
  5
2BA
330
1F
100
AcDbEntity
  8
0
  6
Continuous
 62
     7
370
    15
100
AcDbLine
 10
91.8168411157
 20
77.3329560543
 30
0.0
 11
86.816845884
 21
80.2197095836
 31
0.0
  0
LINE
  5
2BB
330
1F
100
AcDbEntity
  8
0
  6
Continuous
 62
     7
370
    15
100
AcDbLine
 10
91.8168411157
 20
71.559452721
 30
0.0
 11
91.8168411157
 21
77.3329560543
 31
0.0
  0
LINE
  5
2BC
330
1F
100
AcDbEntity
  8
0
  6
Continuous
 62
     7
370
    15
100
AcDbLine
 10
86.816845884
 20
68.6727029169
 30
0.0
 11
91.8168411157
 21
71.559452721
 31
0.0
  0
LINE
  5
2BD
330
1F
100
AcDbEntity
  8
0
  6
Continuous
 62
     7
370
    15
100
AcDbLine
 10
102.5668368241
 20
58.1762020374
 30
0.0
 11
102.5668368241
 21
80.6762066568
 31
0.0
  0
ARC
  5
2BE
330
1F
100
AcDbEntity
  8
0
  6
Continuous
 62
     7
370
    15
100
AcDbCircle
 10
67.5668394992
 20
58.1762057329
 30
0.0
 40
35.00000000000001
100
AcDbArc
 50
270.0
 51
0.0
  0
LINE
  5
2BF
330
1F
100
AcDbEntity
  8
0
  6
Continuous
 62
     7
370
    15
100
AcDbLine
 10
41.8768361709
 20
23.1762056137
 30
0.0
 11
67.5668404004
 21
23.1762056137
 31
0.0
  0
LINE
  5
2C0
330
1F
100
AcDbEntity
  8
0
  6
Continuous
 62
     7
370
    15
100
AcDbLine
 10
102.5668368241
 20
80.6762066568
 30
0.0
 11
41.8768361709
 21
80.6762066568
 31
0.0
  0
LINE
  5
2C1
330
1F
100
AcDbEntity
  8
0
  6
Continuous
 62
     7
370
    15
100
AcDbLine
 10
41.8768361709
 20
80.6762066568
 30
0.0
 11
41.8768361709
 21
23.1762056137
 31
0.0
  0
LINE
  5
2C2
330
1F
100
AcDbEntity
  8
0
  6
Continuous
 62
     7
370
    15
100
AcDbLine
 10
29.8868254325
 20
147.8729800219
 30
0.0
 11
108.8868365189
 21
147.8729800219
 31
0.0
  0
LINE
  5
2C3
330
1F
100
AcDbEntity
  8
0
  6
Continuous
 62
     7
370
    15
100
AcDbLine
 10
29.8868254325
 20
99.7995690341
 30
0.0
 11
29.8868254325
 21
147.8729800219
 31
0.0
  0
LINE
  5
2C4
330
1F
100
AcDbEntity
  8
0
  6
Continuous
 62
     7
370
    15
100
AcDbLine
 10
108.8868365189
 20
99.7995690341
 30
0.0
 11
108.8868365189
 21
147.8729800219
 31
0.0
  0
LINE
  5
2C5
330
1F
100
AcDbEntity
  8
0
  6
Continuous
 62
     7
370
    15
100
AcDbLine
 10
29.8868254325
 20
147.8729800219
 30
0.0
 11
29.8868254325
 21
181.6762064482
 31
0.0
  0
LINE
  5
2C6
330
1F
100
AcDbEntity
  8
0
  6
Continuous
 62
     7
370
    15
100
AcDbLine
 10
108.8868365189
 20
147.8729800219
 30
0.0
 11
108.8868365189
 21
181.6762064482
 31
0.0
  0
LINE
  5
2C7
330
1F
100
AcDbEntity
  8
0
  6
Continuous
 62
     7
370
    15
100
AcDbLine
 10
29.8868254325
 20
191.676204362
 30
0.0
 11
108.8868365189
 21
191.676204362
 31
0.0
  0
LINE
  5
2C8
330
1F
100
AcDbEntity
  8
0
  6
Continuous
 62
     7
370
    15
100
AcDbLine
 10
29.8868254325
 20
181.6762064482
 30
0.0
 11
29.8868254325
 21
191.676204362
 31
0.0
  0
LINE
  5
2C9
330
1F
100
AcDbEntity
  8
0
  6
Continuous
 62
     7
370
    15
100
AcDbLine
 10
108.8868365189
 20
181.6762064482
 30
0.0
 11
108.8868365189
 21
191.676204362
 31
0.0
  0
LINE
  5
2CA
330
1F
100
AcDbEntity
  8
0
  6
Continuous
 62
     7
370
    15
100
AcDbLine
 10
29.8868254325
 20
95.9768679822
 30
0.0
 11
29.8868254325
 21
99.7995690341
 31
0.0
  0
LINE
  5
2CB
330
1F
100
AcDbEntity
  8
0
  6
Continuous
 62
     7
370
    15
100
AcDbLine
 10
108.8868365189
 20
95.9768679822
 30
0.0
 11
108.8868365189
 21
99.7995690341
 31
0.0
  0
LINE
  5
2CC
330
1F
100
AcDbEntity
  8
0
  6
Continuous
 62
     7
370
    15
100
AcDbLine
 10
102.5668368241
 20
58.1762020374
 30
0.0
 11
108.8868365189
 21
58.1762020374
 31
0.0
  0
LINE
  5
2CD
330
1F
100
AcDbEntity
  8
0
  6
Continuous
 62
     7
370
    15
100
AcDbLine
 10
29.8868254325
 20
31.176206925
 30
0.0
 11
29.8868254325
 21
95.9768679822
 31
0.0
  0
LINE
  5
2CE
330
1F
100
AcDbEntity
  8
0
  6
Continuous
 62
     7
370
    15
100
AcDbLine
 10
108.8868365189
 20
58.1762020374
 30
0.0
 11
108.8868365189
 21
95.9768679822
 31
0.0
  0
LINE
  5
2CF
330
1F
100
AcDbEntity
  8
0
  6
Continuous
 62
     7
370
    15
100
AcDbLine
 10
102.5668368241
 20
50.4881788875
 30
0.0
 11
102.5668368241
 21
58.1762020374
 31
0.0
  0
ARC
  5
2D0
330
1F
100
AcDbEntity
  8
0
  6
Continuous
 62
     7
370
    15
100
AcDbCircle
 10
68.3868394992
 20
55.1762057329
 30
0.0
 40
34.50000000000001
100
AcDbArc
 50
315.9207901521
 51
352.1902104574
  0
LINE
  5
2D1
330
1F
100
AcDbEntity
  8
0
  6
Continuous
 62
     7
370
    15
100
AcDbLine
 10
74.2391929528
 20
21.1762090112
 30
0.0
 11
29.8868254325
 21
21.1762090112
 31
0.0
  0
SPLINE
  5
2D2
330
1F
100
AcDbEntity
  8
0
  6
Continuous
 62
     7
370
    15
100
AcDbSpline
210
0.0
220
0.0
230
1.0
 70
     8
 71
     3
 72
    34
 73
    30
 74
     0
 42
0.00000001
 43
0.00000001
 12
1.0
 22
0.0
 32
0.0
 13
1.0
 23
0.0
 33
0.0
 40
0.0
 40
0.0
 40
0.0
 40
0.0
 40
0.1250000000000019
 40
0.1250000000000019
 40
0.2500000000000038
 40
0.2500000000000038
 40
0.3125000000000034
 40
0.3125000000000034
 40
0.3750000000000031
 40
0.3750000000000031
 40
0.5000000000000031
 40
0.5000000000000031
 40
0.6250000000000032
 40
0.6250000000000032
 40
0.6875000000000034
 40
0.6875000000000034
 40
0.7500000000000036
 40
0.7500000000000036
 40
0.8125000000000038
 40
0.8125000000000038
 40
0.875000000000004
 40
0.875000000000004
 40
0.906250000000003
 40
0.906250000000003
 40
0.937500000000002
 40
0.937500000000002
 40
0.9687500000000011
 40
0.9687500000000011
 40
1.0
 40
1.0
 40
1.0
 40
1.0
 10
93.17090696196334
 20
31.17620573290983
 30
0.0
 10
92.4421543851412
 20
30.42364519009146
 30
0.0
 10
91.69086528086423
 20
29.71610726718088
 30
0.0
 10
90.14309667857646
 20
28.38143935844786
 30
0.0
 10
89.34663157549538
 20
27.75440161769038
 30
0.0
 10
88.117719532263
 20
26.8707834727856
 30
0.0
 10
87.70301882808174
 20
26.58632580949799
 30
0.0
 10
86.8731394594194
 20
26.04284458659752
 30
0.0
 10
86.45660411254488
 20
25.78283014720776
 30
0.0
 10
85.20196747119607
 20
25.03571540339837
 30
0.0
 10
84.35877040177753
 20
24.58140982655543
 30
0.0
 10
82.65896741732615
 20
23.752480969653
 30
0.0
 10
81.80226688890515
 20
23.37789777892187
 30
0.0
 10
80.50953765389183
 20
22.87288996430631
 30
0.0
 10
80.07696127110157
 20
22.71394522181461
 30
0.0
 10
79.21621027098269
 20
22.4167485759391
 30
0.0
 10
78.78735768213649
 20
22.27822438571991
 30
0.0
 10
77.93551688624942
 20
22.02095403198409
 30
0.0
 10
77.51223545701072
 20
21.90217018669932
 30
0.0
 10
76.68146126322881
 20
21.68540785186417
 30
0.0
 10
76.27182280217457
 20
21.58697456152884
 30
0.0
 10
75.68723018096837
 20
21.45686189311234
 30
0.0
 10
75.4975745462932
 20
21.41644187438389
 30
0.0
 10
75.13520125095651
 20
21.34214268454326
 30
0.0
 10
74.96221663629369
 20
21.30822452537848
 30
0.0
 10
74.64697062470007
 20
21.24854012119597
 30
0.0
 10
74.50741307228986
 20
21.22330322096748
 30
0.0
 10
74.30077396418827
 20
21.18670163248347
 30
0.0
 10
74.23918945453914
 20
21.17620573290981
 30
0.0
 10
74.23918945453914
 20
21.17620573290979
 30
0.0
  0
LINE
  5
2D3
330
1F
100
AcDbEntity
  8
0
  6
Continuous
 62
     7
370
    15
100
AcDbLine
 10
29.8868254325
 20
21.1762090112
 30
0.0
 11
29.8868254325
 21
31.176206925
 31
0.0
  0
LINE
  5
2D4
330
1F
100
AcDbEntity
  8
0
  6
Continuous
 62
     7
370
    15
100
AcDbLine
 10
126.3868347308
 20
188.2245738889
 30
0.0
 11
126.2121186158
 21
188.2245738889
 31
0.0
  0
LINE
  5
2D5
330
1F
100
AcDbEntity
  8
0
  6
Continuous
 62
     7
370
    15
100
AcDbLine
 10
126.3868347308
 20
188.2245738889
 30
0.0
 11
126.3868347308
 21
64.127837577
 31
0.0
  0
LINE
  5
2D6
330
1F
100
AcDbEntity
  8
0
  6
Continuous
 62
     7
370
    15
100
AcDbLine
 10
126.2121186158
 20
64.127837577
 30
0.0
 11
126.3868347308
 21
64.127837577
 31
0.0
  0
LINE
  5
2D7
330
1F
100
AcDbEntity
  8
0
  6
Continuous
 62
     7
370
    15
100
AcDbLine
 10
491.5615603825
 20
64.127837577
 30
0.0
 11
491.3868442675
 21
64.127837577
 31
0.0
  0
LINE
  5
2D8
330
1F
100
AcDbEntity
  8
0
  6
Continuous
 62
     7
370
    15
100
AcDbLine
 10
491.3868442675
 20
188.2245738889
 30
0.0
 11
491.5615603825
 21
188.2245738889
 31
0.0
  0
LINE
  5
2D9
330
1F
100
AcDbEntity
  8
0
  6
Continuous
 62
     7
370
    15
100
AcDbLine
 10
535.8868375918
 20
126.1762057329
 30
0.0
 11
535.8868375918
 21
63.6762057329
 31
0.0
  0
LINE
  5
2DA
330
1F
100
AcDbEntity
  8
0
  6
Continuous
 62
     7
370
    15
100
AcDbLine
 10
535.8868375918
 20
188.6762057329
 30
0.0
 11
535.8868375918
 21
126.1762057329
 31
0.0
  0
LINE
  5
2DB
330
1F
100
AcDbEntity
  8
0
  6
Continuous
 62
     7
370
    15
100
AcDbLine
 10
491.3868442675
 20
188.2245738889
 30
0.0
 11
491.3868442675
 21
64.127837577
 31
0.0
  0
LINE
  5
2DC
330
1F
100
AcDbEntity
  8
0
  6
Continuous
 62
     7
370
    15
100
AcDbLine
 10
68.7068388364
 20
218.1762059117
 30
0.0
 11
68.7068388364
 21
191.676204362
 31
0.0
  0
LINE
  5
2DD
330
1F
100
AcDbEntity
  8
0
  6
Continuous
 62
     7
370
    15
100
AcDbLine
 10
78.4768447778
 20
218.1762059117
 30
0.0
 11
68.7068388364
 21
218.1762059117
 31
0.0
  0
LINE
  5
2DE
330
1F
100
AcDbEntity
  8
0
  6
Continuous
 62
     7
370
    15
100
AcDbLine
 10
78.4768447778
 20
218.1762059117
 30
0.0
 11
78.4768447778
 21
191.676204362
 31
0.0
  0
LINE
  5
2DF
330
1F
100
AcDbEntity
  8
0
  6
Continuous
 62
     7
370
    15
100
AcDbLine
 10
58.936832895
 20
218.1762059117
 30
0.0
 11
58.936832895
 21
191.676204362
 31
0.0
  0
LINE
  5
2E0
330
1F
100
AcDbEntity
  8
0
  6
Continuous
 62
     7
370
    15
100
AcDbLine
 10
68.7068388364
 20
218.1762059117
 30
0.0
 11
58.936832895
 21
218.1762059117
 31
0.0
  0
LINE
  5
2E1
330
1F
100
AcDbEntity
  8
0
  6
Continuous
 62
     7
370
    15
100
AcDbLine
 10
126.3868347308
 20
133.6762055653
 30
0.0
 11
210.2258041999
 21
133.6762055653
 31
0.0
  0
LINE
  5
2E2
330
1F
100
AcDbEntity
  8
0
  6
Continuous
 62
     7
370
    15
100
AcDbLine
 10
126.3868347308
 20
118.6762059005
 30
0.0
 11
210.2258041999
 21
118.6762059005
 31
0.0
  0
LINE
  5
2E3
330
1F
100
AcDbEntity
  8
0
  6
Continuous
 62
     7
370
    15
100
AcDbLine
 10
491.3868442675
 20
118.6762059005
 30
0.0
 11
407.5478747985
 21
118.6762059005
 31
0.0
  0
LINE
  5
2E4
330
1F
100
AcDbEntity
  8
0
  6
Continuous
 62
     7
370
    15
100
AcDbLine
 10
491.3868442675
 20
133.6762055653
 30
0.0
 11
407.5478747985
 21
133.6762055653
 31
0.0
  0
SPLINE
  5
2E5
330
1F
100
AcDbEntity
  8
0
  6
Continuous
 62
     7
370
    15
100
AcDbSpline
210
0.0
220
0.0
230
1.0
 70
     8
 71
     3
 72
     8
 73
     4
 74
     0
 42
0.00000001
 43
0.00000001
 12
1.0
 22
0.0
 32
0.0
 13
1.0
 23
0.0
 33
0.0
 40
0.0
 40
0.0
 40
0.0
 40
0.0
 40
1.0
 40
1.0
 40
1.0
 40
1.0
 10
126.3868394991752
 20
164.6011000073242
 30
0.0
 10
131.6777262734625
 20
161.4887607875072
 30
0.0
 10
136.9632568534019
 20
158.367103350888
 30
0.0
 10
142.2351043884304
 20
155.2235808294645
 30
0.0
  0
LINE
  5
2E6
330
1F
100
AcDbEntity
  8
0
  6
Continuous
 62
     7
370
    15
100
AcDbLine
 10
142.235098829
 20
155.2235812778
 30
0.0
 11
142.235098829
 21
133.6762055653
 31
0.0
  0
SPLINE
  5
2E7
330
1F
100
AcDbEntity
  8
0
  6
Continuous
 62
     7
370
    15
100
AcDbSpline
210
0.0
220
0.0
230
1.0
 70
     8
 71
     3
 72
    10
 73
     6
 74
     0
 42
0.00000001
 43
0.00000001
 12
1.0
 22
0.0
 32
0.0
 13
1.0
 23
0.0
 33
0.0
 40
0.0
 40
0.0
 40
0.0
 40
0.0
 40
0.5
 40
0.5
 40
1.0
 40
1.0
 40
1.0
 40
1.0
 10
126.3868394991752
 20
152.6630922300636
 30
0.0
 10
126.5556860752564
 20
152.9897603146551
 30
0.0
 10
126.6465570924632
 20
153.3512048764625
 30
0.0
 10
126.646737015232
 20
154.1543487636611
 30
0.0
 10
126.5557025500666
 20
154.5736385977346
 30
0.0
 10
126.3868394991752
 20
155.0061787416871
 30
0.0
  0
LINE
  5
2E8
330
1F
100
AcDbEntity
  8
0
  6
Continuous
 62
     7
370
    15
100
AcDbLine
 10
475.5385801694
 20
133.6762055653
 30
0.0
 11
475.5385801694
 21
155.2235812778
 31
0.0
  0
SPLINE
  5
2E9
330
1F
100
AcDbEntity
  8
0
  6
Continuous
 62
     7
370
    15
100
AcDbSpline
210
0.0
220
0.0
230
1.0
 70
     8
 71
     3
 72
     8
 73
     4
 74
     0
 42
0.00000001
 43
0.00000001
 12
1.0
 22
0.0
 32
0.0
 13
1.0
 23
0.0
 33
0.0
 40
0.0
 40
0.0
 40
0.0
 40
0.0
 40
1.0
 40
1.0
 40
1.0
 40
1.0
 10
475.53857460992
 20
155.2235808294645
 30
0.0
 10
480.8106988986005
 20
158.3672683748824
 30
0.0
 10
486.0960923319777
 20
161.4888429107201
 30
0.0
 10
491.3868394991752
 20
164.6011000073242
 30
0.0
  0
SPLINE
  5
2EA
330
1F
100
AcDbEntity
  8
0
  6
Continuous
 62
     7
370
    15
100
AcDbSpline
210
0.0
220
0.0
230
1.0
 70
     8
 71
     3
 72
    10
 73
     6
 74
     0
 42
0.00000001
 43
0.00000001
 12
1.0
 22
0.0
 32
0.0
 13
1.0
 23
0.0
 33
0.0
 40
0.0
 40
0.0
 40
0.0
 40
0.0
 40
0.5
 40
0.5
 40
1.0
 40
1.0
 40
1.0
 40
1.0
 10
491.3868394991752
 20
152.6630922300636
 30
0.0
 10
491.217992923094
 20
152.9897603146551
 30
0.0
 10
491.1271219058872
 20
153.3512048764625
 30
0.0
 10
491.1269419831184
 20
154.1543487636611
 30
0.0
 10
491.2179764482838
 20
154.5736385977346
 30
0.0
 10
491.3868394991752
 20
155.0061787416871
 30
0.0
  0
LINE
  5
2EB
330
1F
100
AcDbEntity
  8
0
  6
Continuous
 62
     7
370
    15
100
AcDbLine
 10
142.235098829
 20
118.6762059005
 30
0.0
 11
142.235098829
 21
97.128830188
 31
0.0
  0
SPLINE
  5
2EC
330
1F
100
AcDbEntity
  8
0
  6
Continuous
 62
     7
370
    15
100
AcDbSpline
210
0.0
220
0.0
230
1.0
 70
     8
 71
     3
 72
     8
 73
     4
 74
     0
 42
0.00000001
 43
0.00000001
 12
1.0
 22
0.0
 32
0.0
 13
1.0
 23
0.0
 33
0.0
 40
0.0
 40
0.0
 40
0.0
 40
0.0
 40
1.0
 40
1.0
 40
1.0
 40
1.0
 10
142.2351043884304
 20
97.12883063635321
 30
0.0
 10
136.9630331594883
 20
93.98517472965045
 30
0.0
 10
131.6776331589381
 20
90.86359590413018
 30
0.0
 10
126.3868394991752
 20
87.75131145849346
 30
0.0
  0
SPLINE
  5
2ED
330
1F
100
AcDbEntity
  8
0
  6
Continuous
 62
     7
370
    15
100
AcDbSpline
210
0.0
220
0.0
230
1.0
 70
     8
 71
     3
 72
    10
 73
     6
 74
     0
 42
0.00000001
 43
0.00000001
 12
1.0
 22
0.0
 32
0.0
 13
1.0
 23
0.0
 33
0.0
 40
0.0
 40
0.0
 40
0.0
 40
0.0
 40
0.5
 40
0.5
 40
1.0
 40
1.0
 40
1.0
 40
1.0
 10
126.3868394991752
 20
97.34623272413118
 30
0.0
 10
126.5556860752564
 20
97.7787306681071
 30
0.0
 10
126.6465570924632
 20
98.1968197323479
 30
0.0
 10
126.646737015232
 20
99.00007595967791
 30
0.0
 10
126.5557025500666
 20
99.36261927728795
 30
0.0
 10
126.3868394991752
 20
99.68931923575472
 30
0.0
  0
SPLINE
  5
2EE
330
1F
100
AcDbEntity
  8
0
  6
Continuous
 62
     7
370
    15
100
AcDbSpline
210
0.0
220
0.0
230
1.0
 70
     8
 71
     3
 72
     8
 73
     4
 74
     0
 42
0.00000001
 43
0.00000001
 12
1.0
 22
0.0
 32
0.0
 13
1.0
 23
0.0
 33
0.0
 40
0.0
 40
0.0
 40
0.0
 40
0.0
 40
1.0
 40
1.0
 40
1.0
 40
1.0
 10
491.3868394991752
 20
87.75131145849346
 30
0.0
 10
486.0960795885789
 20
90.86357605134191
 30
0.0
 10
480.8105658538155
 20
93.98522242351746
 30
0.0
 10
475.53857460992
 20
97.12883063635321
 30
0.0
  0
LINE
  5
2EF
330
1F
100
AcDbEntity
  8
0
  6
Continuous
 62
     7
370
    15
100
AcDbLine
 10
475.5385801694
 20
97.128830188
 30
0.0
 11
475.5385801694
 21
118.6762059005
 31
0.0
  0
SPLINE
  5
2F0
330
1F
100
AcDbEntity
  8
0
  6
Continuous
 62
     7
370
    15
100
AcDbSpline
210
0.0
220
0.0
230
1.0
 70
     8
 71
     3
 72
    10
 73
     6
 74
     0
 42
0.00000001
 43
0.00000001
 12
1.0
 22
0.0
 32
0.0
 13
1.0
 23
0.0
 33
0.0
 40
0.0
 40
0.0
 40
0.0
 40
0.0
 40
0.5
 40
0.5
 40
1.0
 40
1.0
 40
1.0
 40
1.0
 10
491.3868394991752
 20
97.34623272413118
 30
0.0
 10
491.217992923094
 20
97.7787306681071
 30
0.0
 10
491.1271219058872
 20
98.1968197323479
 30
0.0
 10
491.1269419831184
 20
99.00007595967791
 30
0.0
 10
491.2179764482838
 20
99.36261927728795
 30
0.0
 10
491.3868394991752
 20
99.68931923575472
 30
0.0
  0
LINE
  5
2F1
330
1F
100
AcDbEntity
  8
0
  6
Continuous
 62
     7
370
    15
100
AcDbLine
 10
28.8868383071
 20
89.6762062694
 30
0.0
 11
28.8868383071
 21
162.6762051965
 31
0.0
  0
LINE
  5
2F2
330
1F
100
AcDbEntity
  8
0
  6
Continuous
 62
     7
370
    15
100
AcDbLine
 10
417.6710308096
 20
155.2235812778
 30
0.0
 11
475.5385801694
 21
155.2235812778
 31
0.0
  0
LINE
  5
2F3
330
1F
100
AcDbEntity
  8
0
  6
Continuous
 62
     7
370
    15
100
AcDbLine
 10
142.235098829
 20
155.2235812778
 30
0.0
 11
200.1026481888
 21
155.2235812778
 31
0.0
  0
LINE
  5
2F4
330
1F
100
AcDbEntity
  8
0
  6
Continuous
 62
     7
370
    15
100
AcDbLine
 10
200.1026481888
 20
97.128830188
 30
0.0
 11
142.235098829
 21
97.128830188
 31
0.0
  0
LINE
  5
2F5
330
1F
100
AcDbEntity
  8
0
  6
Continuous
 62
     7
370
    15
100
AcDbLine
 10
475.5385801694
 20
97.128830188
 30
0.0
 11
417.6710308096
 21
97.128830188
 31
0.0
  0
LINE
  5
2F6
330
1F
100
AcDbEntity
  8
0
  6
Continuous
 62
     7
370
    15
100
AcDbLine
 10
29.8868254325
 20
191.676204362
 30
0.0
 11
29.8868254325
 21
195.1762040044
 31
0.0
  0
LINE
  5
2F7
330
1F
100
AcDbEntity
  8
0
  6
Continuous
 62
     7
370
    15
100
AcDbLine
 10
108.8868365189
 20
191.676204362
 30
0.0
 11
108.8868365189
 21
195.1762040044
 31
0.0
  0
LINE
  5
2F8
330
1F
100
AcDbEntity
  8
0
  6
Continuous
 62
     7
370
    15
100
AcDbLine
 10
139.347015371
 20
222.1755807186
 30
0.0
 11
126.2121186158
 21
188.2245738889
 31
0.0
  0
CIRCLE
  5
2F9
330
1F
100
AcDbEntity
  8
0
  6
Continuous
 62
     7
370
    15
100
AcDbCircle
 10
158.8868394992
 20
184.1762057329
 30
0.0
 40
18.15616497644442
  0
LINE
  5
2FA
330
1F
100
AcDbEntity
  8
0
  6
Continuous
 62
     7
370
    15
100
AcDbLine
 10
478.4266636273
 20
222.1755807186
 30
0.0
 11
491.5615603825
 21
188.2245738889
 31
0.0
  0
CIRCLE
  5
2FB
330
1F
100
AcDbEntity
  8
0
  6
Continuous
 62
     7
370
    15
100
AcDbCircle
 10
458.8868394992
 20
184.1762057329
 30
0.0
 40
18.15616497644442
  0
CIRCLE
  5
2FC
330
1F
100
AcDbEntity
  8
0
  6
Continuous
 62
     7
370
    15
100
AcDbCircle
 10
458.8868394992
 20
184.1762057329
 30
0.0
 40
17.50000000000003
  0
CIRCLE
  5
2FD
330
1F
100
AcDbEntity
  8
0
  6
Continuous
 62
     7
370
    15
100
AcDbCircle
 10
158.8868394992
 20
184.1762057329
 30
0.0
 40
17.50000000000003
  0
LINE
  5
2FE
330
1F
100
AcDbEntity
  8
0
  6
Continuous
 62
     7
370
    15
100
AcDbLine
 10
139.347015371
 20
30.1768307472
 30
0.0
 11
126.2121186158
 21
64.127837577
 31
0.0
  0
CIRCLE
  5
2FF
330
1F
100
AcDbEntity
  8
0
  6
Continuous
 62
     7
370
    15
100
AcDbCircle
 10
158.8868394992
 20
68.1762057329
 30
0.0
 40
18.15616497644439
  0
LINE
  5
300
330
1F
100
AcDbEntity
  8
0
  6
Continuous
 62
     7
370
    15
100
AcDbLine
 10
478.4266636273
 20
30.1768307472
 30
0.0
 11
491.5615603825
 21
64.127837577
 31
0.0
  0
CIRCLE
  5
301
330
1F
100
AcDbEntity
  8
0
  6
Continuous
 62
     7
370
    15
100
AcDbCircle
 10
458.8868394992
 20
68.1762057329
 30
0.0
 40
18.15616497644439
  0
CIRCLE
  5
302
330
1F
100
AcDbEntity
  8
0
  6
Continuous
 62
     7
370
    15
100
AcDbCircle
 10
158.8868394992
 20
68.1762057329
 30
0.0
 40
17.50000000000001
  0
CIRCLE
  5
303
330
1F
100
AcDbEntity
  8
0
  6
Continuous
 62
     7
370
    15
100
AcDbCircle
 10
458.8868394992
 20
68.1762057329
 30
0.0
 40
17.50000000000001
  0
LINE
  5
304
330
1F
100
AcDbEntity
  8
0
  6
Continuous
 62
     8
370
     0
100
AcDbLine
 10
329.3725424013
 20
132.8885688345
 30
0.0
 11
331.1403099945
 21
132.8885688345
 31
0.0
  0
LINE
  5
305
330
1F
100
AcDbEntity
  8
0
  6
Continuous
 62
     8
370
     0
100
AcDbLine
 10
329.3725424013
 20
150.5842053229
 30
0.0
 11
331.1403099945
 21
150.5842053229
 31
0.0
  0
LINE
  5
306
330
1F
100
AcDbEntity
  8
0
  6
Continuous
 62
     8
370
     0
100
AcDbLine
 10
329.3725424013
 20
119.4638426314
 30
0.0
 11
331.1403099945
 21
119.4638426314
 31
0.0
  0
LINE
  5
307
330
1F
100
AcDbEntity
  8
0
  6
Continuous
 62
     8
370
     0
100
AcDbLine
 10
329.5484226695
 20
119.6855737726
 30
0.0
 11
331.3161884001
 21
119.6855737726
 31
0.0
  0
LINE
  5
308
330
1F
100
AcDbEntity
  8
0
  6
Continuous
 62
     8
370
     0
100
AcDbLine
 10
329.3725424013
 20
103.0642048354
 30
0.0
 11
331.1403099945
 21
103.0642048354
 31
0.0
  0
LINE
  5
309
330
1F
100
AcDbEntity
  8
0
  6
Continuous
 62
     8
370
     0
100
AcDbLine
 10
329.5484226695
 20
132.6668376932
 30
0.0
 11
331.3161884001
 21
132.6668376932
 31
0.0
  0
LINE
  5
30A
330
1F
100
AcDbEntity
  8
0
  6
Continuous
 62
     8
370
     0
100
AcDbLine
 10
346.3212349018
 20
126.3979368159
 30
0.0
 11
348.0890006325
 21
126.3979368159
 31
0.0
  0
LINE
  5
30B
330
1F
100
AcDbEntity
  8
0
  6
Continuous
 62
     8
370
     0
100
AcDbLine
 10
346.3212349018
 20
125.9544746499
 30
0.0
 11
348.0890006325
 21
125.9544746499
 31
0.0
  0
LINE
  5
30C
330
1F
100
AcDbEntity
  8
0
  6
Continuous
 62
     8
370
     0
100
AcDbLine
 10
336.9435504577
 20
146.0203447277
 30
0.0
 11
338.7113161883
 21
146.0203447277
 31
0.0
  0
LINE
  5
30D
330
1F
100
AcDbEntity
  8
0
  6
Continuous
 62
     8
370
     0
100
AcDbLine
 10
336.9435504577
 20
150.5842053229
 30
0.0
 11
338.7113161883
 21
150.5842053229
 31
0.0
  0
LINE
  5
30E
330
1F
100
AcDbEntity
  8
0
  6
Continuous
 62
     8
370
     0
100
AcDbLine
 10
336.9435504577
 20
137.2793161208
 30
0.0
 11
338.7113161883
 21
137.2793161208
 31
0.0
  0
LINE
  5
30F
330
1F
100
AcDbEntity
  8
0
  6
Continuous
 62
     8
370
     0
100
AcDbLine
 10
336.9435504577
 20
141.955250212
 30
0.0
 11
338.7113161883
 21
141.955250212
 31
0.0
  0
LINE
  5
310
330
1F
100
AcDbEntity
  8
0
  6
Continuous
 62
     8
370
     0
100
AcDbLine
 10
337.109063243
 20
137.0575849796
 30
0.0
 11
338.8768289736
 21
137.0575849796
 31
0.0
  0
LINE
  5
311
330
1F
100
AcDbEntity
  8
0
  6
Continuous
 62
     8
370
     0
100
AcDbLine
 10
336.9435504577
 20
103.0642048354
 30
0.0
 11
338.7113161883
 21
103.0642048354
 31
0.0
  0
LINE
  5
312
330
1F
100
AcDbEntity
  8
0
  6
Continuous
 62
     8
370
     0
100
AcDbLine
 10
336.9435504577
 20
115.073095345
 30
0.0
 11
338.7113161883
 21
115.073095345
 31
0.0
  0
LINE
  5
313
330
1F
100
AcDbEntity
  8
0
  6
Continuous
 62
     8
370
     0
100
AcDbLine
 10
337.109063243
 20
115.2948264862
 30
0.0
 11
338.8768289736
 21
115.2948264862
 31
0.0
  0
LINE
  5
314
330
1F
100
AcDbEntity
  8
0
  6
Continuous
 62
     8
370
     0
100
AcDbLine
 10
353.7898347279
 20
130.4348141784
 30
0.0
 11
355.5576041839
 21
130.4348141784
 31
0.0
  0
LINE
  5
315
330
1F
100
AcDbEntity
  8
0
  6
Continuous
 62
     8
370
     0
100
AcDbLine
 10
353.7898347279
 20
121.9175972874
 30
0.0
 11
355.5576041839
 21
121.9175972874
 31
0.0
  0
LINE
  5
316
330
1F
100
AcDbEntity
  8
0
  6
Continuous
 62
     8
370
     0
100
AcDbLine
 10
344.0443821749
 20
140.2937614257
 30
0.0
 11
344.9499443671
 21
140.2937614257
 31
0.0
  0
LINE
  5
317
330
1F
100
AcDbEntity
  8
0
  6
Continuous
 62
     8
370
     0
100
AcDbLine
 10
344.127910634
 20
106.10411995
 30
0.0
 11
344.3205193183
 21
106.10411995
 31
0.0
  0
LINE
  5
318
330
1F
100
AcDbEntity
  8
0
  6
Continuous
 62
     8
370
     0
100
AcDbLine
 10
353.7898347279
 20
101.5456591631
 30
0.0
 11
355.5576041839
 21
101.5456591631
 31
0.0
  0
LINE
  5
319
330
1F
100
AcDbEntity
  8
0
  6
Continuous
 62
     8
370
     0
100
AcDbLine
 10
347.1388392648
 20
113.2695174674
 30
0.0
 11
348.0447963378
 21
113.2695174674
 31
0.0
  0
LINE
  5
31A
330
1F
100
AcDbEntity
  8
0
  6
Continuous
 62
     8
370
     0
100
AcDbLine
 10
347.1388392648
 20
110.1937399144
 30
0.0
 11
348.0447963378
 21
110.1937399144
 31
0.0
  0
LINE
  5
31B
330
1F
100
AcDbEntity
  8
0
  6
Continuous
 62
     8
370
     0
100
AcDbLine
 10
348.8281392059
 20
144.0287114019
 30
0.0
 11
349.0916811427
 21
144.0287114019
 31
0.0
  0
LINE
  5
31C
330
1F
100
AcDbEntity
  8
0
  6
Continuous
 62
     8
370
     0
100
AcDbLine
 10
353.7536286315
 20
148.1171578998
 30
0.0
 11
355.5213943622
 21
148.1171578998
 31
0.0
  0
LINE
  5
31D
330
1F
100
AcDbEntity
  8
0
  6
Continuous
 62
     8
370
     0
100
AcDbLine
 10
29.8868254325
 20
99.7995690341
 30
0.0
 11
108.8868365189
 21
99.7995690341
 31
0.0
  0
LINE
  5
31E
330
1F
100
AcDbEntity
  8
0
  6
Continuous
 62
     8
370
     0
100
AcDbLine
 10
29.8868254325
 20
181.6762064482
 30
0.0
 11
108.8868365189
 21
181.6762064482
 31
0.0
  0
LINE
  5
31F
330
1F
100
AcDbEntity
  8
0
  6
Continuous
 62
     8
370
     0
100
AcDbLine
 10
29.8868254325
 20
95.9768679822
 30
0.0
 11
108.8868365189
 21
95.9768679822
 31
0.0
  0
LINE
  5
320
330
1F
100
AcDbEntity
  8
0
  6
Continuous
 62
     8
370
     0
100
AcDbLine
 10
29.8868254325
 20
31.176206925
 30
0.0
 11
41.8768361709
 21
31.176206925
 31
0.0
  0
LINE
  5
321
330
1F
100
AcDbEntity
  8
0
  6
Continuous
 62
     8
370
     0
100
AcDbLine
 10
89.8378924033
 20
31.176206925
 30
0.0
 11
93.1709096333
 21
31.176206925
 31
0.0
  0
INSERT
  5
32D
330
1F
100
AcDbEntity
  8
FORMAT
 62
     7
100
AcDbBlockReference
  2
SW_CENTERMARKSYMBOL_2
 10
68.3868394992
 20
55.1762057329
 30
0.0
  0
INSERT
  5
339
330
1F
100
AcDbEntity
  8
FORMAT
 62
     7
100
AcDbBlockReference
  2
SW_CENTERMARKSYMBOL_3
 10
308.8868394992
 20
126.1762057329
 30
0.0
  0
INSERT
  5
345
330
1F
100
AcDbEntity
  8
FORMAT
 62
     7
100
AcDbBlockReference
  2
SW_CENTERMARKSYMBOL_4
 10
458.8868394992
 20
184.1762057329
 30
0.0
  0
INSERT
  5
351
330
1F
100
AcDbEntity
  8
FORMAT
 62
     7
100
AcDbBlockReference
  2
SW_CENTERMARKSYMBOL_5
 10
458.8868394992
 20
68.1762057329
 30
0.0
  0
INSERT
  5
35D
330
1F
100
AcDbEntity
  8
FORMAT
 62
     7
100
AcDbBlockReference
  2
SW_CENTERMARKSYMBOL_6
 10
158.8868394992
 20
184.1762057329
 30
0.0
  0
INSERT
  5
369
330
1F
100
AcDbEntity
  8
FORMAT
 62
     7
100
AcDbBlockReference
  2
SW_CENTERMARKSYMBOL_7
 10
158.8868394992
 20
68.1762057329
 30
0.0
  0
ENDSEC
  0
SECTION
  2
OBJECTS
  0
DICTIONARY
  5
C
330
0
100
AcDbDictionary
281
     1
  3
ACAD_GROUP
350
D
  3
ACAD_LAYOUT
350
1A
  3
ACAD_MLINESTYLE
350
17
  3
ACAD_PLOTSETTINGS
350
19
  3
ACAD_PLOTSTYLENAME
350
E
  0
DICTIONARY
  5
D
102
{ACAD_REACTORS
330
C
102
}
330
C
100
AcDbDictionary
281
     1
  0
DICTIONARY
  5
1A
102
{ACAD_REACTORS
330
C
102
}
330
C
100
AcDbDictionary
281
     1
  3
Layout1
350
1E
  3
Layout2
350
26
  3
Model
350
22
  0
DICTIONARY
  5
17
102
{ACAD_REACTORS
330
C
102
}
330
C
100
AcDbDictionary
281
     1
  3
Standard
350
18
  0
DICTIONARY
  5
19
102
{ACAD_REACTORS
330
C
102
}
330
C
100
AcDbDictionary
281
     1
  0
ACDBDICTIONARYWDFLT
  5
E
102
{ACAD_REACTORS
330
C
102
}
330
C
100
AcDbDictionary
281
     1
  3
Normal
350
F
100
AcDbDictionaryWithDefault
340
F
  0
LAYOUT
  5
1E
102
{ACAD_REACTORS
330
1A
102
}
330
1A
100
AcDbPlotSettings
  1

  2
none_device
  4

  6

 40
0.0
 41
0.0
 42
0.0
 43
0.0
 44
0.0
 45
0.0
 46
0.0
 47
0.0
 48
0.0
 49
0.0
140
0.0
141
0.0
142
1.0
143
1.0
 70
   688
 72
     0
 73
     0
 74
     5
  7

 75
    16
147
1.0
148
0.0
149
0.0
100
AcDbLayout
  1
Layout1
 70
     1
 71
     1
 10
0.0
 20
0.0
 11
420.0
 21
297.0
 12
0.0
 22
0.0
 32
0.0
 14
1.0000000000E+20
 24
1.0000000000E+20
 34
1.0000000000E+20
 15
-1.0000000000E+20
 25
-1.0000000000E+20
 35
-1.0000000000E+20
146
0.0
 13
0.0
 23
0.0
 33
0.0
 16
1.0
 26
0.0
 36
0.0
 17
0.0
 27
1.0
 37
0.0
 76
     0
330
1B
  0
LAYOUT
  5
26
102
{ACAD_REACTORS
330
1A
102
}
330
1A
100
AcDbPlotSettings
  1

  2
none_device
  4

  6

 40
0.0
 41
0.0
 42
0.0
 43
0.0
 44
0.0
 45
0.0
 46
0.0
 47
0.0
 48
0.0
 49
0.0
140
0.0
141
0.0
142
1.0
143
1.0
 70
   688
 72
     0
 73
     0
 74
     5
  7

 75
    16
147
1.0
148
0.0
149
0.0
100
AcDbLayout
  1
Layout2
 70
     1
 71
     2
 10
0.0
 20
0.0
 11
0.0
 21
0.0
 12
0.0
 22
0.0
 32
0.0
 14
0.0
 24
0.0
 34
0.0
 15
0.0
 25
0.0
 35
0.0
146
0.0
 13
0.0
 23
0.0
 33
0.0
 16
1.0
 26
0.0
 36
0.0
 17
0.0
 27
1.0
 37
0.0
 76
     0
330
23
  0
LAYOUT
  5
22
102
{ACAD_REACTORS
330
1A
102
}
330
1A
100
AcDbPlotSettings
  1

  2
none_device
  4

  6

 40
0.0
 41
0.0
 42
0.0
 43
0.0
 44
0.0
 45
0.0
 46
0.0
 47
0.0
 48
0.0
 49
0.0
140
0.0
141
0.0
142
1.0
143
1.0
 70
  1712
 72
     0
 73
     0
 74
     0
  7

 75
     0
147
1.0
148
0.0
149
0.0
100
AcDbLayout
  1
Model
 70
     1
 71
     0
 10
0.0
 20
0.0
 11
841.0
 21
594.0
 12
0.0
 22
0.0
 32
0.0
 14
0.0
 24
0.0
 34
0.0
 15
841.0
 25
594.0
 35
0.0
146
0.0
 13
0.0
 23
0.0
 33
0.0
 16
1.0
 26
0.0
 36
0.0
 17
0.0
 27
1.0
 37
0.0
 76
     0
330
1F
331
29
  0
MLINESTYLE
  5
18
102
{ACAD_REACTORS
330
17
102
}
330
17
100
AcDbMlineStyle
  2
Standard
 70
     0
  3

 62
   256
 51
90.0
 52
90.0
 71
     2
 49
0.5
 62
   256
  6
BYLAYER
 49
-0.5
 62
   256
  6
BYLAYER
  0
ACDBPLACEHOLDER
  5
F
102
{ACAD_REACTORS
330
E
102
}
330
E
  0
ENDSEC
  0
EOF
