  0
SECTION
  2
HEADER
  9
$ACADVER
  1
AC1015
  9
$ACADMAINTVER
 70
     6
  9
$DWGCODEPAGE
  3
ANSI_1252
  9
$INSBASE
 10
0.0
 20
0.0
 30
0.0
  9
$EXTMIN
 10
0.0
 20
0.0
 30
0.0
  9
$EXTMAX
 10
431.8
 20
279.4
 30
0.0
  9
$LIMMIN
 10
0.0
 20
0.0
  9
$LIMMAX
 10
431.8
 20
279.4
  9
$ORTHOMODE
 70
     0
  9
$REGENMODE
 70
     1
  9
$FILLMODE
 70
     1
  9
$QTEXTMODE
 70
     0
  9
$MIRRTEXT
 70
     1
  9
$LTSCALE
 40
1.0
  9
$ATTMODE
 70
     1
  9
$TEXTSIZE
 40
2.5
  9
$TRACEWID
 40
1.0
  9
$TEXTSTYLE
  7
Standard
  9
$CLAYER
  8
0
  9
$CELTYPE
  6
ByLayer
  9
$CECOLOR
 62
   256
  9
$CELTSCALE
 40
1.0
  9
$DISPSILH
 70
     0
  9
$DIMSCALE
 40
1.0
  9
$DIMASZ
 40
2.5
  9
$DIMEXO
 40
1.0
  9
$DIMDLI
 40
3.75
  9
$DIMRND
 40
0.0
  9
$DIMDLE
 40
0.0
  9
$DIMEXE
 40
1.0
  9
$DIMTP
 40
0.0
  9
$DIMTM
 40
0.0
  9
$DIMTXT
 40
2.5
  9
$DIMCEN
 40
2.5
  9
$DIMTSZ
 40
0.0
  9
$DIMTOL
 70
     0
  9
$DIMLIM
 70
     0
  9
$DIMTIH
 70
     1
  9
$DIMTOH
 70
     1
  9
$DIMSE1
 70
     0
  9
$DIMSE2
 70
     0
  9
$DIMTAD
 70
     1
  9
$DIMZIN
 70
     0
  9
$DIMBLK
  1

  9
$DIMASO
 70
     1
  9
$DIMSHO
 70
     1
  9
$DIMPOST
  1

  9
$DIMAPOST
  1

  9
$DIMALT
 70
     0
  9
$DIMALTD
 70
     3
  9
$DIMALTF
 40
0.0393700787
  9
$DIMLFAC
 40
1.0
  9
$DIMTOFL
 70
     1
  9
$DIMTVP
 40
0.0
  9
$DIMTIX
 70
     0
  9
$DIMSOXD
 70
     0
  9
$DIMSAH
 70
     0
  9
$DIMBLK1
  1

  9
$DIMBLK2
  1

  9
$DIMSTYLE
  2
ISO-25
  9
$DIMCLRD
 70
     0
  9
$DIMCLRE
 70
     0
  9
$DIMCLRT
 70
     0
  9
$DIMTFAC
 40
1.0
  9
$DIMGAP
 40
1.524
  9
$DIMJUST
 70
     0
  9
$DIMSD1
 70
     0
  9
$DIMSD2
 70
     0
  9
$DIMTOLJ
 70
     0
  9
$DIMTZIN
 70
     0
  9
$DIMALTZ
 70
     0
  9
$DIMALTTZ
 70
     0
  9
$DIMUPT
 70
     0
  9
$DIMDEC
 70
     2
  9
$DIMTDEC
 70
     2
  9
$DIMALTU
 70
     2
  9
$DIMALTTD
 70
     3
  9
$DIMTXSTY
  7
Standard
  9
$DIMAUNIT
 70
     0
  9
$DIMADEC
 70
     2
  9
$DIMALTRND
 40
0.0
  9
$DIMAZIN
 70
     0
  9
$DIMDSEP
 70
    44
  9
$DIMATFIT
 70
     3
  9
$DIMFRAC
 70
     0
  9
$DIMLDRBLK
  1

  9
$DIMLUNIT
 70
     2
  9
$DIMLWD
 70
    -2
  9
$DIMLWE
 70
    -2
  9
$DIMTMOVE
 70
     0
  9
$LUNITS
 70
     2
  9
$LUPREC
 70
     2
  9
$SKETCHINC
 40
1.0
  9
$FILLETRAD
 40
10.0
  9
$AUNITS
 70
     0
  9
$AUPREC
 70
     2
  9
$MENU
  1
.
  9
$ELEVATION
 40
0.0
  9
$PELEVATION
 40
0.0
  9
$THICKNESS
 40
0.0
  9
$LIMCHECK
 70
     0
  9
$CHAMFERA
 40
10.0
  9
$CHAMFERB
 40
10.0
  9
$CHAMFERC
 40
20.0
  9
$CHAMFERD
 40
0.0
  9
$SKPOLY
 70
     0
  9
$TDCREATE
 40
2457199.39004941
  9
$TDUCREATE
 40
2457199.056716077
  9
$TDUPDATE
 40
2457199.390049942
  9
$TDUUPDATE
 40
2457199.056716609
  9
$TDINDWG
 40
0.0000000116
  9
$TDUSRTIMER
 40
0.0000000116
  9
$USRTIMER
 70
     1
  9
$ANGBASE
 50
0.0
  9
$ANGDIR
 70
     0
  9
$PDMODE
 70
     0
  9
$PDSIZE
 40
-1.0
  9
$PLINEWID
 40
0.0
  9
$SPLFRAME
 70
     0
  9
$SPLINETYPE
 70
     6
  9
$SPLINESEGS
 70
     8
  9
$HANDSEED
  5
38E
  9
$SURFTAB1
 70
     6
  9
$SURFTAB2
 70
     6
  9
$SURFTYPE
 70
     6
  9
$SURFU
 70
     6
  9
$SURFV
 70
     6
  9
$UCSBASE
  2

  9
$UCSNAME
  2

  9
$UCSORG
 10
0.0
 20
0.0
 30
0.0
  9
$UCSXDIR
 10
1.0
 20
0.0
 30
0.0
  9
$UCSYDIR
 10
0.0
 20
1.0
 30
0.0
  9
$UCSORTHOREF
  2

  9
$UCSORTHOVIEW
 70
     0
  9
$UCSORGTOP
 10
0.0
 20
0.0
 30
0.0
  9
$UCSORGBOTTOM
 10
0.0
 20
0.0
 30
0.0
  9
$UCSORGLEFT
 10
0.0
 20
0.0
 30
0.0
  9
$UCSORGRIGHT
 10
0.0
 20
0.0
 30
0.0
  9
$UCSORGFRONT
 10
0.0
 20
0.0
 30
0.0
  9
$UCSORGBACK
 10
0.0
 20
0.0
 30
0.0
  9
$PUCSBASE
  2

  9
$PUCSNAME
  2

  9
$PUCSORG
 10
0.0
 20
0.0
 30
0.0
  9
$PUCSXDIR
 10
1.0
 20
0.0
 30
0.0
  9
$PUCSYDIR
 10
0.0
 20
1.0
 30
0.0
  9
$PUCSORTHOREF
  2

  9
$PUCSORTHOVIEW
 70
     0
  9
$PUCSORGTOP
 10
0.0
 20
0.0
 30
0.0
  9
$PUCSORGBOTTOM
 10
0.0
 20
0.0
 30
0.0
  9
$PUCSORGLEFT
 10
0.0
 20
0.0
 30
0.0
  9
$PUCSORGRIGHT
 10
0.0
 20
0.0
 30
0.0
  9
$PUCSORGFRONT
 10
0.0
 20
0.0
 30
0.0
  9
$PUCSORGBACK
 10
0.0
 20
0.0
 30
0.0
  9
$USERI1
 70
     0
  9
$USERI2
 70
     0
  9
$USERI3
 70
     0
  9
$USERI4
 70
     0
  9
$USERI5
 70
     0
  9
$USERR1
 40
0.0
  9
$USERR2
 40
0.0
  9
$USERR3
 40
0.0
  9
$USERR4
 40
0.0
  9
$USERR5
 40
0.0
  9
$WORLDVIEW
 70
     1
  9
$SHADEDGE
 70
     3
  9
$SHADEDIF
 70
    70
  9
$TILEMODE
 70
     1
  9
$MAXACTVP
 70
    64
  9
$PINSBASE
 10
0.0
 20
0.0
 30
0.0
  9
$PLIMCHECK
 70
     0
  9
$PEXTMIN
 10
1.0000000000E+20
 20
1.0000000000E+20
 30
1.0000000000E+20
  9
$PEXTMAX
 10
-1.0000000000E+20
 20
-1.0000000000E+20
 30
-1.0000000000E+20
  9
$PLIMMIN
 10
0.0
 20
0.0
  9
$PLIMMAX
 10
420.0
 20
297.0
  9
$UNITMODE
 70
     0
  9
$VISRETAIN
 70
     1
  9
$PLINEGEN
 70
     0
  9
$PSLTSCALE
 70
     1
  9
$TREEDEPTH
 70
  3020
  9
$CMLSTYLE
  2
Standard
  9
$CMLJUST
 70
     0
  9
$CMLSCALE
 40
20.0
  9
$PROXYGRAPHICS
 70
     1
  9
$MEASUREMENT
 70
     1
  9
$CELWEIGHT
370
    -1
  9
$ENDCAPS
280
     0
  9
$JOINSTYLE
280
     0
  9
$LWDISPLAY
290
     1
  9
$INSUNITS
 70
     4
  9
$HYPERLINKBASE
  1

  9
$STYLESHEET
  1

  9
$XEDIT
290
     1
  9
$CEPSNTYPE
380
     0
  9
$PSTYLEMODE
290
     1
  9
$FINGERPRINTGUID
  2
{9E886857-FBA7-4E02-8F1B-B9EC9E8C8A12}
  9
$VERSIONGUID
  2
{FAEB1C32-E019-11D5-929B-00C0DF256EC4}
  9
$EXTNAMES
290
     1
  9
$PSVPSCALE
 40
0.0
  9
$OLESTARTUP
290
     0
  0
ENDSEC
  0
SECTION
  2
CLASSES
  0
CLASS
  1
ACDBDICTIONARYWDFLT
  2
AcDbDictionaryWithDefault
  3
ObjectDBX Classes
 90
        0
280
     0
281
     0
  0
CLASS
  1
VISUALSTYLE
  2
AcDbVisualStyle
  3
ObjectDBX Classes
 90
     4095
280
     0
281
     0
  0
CLASS
  1
MATERIAL
  2
AcDbMaterial
  3
ObjectDBX Classes
 90
     1153
280
     0
281
     0
  0
CLASS
  1
ACDBPLACEHOLDER
  2
AcDbPlaceHolder
  3
ObjectDBX Classes
 90
        0
280
     0
281
     0
  0
CLASS
  1
LAYOUT
  2
AcDbLayout
  3
ObjectDBX Classes
 90
        0
280
     0
281
     0
  0
ENDSEC
  0
SECTION
  2
TABLES
  0
TABLE
  2
VPORT
  5
8
330
0
100
AcDbSymbolTable
 70
     1
  0
VPORT
  5
29
330
8
100
AcDbSymbolTableRecord
100
AcDbViewportTableRecord
  2
*Active
 70
     0
 10
0.0
 20
0.0
 11
1.0
 21
1.0
 12
215.9
 22
139.7
 13
0.0
 23
0.0
 14
10.0
 24
10.0
 15
10.0
 25
10.0
 16
0.0
 26
0.0
 36
1.0
 17
0.0
 27
0.0
 37
0.0
 40
279.4
 41
1.5454545455
 42
50.0
 43
0.0
 44
0.0
 50
0.0
 51
0.0
 71
     0
 72
  2000
 73
     1
 74
     3
 75
     0
 76
     0
 77
     0
 78
     0
281
     0
 65
     1
110
0.0
120
0.0
130
0.0
111
1.0
121
0.0
131
0.0
112
0.0
122
1.0
132
0.0
 79
     0
146
0.0
  0
ENDTAB
  0
TABLE
  2
LTYPE
  5
5
330
0
100
AcDbSymbolTable
 70
     6
  0
LTYPE
  5
14
330
5
100
AcDbSymbolTableRecord
100
AcDbLinetypeTableRecord
  2
ByBlock
 70
     0
  3

 72
    65
 73
     0
 40
0.0
  0
LTYPE
  5
15
330
5
100
AcDbSymbolTableRecord
100
AcDbLinetypeTableRecord
  2
ByLayer
 70
     0
  3

 72
    65
 73
     0
 40
0.0
  0
LTYPE
  5
16
330
5
100
AcDbSymbolTableRecord
100
AcDbLinetypeTableRecord
  2
Continuous
 70
     0
  3
Solid line
 72
    65
 73
     0
 40
0.0
  0
LTYPE
  5
3F
330
5
100
AcDbSymbolTableRecord
100
AcDbLinetypeTableRecord
  2
HIDDEN
 70
     0
  3
Hidden __ __ __ __ __ __ __ __ __ __ __ __ __ __
 72
    65
 73
     2
 40
1.905
 49
1.27
 74
     0
 49
-0.635
 74
     0
  0
LTYPE
  5
40
330
5
100
AcDbSymbolTableRecord
100
AcDbLinetypeTableRecord
  2
PHANTOM
 70
     0
  3
Phantom ______  __  __  ______  __  __  ______
 72
    65
 73
     6
 40
12.7
 49
6.35
 74
     0
 49
-1.27
 74
     0
 49
1.27
 74
     0
 49
-1.27
 74
     0
 49
1.27
 74
     0
 49
-1.27
 74
     0
  0
LTYPE
  5
41
330
5
100
AcDbSymbolTableRecord
100
AcDbLinetypeTableRecord
  2
CENTER
 70
     0
  3
Center ____ _ ____ _ ____ _ ____ _ ____ _ ____
 72
    65
 73
     4
 40
10.16
 49
6.35
 74
     0
 49
-1.27
 74
     0
 49
1.27
 74
     0
 49
-1.27
 74
     0
  0
LTYPE
  5
42
330
5
100
AcDbSymbolTableRecord
100
AcDbLinetypeTableRecord
  2
CENTERX2
 70
     0
  3
Center (2x) ________  __  ________  __  _____
 72
    65
 73
     4
 40
20.32
 49
12.7
 74
     0
 49
-2.54
 74
     0
 49
2.54
 74
     0
 49
-2.54
 74
     0
  0
LTYPE
  5
43
330
5
100
AcDbSymbolTableRecord
100
AcDbLinetypeTableRecord
  2
DOT2
 70
     0
  3
Dot (.5x) ........................................
 72
    65
 73
     2
 40
0.635
 49
0.0
 74
     0
 49
-0.635
 74
     0
  0
ENDTAB
  0
TABLE
  2
LAYER
  5
2
330
0
100
AcDbSymbolTable
 70
     3
  0
LAYER
  5
10
330
2
100
AcDbSymbolTableRecord
100
AcDbLayerTableRecord
  2
0
 70
     0
 62
     7
  6
Continuous
370
    -3
390
F
  0
LAYER
  5
44
330
2
100
AcDbSymbolTableRecord
100
AcDbLayerTableRecord
  2
FORMAT
 70
     0
 62
     7
  6
Continuous
370
    -3
390
F
  0
LAYER
  5
45
330
2
100
AcDbSymbolTableRecord
100
AcDbLayerTableRecord
  2
PROTOTYPE
 70
     0
 62
     7
  6
Continuous
370
    -3
390
F
  0
ENDTAB
  0
TABLE
  2
STYLE
  5
3
330
0
100
AcDbSymbolTable
 70
     1
  0
STYLE
  5
11
330
3
100
AcDbSymbolTableRecord
100
AcDbTextStyleTableRecord
  2
Standard
 70
     0
 40
0.0
 41
1.0
 50
0.0
 71
     0
 42
2.5
  3
txt
  4

  0
ENDTAB
  0
TABLE
  2
VIEW
  5
6
330
0
100
AcDbSymbolTable
 70
     0
  0
ENDTAB
  0
TABLE
  2
UCS
  5
7
330
0
100
AcDbSymbolTable
 70
     0
  0
ENDTAB
  0
TABLE
  2
APPID
  5
9
330
0
100
AcDbSymbolTable
 70
     1
  0
APPID
  5
12
330
9
100
AcDbSymbolTableRecord
100
AcDbRegAppTableRecord
  2
ACAD
 70
     0
  0
ENDTAB
  0
TABLE
  2
DIMSTYLE
  5
A
330
0
100
AcDbSymbolTable
 70
     1
100
AcDbDimStyleTable
  0
DIMSTYLE
105
27
330
A
100
AcDbSymbolTableRecord
100
AcDbDimStyleTableRecord
  2
ISO-25
 70
     0
 41
2.5
 42
0.625
 43
3.75
 44
1.25
 73
     0
 74
     0
 77
     1
 78
     8
140
2.5
141
2.5
143
0.0393700787
147
0.625
171
     3
172
     1
178
     0
271
     2
272
     2
274
     3
278
    44
283
     0
284
     8
340
11
  0
ENDTAB
  0
TABLE
  2
BLOCK_RECORD
  5
1
330
0
100
AcDbSymbolTable
 70
     2
  0
BLOCK_RECORD
  5
1F
330
1
100
AcDbSymbolTableRecord
100
AcDbBlockTableRecord
  2
*Model_Space
340
22
  0
BLOCK_RECORD
  5
1B
330
1
100
AcDbSymbolTableRecord
100
AcDbBlockTableRecord
  2
*Paper_Space
340
1E
  0
BLOCK_RECORD
  5
23
330
1
100
AcDbSymbolTableRecord
100
AcDbBlockTableRecord
  2
*Paper_Space0
340
26
  0
BLOCK_RECORD
  5
382
330
1
100
AcDbSymbolTableRecord
100
AcDbBlockTableRecord
  2
SW_CENTERMARKSYMBOL_0
340
0
102
{BLKREFS
331
38D
102
}
  0
ENDTAB
  0
ENDSEC
  0
SECTION
  2
BLOCKS
  0
BLOCK
  5
20
330
1F
100
AcDbEntity
  8
0
100
AcDbBlockBegin
  2
*Model_Space
 70
     0
 10
0.0
 20
0.0
 30
0.0
  3
*Model_Space
  1

  0
ENDBLK
  5
21
330
1F
100
AcDbEntity
  8
0
100
AcDbBlockEnd
  0
BLOCK
  5
1C
330
1B
100
AcDbEntity
 67
     1
  8
0
100
AcDbBlockBegin
  2
*Paper_Space
 70
     0
 10
0.0
 20
0.0
 30
0.0
  3
*Paper_Space
  1

  0
ENDBLK
  5
1D
330
1B
100
AcDbEntity
 67
     1
  8
0
100
AcDbBlockEnd
  0
BLOCK
  5
24
330
23
100
AcDbEntity
  8
0
100
AcDbBlockBegin
  2
*Paper_Space0
 70
     0
 10
0.0
 20
0.0
 30
0.0
  3
*Paper_Space0
  1

  0
ENDBLK
  5
25
330
23
100
AcDbEntity
  8
0
100
AcDbBlockEnd
  0
BLOCK
  5
383
330
382
100
AcDbEntity
  8
0
100
AcDbBlockBegin
  2
SW_CENTERMARKSYMBOL_0
 70
     0
 10
0.0
 20
0.0
 30
0.0
  3
SW_CENTERMARKSYMBOL_0
  1

  0
LINE
  5
385
330
382
100
AcDbEntity
  8
0
  6
Continuous
 62
     0
370
     0
100
AcDbLine
 10
0.0
 20
0.0
 30
0.0
 11
0.0
 21
2.5
 31
0.0
  0
LINE
  5
386
330
382
100
AcDbEntity
  8
0
  6
Continuous
 62
     0
370
     0
100
AcDbLine
 10
0.0
 20
0.0
 30
0.0
 11
-2.5
 21
0.0
 31
0.0
  0
LINE
  5
387
330
382
100
AcDbEntity
  8
0
  6
Continuous
 62
     0
370
     0
100
AcDbLine
 10
0.0
 20
0.0
 30
0.0
 11
0.0
 21
-2.5
 31
0.0
  0
LINE
  5
388
330
382
100
AcDbEntity
  8
0
  6
Continuous
 62
     0
370
     0
100
AcDbLine
 10
0.0
 20
0.0
 30
0.0
 11
2.5
 21
0.0
 31
0.0
  0
LINE
  5
389
330
382
100
AcDbEntity
  8
0
  6
Continuous
 62
     0
370
     0
100
AcDbLine
 10
0.0
 20
5.0
 30
0.0
 11
0.0
 21
184.7828375149
 31
0.0
  0
LINE
  5
38A
330
382
100
AcDbEntity
  8
0
  6
Continuous
 62
     0
370
     0
100
AcDbLine
 10
-5.0
 20
0.0
 30
0.0
 11
-183.6374959742
 21
0.0
 31
0.0
  0
LINE
  5
38B
330
382
100
AcDbEntity
  8
0
  6
Continuous
 62
     0
370
     0
100
AcDbLine
 10
0.0
 20
-5.0
 30
0.0
 11
0.0
 21
-187.5798888583
 31
0.0
  0
LINE
  5
38C
330
382
100
AcDbEntity
  8
0
  6
Continuous
 62
     0
370
     0
100
AcDbLine
 10
5.0
 20
0.0
 30
0.0
 11
183.7892714389
 21
0.0
 31
0.0
  0
ENDBLK
  5
384
330
382
100
AcDbEntity
  8
0
100
AcDbBlockEnd
  0
ENDSEC
  0
SECTION
  2
ENTITIES
  0
LINE
  5
46
330
1F
100
AcDbEntity
  8
0
  6
Continuous
 62
     7
370
    15
100
AcDbLine
 10
53.7239024207
 20
396.6201200019
 30
0.0
 11
53.7239024207
 21
413.6201199945
 31
0.0
  0
LINE
  5
47
330
1F
100
AcDbEntity
  8
0
  6
Continuous
 62
     7
370
    15
100
AcDbLine
 10
-289.2760923341
 20
413.6201199945
 30
0.0
 11
-289.2760923341
 21
396.6201200019
 31
0.0
  0
LINE
  5
48
330
1F
100
AcDbEntity
  8
0
  6
Continuous
 62
     7
370
    15
100
AcDbLine
 10
-147.4975021765
 20
403.620120218
 30
0.0
 11
-147.4975021765
 21
396.6201200019
 31
0.0
  0
LINE
  5
49
330
1F
100
AcDbEntity
  8
0
  6
Continuous
 62
     7
370
    15
100
AcDbLine
 10
-173.9930277899
 20
403.620120218
 30
0.0
 11
-173.9930277899
 21
402.4913200046
 31
0.0
  0
ARC
  5
4A
330
1F
100
AcDbEntity
  8
0
  6
Continuous
 62
     7
370
    15
100
AcDbCircle
 10
-158.9930278893
 20
419.4927916329
 30
0.0
 40
22.67267151925524
100
AcDbArc
 50
228.5787947176
 51
300.4656175796
  0
LINE
  5
4B
330
1F
100
AcDbEntity
  8
0
  6
Continuous
 62
     7
370
    15
100
AcDbLine
 10
-146.9930270895
 20
540.3701272662
 30
0.0
 11
-146.9930270895
 21
542.870124882
 31
0.0
  0
LINE
  5
4C
330
1F
100
AcDbEntity
  8
0
  6
Continuous
 62
     7
370
    15
100
AcDbLine
 10
-170.9930291608
 20
542.870124882
 30
0.0
 11
-170.9930291608
 21
540.3701272662
 31
0.0
  0
LINE
  5
4D
330
1F
100
AcDbEntity
  8
0
  6
Continuous
 62
     7
370
    15
100
AcDbLine
 10
-150.9930296078
 20
561.6201219018
 30
0.0
 11
-150.9930296078
 21
562.1201154645
 31
0.0
  0
LINE
  5
4E
330
1F
100
AcDbEntity
  8
0
  6
Continuous
 62
     7
370
    15
100
AcDbLine
 10
-166.9930285052
 20
562.1201154645
 30
0.0
 11
-166.9930285052
 21
561.6201219018
 31
0.0
  0
LINE
  5
4F
330
1F
100
AcDbEntity
  8
0
  6
Continuous
 62
     7
370
    15
100
AcDbLine
 10
-175.3775244787
 20
396.6201200019
 30
0.0
 11
-175.3775244787
 21
403.620120218
 31
0.0
  0
LINE
  5
50
330
1F
100
AcDbEntity
  8
0
  6
Continuous
 62
     7
370
    15
100
AcDbLine
 10
-152.4930289224
 20
562.1201154645
 30
0.0
 11
-152.4930289224
 21
573.6201164182
 31
0.0
  0
LINE
  5
51
330
1F
100
AcDbEntity
  8
0
  6
Continuous
 62
     7
370
    15
100
AcDbLine
 10
-165.4930291906
 20
573.6201164182
 30
0.0
 11
-165.4930291906
 21
562.1201154645
 31
0.0
  0
LINE
  5
52
330
1F
100
AcDbEntity
  8
0
  6
Continuous
 62
     7
370
    15
100
AcDbLine
 10
-152.9930262104
 20
413.6201199945
 30
0.0
 11
-152.9930262104
 21
531.6654947456
 31
0.0
  0
LINE
  5
53
330
1F
100
AcDbEntity
  8
0
  6
Continuous
 62
     7
370
    15
100
AcDbLine
 10
-152.9930262104
 20
540.3517392333
 30
0.0
 11
-152.9930262104
 21
540.3701272662
 31
0.0
  0
LINE
  5
54
330
1F
100
AcDbEntity
  8
0
  6
Continuous
 62
     7
370
    15
100
AcDbLine
 10
-164.9930281773
 20
540.3701272662
 30
0.0
 11
-164.9930281773
 21
540.3517392333
 31
0.0
  0
LINE
  5
55
330
1F
100
AcDbEntity
  8
0
  6
Continuous
 62
     7
370
    15
100
AcDbLine
 10
-164.9930281773
 20
535.3517291005
 30
0.0
 11
-164.9930281773
 21
413.6201199945
 31
0.0
  0
LINE
  5
56
330
1F
100
AcDbEntity
  8
0
  6
Continuous
 62
     7
370
    15
100
AcDbLine
 10
-152.9930262104
 20
552.8701153453
 30
0.0
 11
-152.9930262104
 21
561.6201219018
 31
0.0
  0
LINE
  5
57
330
1F
100
AcDbEntity
  8
0
  6
Continuous
 62
     7
370
    15
100
AcDbLine
 10
-164.9930281773
 20
561.6201219018
 30
0.0
 11
-164.9930281773
 21
552.8701153453
 31
0.0
  0
ARC
  5
58
330
1F
100
AcDbEntity
  8
0
  6
Continuous
 62
     7
370
    15
100
AcDbCircle
 10
19.7239050433
 20
506.0958000027
 30
0.0
 40
3.000000000000024
100
AcDbArc
 50
310.0
 51
40.0
  0
ARC
  5
59
330
1F
100
AcDbEntity
  8
0
  6
Continuous
 62
     7
370
    15
100
AcDbCircle
 10
-255.2760949567
 20
506.0958000027
 30
0.0
 40
3.00000000000003
100
AcDbArc
 50
140.0
 51
230.0
  0
LINE
  5
5A
330
1F
100
AcDbEntity
  8
0
  6
Continuous
 62
     7
370
    15
100
AcDbLine
 10
-267.7628090814
 20
531.3980487044
 30
0.0
 11
-266.6932335332
 21
510.9892767723
 31
0.0
  0
LINE
  5
5B
330
1F
100
AcDbEntity
  8
0
  6
Continuous
 62
     7
370
    15
100
AcDbLine
 10
-245.2760925725
 20
539.5825412925
 30
0.0
 11
-267.7628090814
 21
531.3980487044
 31
0.0
  0
ARC
  5
5C
330
1F
100
AcDbEntity
  8
0
  6
Continuous
 62
     7
370
    15
100
AcDbCircle
 10
20.4899494864
 20
506.7385876124
 30
0.0
 40
2.000000000000004
100
AcDbArc
 50
40.0
 51
70.1806389043
  0
ARC
  5
5D
330
1F
100
AcDbEntity
  8
0
  6
Continuous
 62
     7
370
    15
100
AcDbCircle
 10
-256.0421393998
 20
506.7385876124
 30
0.0
 40
2.000000000000037
100
AcDbArc
 50
109.8193610957
 51
140.0
  0
ARC
  5
5E
330
1F
100
AcDbEntity
  8
0
  6
Continuous
 62
     7
370
    15
100
AcDbCircle
 10
-264.1966619592
 20
511.1201201137
 30
0.0
 40
2.500000000000057
100
AcDbArc
 50
183.0
 51
270.0
  0
LINE
  5
5F
330
1F
100
AcDbEntity
  8
0
  6
Continuous
 62
     7
370
    15
100
AcDbLine
 10
-257.204457207
 20
503.7976634558
 30
0.0
 11
-247.3932197526
 21
495.5650624688
 31
0.0
  0
LINE
  5
60
330
1F
100
AcDbEntity
  8
0
  6
Continuous
 62
     7
370
    15
100
AcDbLine
 10
11.8410298392
 20
495.5650624688
 30
0.0
 11
21.6522672936
 21
503.7976634558
 31
0.0
  0
LINE
  5
61
330
1F
100
AcDbEntity
  8
0
  6
Continuous
 62
     7
370
    15
100
AcDbLine
 10
-252.2789528802
 20
394.1229745615
 30
0.0
 11
-249.7760942415
 21
391.6201201137
 31
0.0
  0
LINE
  5
62
330
1F
100
AcDbEntity
  8
0
  6
Continuous
 62
     7
370
    15
100
AcDbLine
 10
14.223904328
 20
391.6201201137
 30
0.0
 11
16.7267629668
 21
394.1229745615
 31
0.0
  0
ARC
  5
63
330
1F
100
AcDbEntity
  8
0
  6
Continuous
 62
     7
370
    15
100
AcDbCircle
 10
8.3076642418
 20
444.8699758712
 30
0.0
 40
5.000000000000008
100
AcDbArc
 50
273.0
 51
4.0
  0
ARC
  5
64
330
1F
100
AcDbEntity
  8
0
  6
Continuous
 62
     7
370
    15
100
AcDbCircle
 10
-243.8598541552
 20
444.8699758712
 30
0.0
 40
5.000000000000012
100
AcDbArc
 50
176.0
 51
267.0
  0
LINE
  5
65
330
1F
100
AcDbEntity
  8
0
  6
Continuous
 62
     7
370
    15
100
AcDbLine
 10
13.2954874799
 20
445.2187587376
 30
0.0
 11
10.0671509072
 21
491.3860616143
 31
0.0
  0
LINE
  5
66
330
1F
100
AcDbEntity
  8
0
  6
Continuous
 62
     7
370
    15
100
AcDbLine
 10
-245.6193408206
 20
491.3860616143
 30
0.0
 11
-248.8476773933
 21
445.2187587376
 31
0.0
  0
ARC
  5
67
330
1F
100
AcDbEntity
  8
0
  6
Continuous
 62
     7
370
    15
100
AcDbCircle
 10
15.0549725323
 20
491.73484214
 30
0.0
 40
5.000000000000002
100
AcDbArc
 50
130.0
 51
184.0
  0
ARC
  5
68
330
1F
100
AcDbEntity
  8
0
  6
Continuous
 62
     7
370
    15
100
AcDbCircle
 10
-250.6071624457
 20
491.73484214
 30
0.0
 40
5.000000000000004
100
AcDbArc
 50
356.0
 51
50.0
  0
ARC
  5
69
330
1F
100
AcDbEntity
  8
0
  6
Continuous
 62
     7
370
    15
100
AcDbCircle
 10
-243.2760949567
 20
541.3517331591
 30
0.0
 40
2.0
100
AcDbArc
 50
90.0
 51
180.0
  0
ARC
  5
6A
330
1F
100
AcDbEntity
  8
0
  6
Continuous
 62
     7
370
    15
100
AcDbCircle
 10
7.7239050433
 20
541.3517331591
 30
0.0
 40
2.000000000000003
100
AcDbArc
 50
0.0
 51
90.0
  0
LINE
  5
6B
330
1F
100
AcDbEntity
  8
0
  6
Continuous
 62
     7
370
    15
100
AcDbLine
 10
-245.2760925725
 20
541.3517263587
 30
0.0
 11
-245.2760925725
 21
539.5825412925
 31
0.0
  0
LINE
  5
6C
330
1F
100
AcDbEntity
  8
0
  6
Continuous
 62
     7
370
    15
100
AcDbLine
 10
9.7239026591
 20
540.3517392333
 30
0.0
 11
9.7239026591
 21
541.3517263587
 31
0.0
  0
LINE
  5
6D
330
1F
100
AcDbEntity
  8
0
  6
Continuous
 62
     7
370
    15
100
AcDbLine
 10
-244.1215357021
 20
439.8768265601
 30
0.0
 11
-243.1190898851
 21
439.8242925163
 31
0.0
  0
LINE
  5
6E
330
1F
100
AcDbEntity
  8
0
  6
Continuous
 62
     7
370
    15
100
AcDbLine
 10
7.5668999717
 20
439.8242925163
 30
0.0
 11
8.5693457886
 21
439.8768265601
 31
0.0
  0
ARC
  5
6F
330
1F
100
AcDbEntity
  8
0
  6
Continuous
 62
     7
370
    15
100
AcDbCircle
 10
7.7239050433
 20
415.7337012232
 30
0.0
 40
3.000000000000003
100
AcDbArc
 50
180.0
 51
224.791346703
  0
ARC
  5
70
330
1F
100
AcDbEntity
  8
0
  6
Continuous
 62
     7
370
    15
100
AcDbCircle
 10
-243.2760949567
 20
415.7337012232
 30
0.0
 40
3.0
100
AcDbArc
 50
315.208653297
 51
0.0
  0
ARC
  5
71
330
1F
100
AcDbEntity
  8
0
  6
Continuous
 62
     7
370
    15
100
AcDbCircle
 10
7.7239050433
 20
436.82840358
 30
0.0
 40
3.000000000000087
100
AcDbArc
 50
93.0
 51
180.0
  0
ARC
  5
72
330
1F
100
AcDbEntity
  8
0
  6
Continuous
 62
     7
370
    15
100
AcDbCircle
 10
-243.2760949567
 20
436.82840358
 30
0.0
 40
3.000000000000087
100
AcDbArc
 50
0.0
 51
87.0
  0
LINE
  5
73
330
1F
100
AcDbEntity
  8
0
  6
Continuous
 62
     7
370
    15
100
AcDbLine
 10
4.7239074275
 20
415.7337006982
 30
0.0
 11
4.7239074275
 21
436.8284028824
 31
0.0
  0
LINE
  5
74
330
1F
100
AcDbEntity
  8
0
  6
Continuous
 62
     7
370
    15
100
AcDbLine
 10
-240.2760973409
 20
436.8284028824
 30
0.0
 11
-240.2760973409
 21
415.7337006982
 31
0.0
  0
LINE
  5
75
330
1F
100
AcDbEntity
  8
0
  6
Continuous
 62
     7
370
    15
100
AcDbLine
 10
-269.5148429111
 20
396.6201200019
 30
0.0
 11
-269.5148429111
 21
394.6201201398
 31
0.0
  0
LINE
  5
76
330
1F
100
AcDbEntity
  8
0
  6
Continuous
 62
     7
370
    15
100
AcDbLine
 10
33.9626529977
 20
394.6201201398
 30
0.0
 11
33.9626529977
 21
396.6201200019
 31
0.0
  0
LINE
  5
77
330
1F
100
AcDbEntity
  8
0
  6
Continuous
 62
     7
370
    15
100
AcDbLine
 10
42.8994158074
 20
396.6201200019
 30
0.0
 11
42.8994158074
 21
403.620120218
 31
0.0
  0
ARC
  5
78
330
1F
100
AcDbEntity
  8
0
  6
Continuous
 62
     7
370
    15
100
AcDbCircle
 10
36.0475928798
 20
419.4927916329
 30
0.0
 40
22.67267151925522
100
AcDbArc
 50
287.5901803728
 51
311.4212052824
  0
LINE
  5
79
330
1F
100
AcDbEntity
  8
0
  6
Continuous
 62
     7
370
    15
100
AcDbLine
 10
51.0475942656
 20
402.4913200046
 30
0.0
 11
51.0475942656
 21
403.620120218
 31
0.0
  0
LINE
  5
7A
330
1F
100
AcDbEntity
  8
0
  6
Continuous
 62
     7
370
    15
100
AcDbLine
 10
48.047588186
 20
540.3701272662
 30
0.0
 11
48.047588186
 21
542.870124882
 31
0.0
  0
LINE
  5
7B
330
1F
100
AcDbEntity
  8
0
  6
Continuous
 62
     7
370
    15
100
AcDbLine
 10
24.0475991532
 20
542.870124882
 30
0.0
 11
24.0475991532
 21
540.3701272662
 31
0.0
  0
LINE
  5
7C
330
1F
100
AcDbEntity
  8
0
  6
Continuous
 62
     7
370
    15
100
AcDbLine
 10
44.0475949809
 20
561.6201219018
 30
0.0
 11
44.0475949809
 21
562.1201154645
 31
0.0
  0
LINE
  5
7D
330
1F
100
AcDbEntity
  8
0
  6
Continuous
 62
     7
370
    15
100
AcDbLine
 10
28.0475923583
 20
562.1201154645
 30
0.0
 11
28.0475923583
 21
561.6201219018
 31
0.0
  0
LINE
  5
7E
330
1F
100
AcDbEntity
  8
0
  6
Continuous
 62
     7
370
    15
100
AcDbLine
 10
42.5475993916
 20
562.1201154645
 30
0.0
 11
42.5475993916
 21
573.6201164182
 31
0.0
  0
LINE
  5
7F
330
1F
100
AcDbEntity
  8
0
  6
Continuous
 62
     7
370
    15
100
AcDbLine
 10
29.5475879475
 20
573.6201164182
 30
0.0
 11
29.5475879475
 21
562.1201154645
 31
0.0
  0
LINE
  5
80
330
1F
100
AcDbEntity
  8
0
  6
Continuous
 62
     7
370
    15
100
AcDbLine
 10
42.0475909278
 20
552.8701153453
 30
0.0
 11
42.0475909278
 21
561.6201219018
 31
0.0
  0
LINE
  5
81
330
1F
100
AcDbEntity
  8
0
  6
Continuous
 62
     7
370
    15
100
AcDbLine
 10
30.0475964114
 20
561.6201219018
 30
0.0
 11
30.0475964114
 21
552.8701153453
 31
0.0
  0
LINE
  5
82
330
1F
100
AcDbEntity
  8
0
  6
Continuous
 62
     7
370
    15
100
AcDbLine
 10
42.0475909278
 20
413.6201199945
 30
0.0
 11
42.0475909278
 21
532.9099354203
 31
0.0
  0
LINE
  5
83
330
1F
100
AcDbEntity
  8
0
  6
Continuous
 62
     7
370
    15
100
AcDbLine
 10
42.0475909278
 20
540.3517392333
 30
0.0
 11
42.0475909278
 21
540.3701272662
 31
0.0
  0
LINE
  5
84
330
1F
100
AcDbEntity
  8
0
  6
Continuous
 62
     7
370
    15
100
AcDbLine
 10
30.0475964114
 20
540.3701272662
 30
0.0
 11
30.0475964114
 21
540.3517392333
 31
0.0
  0
LINE
  5
85
330
1F
100
AcDbEntity
  8
0
  6
Continuous
 62
     7
370
    15
100
AcDbLine
 10
30.0475964114
 20
516.9739034827
 30
0.0
 11
30.0475964114
 21
413.6201199945
 31
0.0
  0
LINE
  5
86
330
1F
100
AcDbEntity
  8
0
  6
Continuous
 62
     7
370
    15
100
AcDbLine
 10
46.76412137
 20
399.5126514565
 30
0.0
 11
46.76412137
 21
396.6201200019
 31
0.0
  0
LINE
  5
87
330
1F
100
AcDbEntity
  8
0
  6
Continuous
 62
     7
370
    15
100
AcDbLine
 10
53.7239024207
 20
394.6201201398
 30
0.0
 11
53.7239024207
 21
396.6201200019
 31
0.0
  0
LINE
  5
88
330
1F
100
AcDbEntity
  8
0
  6
Continuous
 62
     7
370
    15
100
AcDbLine
 10
-289.2760923341
 20
396.6201200019
 30
0.0
 11
-289.2760923341
 21
394.6201201398
 31
0.0
  0
LINE
  5
89
330
1F
100
AcDbEntity
  8
0
  6
Continuous
 62
     7
370
    15
100
AcDbLine
 10
-259.5997890666
 20
540.3701272662
 30
0.0
 11
-259.5997890666
 21
542.870124882
 31
0.0
  0
LINE
  5
8A
330
1F
100
AcDbEntity
  8
0
  6
Continuous
 62
     7
370
    15
100
AcDbLine
 10
-283.5997780994
 20
542.870124882
 30
0.0
 11
-283.5997780994
 21
540.3701272662
 31
0.0
  0
LINE
  5
8B
330
1F
100
AcDbEntity
  8
0
  6
Continuous
 62
     7
370
    15
100
AcDbLine
 10
-263.5997822717
 20
561.6201219018
 30
0.0
 11
-263.5997822717
 21
562.1201154645
 31
0.0
  0
LINE
  5
8C
330
1F
100
AcDbEntity
  8
0
  6
Continuous
 62
     7
370
    15
100
AcDbLine
 10
-279.5997848943
 20
562.1201154645
 30
0.0
 11
-279.5997848943
 21
561.6201219018
 31
0.0
  0
LINE
  5
8D
330
1F
100
AcDbEntity
  8
0
  6
Continuous
 62
     7
370
    15
100
AcDbLine
 10
-265.0997778609
 20
562.1201154645
 30
0.0
 11
-265.0997778609
 21
573.6201164182
 31
0.0
  0
LINE
  5
8E
330
1F
100
AcDbEntity
  8
0
  6
Continuous
 62
     7
370
    15
100
AcDbLine
 10
-278.099789305
 20
573.6201164182
 30
0.0
 11
-278.099789305
 21
562.1201154645
 31
0.0
  0
LINE
  5
8F
330
1F
100
AcDbEntity
  8
0
  6
Continuous
 62
     7
370
    15
100
AcDbLine
 10
-265.5997863248
 20
413.6201199945
 30
0.0
 11
-265.5997863248
 21
508.7206643875
 31
0.0
  0
LINE
  5
90
330
1F
100
AcDbEntity
  8
0
  6
Continuous
 62
     7
370
    15
100
AcDbLine
 10
-265.5997863248
 20
540.3517392333
 30
0.0
 11
-265.5997863248
 21
540.3701272662
 31
0.0
  0
LINE
  5
91
330
1F
100
AcDbEntity
  8
0
  6
Continuous
 62
     7
370
    15
100
AcDbLine
 10
-277.5997808412
 20
540.3701272662
 30
0.0
 11
-277.5997808412
 21
540.3517392333
 31
0.0
  0
LINE
  5
92
330
1F
100
AcDbEntity
  8
0
  6
Continuous
 62
     7
370
    15
100
AcDbLine
 10
-277.5997808412
 20
524.6567037757
 30
0.0
 11
-277.5997808412
 21
413.6201199945
 31
0.0
  0
LINE
  5
93
330
1F
100
AcDbEntity
  8
0
  6
Continuous
 62
     7
370
    15
100
AcDbLine
 10
-265.5997863248
 20
552.8701153453
 30
0.0
 11
-265.5997863248
 21
561.6201219018
 31
0.0
  0
LINE
  5
94
330
1F
100
AcDbEntity
  8
0
  6
Continuous
 62
     7
370
    15
100
AcDbLine
 10
-277.5997808412
 20
561.6201219018
 30
0.0
 11
-277.5997808412
 21
552.8701153453
 31
0.0
  0
LINE
  5
95
330
1F
100
AcDbEntity
  8
0
  6
Continuous
 62
     7
370
    15
100
AcDbLine
 10
-68.5591614083
 20
561.6201219018
 30
0.0
 11
-68.5591614083
 21
562.1201154645
 31
0.0
  0
LINE
  5
96
330
1F
100
AcDbEntity
  8
0
  6
Continuous
 62
     7
370
    15
100
AcDbLine
 10
-84.5591603056
 20
562.1201154645
 30
0.0
 11
-84.5591603056
 21
561.6201219018
 31
0.0
  0
LINE
  5
97
330
1F
100
AcDbEntity
  8
0
  6
Continuous
 62
     7
370
    15
100
AcDbLine
 10
-70.0591607228
 20
562.1201154645
 30
0.0
 11
-70.0591607228
 21
573.6201164182
 31
0.0
  0
LINE
  5
98
330
1F
100
AcDbEntity
  8
0
  6
Continuous
 62
     7
370
    15
100
AcDbLine
 10
-83.059160991
 20
573.6201164182
 30
0.0
 11
-83.059160991
 21
562.1201154645
 31
0.0
  0
LINE
  5
99
330
1F
100
AcDbEntity
  8
0
  6
Continuous
 62
     7
370
    15
100
AcDbLine
 10
-70.5591617361
 20
552.8701153453
 30
0.0
 11
-70.5591617361
 21
561.6201219018
 31
0.0
  0
LINE
  5
9A
330
1F
100
AcDbEntity
  8
0
  6
Continuous
 62
     7
370
    15
100
AcDbLine
 10
-82.559163703
 20
561.6201219018
 30
0.0
 11
-82.559163703
 21
552.8701153453
 31
0.0
  0
LINE
  5
9B
330
1F
100
AcDbEntity
  8
0
  6
Continuous
 62
     7
370
    15
100
AcDbLine
 10
-138.0903227463
 20
535.3517291005
 30
0.0
 11
-146.1942261294
 21
535.3517291005
 31
0.0
  0
LINE
  5
9C
330
1F
100
AcDbEntity
  8
0
  6
Continuous
 62
     7
370
    15
100
AcDbLine
 10
-148.3910726592
 20
535.3517291005
 30
0.0
 11
-146.1942261294
 21
535.3517291005
 31
0.0
  0
LINE
  5
9D
330
1F
100
AcDbEntity
  8
0
  6
Continuous
 62
     7
370
    15
100
AcDbLine
 10
-148.3910726592
 20
540.3517392333
 30
0.0
 11
-148.3910726592
 21
535.3517291005
 31
0.0
  0
LINE
  5
9E
330
1F
100
AcDbEntity
  8
0
  6
Continuous
 62
     7
370
    15
100
AcDbLine
 10
-135.0598456547
 20
540.3517392333
 30
0.0
 11
-148.3910726592
 21
540.3517392333
 31
0.0
  0
LINE
  5
9F
330
1F
100
AcDbEntity
  8
0
  6
Continuous
 62
     7
370
    15
100
AcDbLine
 10
-135.0598456547
 20
540.3517392333
 30
0.0
 11
-135.0598456547
 21
539.5825412925
 31
0.0
  0
SPLINE
  5
A0
330
1F
100
AcDbEntity
  8
0
  6
Continuous
 62
     7
370
    15
100
AcDbSpline
210
0.0
220
0.0
230
1.0
 70
     8
 71
     3
 72
     8
 73
     4
 74
     0
 42
0.00000001
 43
0.00000001
 12
1.0
 22
0.0
 32
0.0
 13
1.0
 23
0.0
 33
0.0
 40
0.0
 40
0.0
 40
0.0
 40
0.0
 40
1.0
 40
1.0
 40
1.0
 40
1.0
 10
-135.0598448772598
 20
539.5825476071793
 30
0.0
 10
-136.0700821882535
 20
538.1731087473518
 30
0.0
 10
-137.0802350218091
 20
536.762767564195
 30
0.0
 10
-138.0903229085584
 20
535.3517331591343
 30
0.0
  0
LINE
  5
A1
330
1F
100
AcDbEntity
  8
0
  6
Continuous
 62
     7
370
    15
100
AcDbLine
 10
-179.3006984726
 20
540.3517392333
 30
0.0
 11
-179.3006984726
 21
535.3517291005
 31
0.0
  0
LINE
  5
A2
330
1F
100
AcDbEntity
  8
0
  6
Continuous
 62
     7
370
    15
100
AcDbLine
 10
-148.3910726592
 20
535.3517291005
 30
0.0
 11
-179.3006984726
 21
535.3517291005
 31
0.0
  0
LINE
  5
A3
330
1F
100
AcDbEntity
  8
0
  6
Continuous
 62
     7
370
    15
100
AcDbLine
 10
-148.3910726592
 20
540.3517392333
 30
0.0
 11
-179.3006984726
 21
540.3517392333
 31
0.0
  0
LINE
  5
A4
330
1F
100
AcDbEntity
  8
0
  6
Continuous
 62
     7
370
    15
100
AcDbLine
 10
-170.7770107523
 20
403.620120218
 30
0.0
 11
-178.0807851091
 21
403.620120218
 31
0.0
  0
LINE
  5
A5
330
1F
100
AcDbEntity
  8
0
  6
Continuous
 62
     7
370
    15
100
AcDbLine
 10
-178.0807851091
 20
396.6201200019
 30
0.0
 11
-203.5260936454
 21
396.6201200019
 31
0.0
  0
LINE
  5
A6
330
1F
100
AcDbEntity
  8
0
  6
Continuous
 62
     7
370
    15
100
AcDbLine
 10
-203.5260936454
 20
394.6201201398
 30
0.0
 11
-266.2994554475
 21
394.6201201398
 31
0.0
  0
LINE
  5
A7
330
1F
100
AcDbEntity
  8
0
  6
Continuous
 62
     7
370
    15
100
AcDbLine
 10
-266.2994554475
 20
396.6201200019
 30
0.0
 11
-289.2760923341
 21
396.6201200019
 31
0.0
  0
LINE
  5
A8
330
1F
100
AcDbEntity
  8
0
  6
Continuous
 62
     7
370
    15
100
AcDbLine
 10
53.7239024207
 20
396.6201200019
 30
0.0
 11
51.414714174
 21
396.6201200019
 31
0.0
  0
LINE
  5
A9
330
1F
100
AcDbEntity
  8
0
  6
Continuous
 62
     7
370
    15
100
AcDbLine
 10
51.414714174
 20
403.620120218
 30
0.0
 11
51.0475942656
 21
403.620120218
 31
0.0
  0
LINE
  5
AA
330
1F
100
AcDbEntity
  8
0
  6
Continuous
 62
     7
370
    15
100
AcDbLine
 10
45.3286329076
 20
403.620120218
 30
0.0
 11
42.7716979548
 21
403.620120218
 31
0.0
  0
LINE
  5
AB
330
1F
100
AcDbEntity
  8
0
  6
Continuous
 62
     7
370
    15
100
AcDbLine
 10
42.7716979548
 20
396.6201200019
 30
0.0
 11
30.7472655341
 21
396.6201200019
 31
0.0
  0
LINE
  5
AC
330
1F
100
AcDbEntity
  8
0
  6
Continuous
 62
     7
370
    15
100
AcDbLine
 10
30.7472655341
 20
394.6201201398
 30
0.0
 11
-32.026096268
 21
394.6201201398
 31
0.0
  0
LINE
  5
AD
330
1F
100
AcDbEntity
  8
0
  6
Continuous
 62
     7
370
    15
100
AcDbLine
 10
-32.026096268
 20
396.6201200019
 30
0.0
 11
-117.7760949567
 21
396.6201200019
 31
0.0
  0
LINE
  5
AE
330
1F
100
AcDbEntity
  8
0
  6
Continuous
 62
     7
370
    15
100
AcDbLine
 10
-117.7760949567
 20
396.6201200019
 30
0.0
 11
-145.8245991007
 21
396.6201200019
 31
0.0
  0
LINE
  5
AF
330
1F
100
AcDbEntity
  8
0
  6
Continuous
 62
     7
370
    15
100
AcDbLine
 10
-145.8245991007
 20
403.620120218
 30
0.0
 11
-153.4283189312
 21
403.620120218
 31
0.0
  0
LINE
  5
B0
330
1F
100
AcDbEntity
  8
0
  6
Continuous
 62
     7
370
    15
100
AcDbLine
 10
53.7239024207
 20
413.6201199945
 30
0.0
 11
-289.2760923341
 21
413.6201199945
 31
0.0
  0
LINE
  5
B1
330
1F
100
AcDbEntity
  8
0
  6
Continuous
 62
     7
370
    15
100
AcDbLine
 10
-141.7760951653
 20
394.6201201398
 30
0.0
 11
-141.7760951653
 21
396.6201200019
 31
0.0
  0
LINE
  5
B2
330
1F
100
AcDbEntity
  8
0
  6
Continuous
 62
     7
370
    15
100
AcDbLine
 10
-93.7760947481
 20
394.6201201398
 30
0.0
 11
-93.7760947481
 21
396.6201200019
 31
0.0
  0
LINE
  5
B3
330
1F
100
AcDbEntity
  8
0
  6
Continuous
 62
     7
370
    15
100
AcDbLine
 10
-93.7760947481
 20
394.6201201398
 30
0.0
 11
-141.7760951653
 21
394.6201201398
 31
0.0
  0
LINE
  5
B4
330
1F
100
AcDbEntity
  8
0
  6
Continuous
 62
     7
370
    15
100
AcDbLine
 10
-145.8245991007
 20
396.6201200019
 30
0.0
 11
-147.4975021765
 21
396.6201200019
 31
0.0
  0
LINE
  5
B5
330
1F
100
AcDbEntity
  8
0
  6
Continuous
 62
     7
370
    15
100
AcDbLine
 10
-147.4975021765
 20
402.4913200046
 30
0.0
 11
-173.9930277899
 21
402.4913200046
 31
0.0
  0
LINE
  5
B6
330
1F
100
AcDbEntity
  8
0
  6
Continuous
 62
     7
370
    15
100
AcDbLine
 10
-153.4283189312
 20
403.620120218
 30
0.0
 11
-170.7770107523
 21
403.620120218
 31
0.0
  0
LINE
  5
B7
330
1F
100
AcDbEntity
  8
0
  6
Continuous
 62
     7
370
    15
100
AcDbLine
 10
-146.1942261294
 20
535.3517291005
 30
0.0
 11
-142.2509914473
 21
508.6201188024
 31
0.0
  0
LINE
  5
B8
330
1F
100
AcDbEntity
  8
0
  6
Continuous
 62
     7
370
    15
100
AcDbLine
 10
-142.2509914473
 20
508.6201188024
 30
0.0
 11
-147.2603520587
 21
508.6201188024
 31
0.0
  0
LINE
  5
B9
330
1F
100
AcDbEntity
  8
0
  6
Continuous
 62
     7
370
    15
100
AcDbLine
 10
-153.9100026921
 20
535.3517291005
 30
0.0
 11
-147.2603520587
 21
508.6201188024
 31
0.0
  0
SPLINE
  5
BA
330
1F
100
AcDbEntity
  8
0
  6
Continuous
 62
     7
370
    15
100
AcDbSpline
210
0.0
220
0.0
230
1.0
 70
     8
 71
     3
 72
     8
 73
     4
 74
     0
 42
0.00000001
 43
0.00000001
 12
1.0
 22
0.0
 32
0.0
 13
1.0
 23
0.0
 33
0.0
 40
0.0000005887852229
 40
0.0000005887852229
 40
0.0000005887852229
 40
0.0000005887852229
 40
0.0116462162167144
 40
0.0116462162167144
 40
0.0116462162167144
 40
0.0116462162167144
 10
-141.125050120568
 20
531.3980511514982
 30
0.0
 10
-140.1135050243944
 20
532.7166561327042
 30
0.0
 10
-139.1019316351222
 20
534.0346056744322
 30
0.0
 10
-138.0903229085584
 20
535.3517331591341
 30
0.0
  0
SPLINE
  5
BB
330
1F
100
AcDbEntity
  8
0
  6
Continuous
 62
     7
370
    15
100
AcDbSpline
210
0.0
220
0.0
230
1.0
 70
     8
 71
     3
 72
     8
 73
     4
 74
     0
 42
0.00000001
 43
0.00000001
 12
1.0
 22
0.0
 32
0.0
 13
1.0
 23
0.0
 33
0.0
 40
0.000000200499266
 40
0.000000200499266
 40
0.000000200499266
 40
0.000000200499266
 40
0.0204597700567363
 40
0.0204597700567363
 40
0.0204597700567363
 40
0.0204597700567363
 10
-141.9083114499602
 20
510.9892802230661
 30
0.0
 10
-141.6474975514605
 20
517.7921544430836
 30
0.0
 10
-141.3864086710613
 20
524.5950785639087
 30
0.0
 10
-141.125050120568
 20
531.3980511514982
 30
0.0
  0
SPLINE
  5
BC
330
1F
100
AcDbEntity
  8
0
  6
Continuous
 62
     7
370
    15
100
AcDbSpline
210
0.0
220
0.0
230
1.0
 70
     8
 71
     3
 72
    20
 73
    16
 74
     0
 42
0.00000001
 43
0.00000001
 12
1.0
 22
0.0
 32
0.0
 13
1.0
 23
0.0
 33
0.0
 40
0.0
 40
0.0
 40
0.0
 40
0.0
 40
0.25
 40
0.25
 40
0.375
 40
0.375
 40
0.5
 40
0.5
 40
0.625
 40
0.625
 40
0.75
 40
0.75
 40
0.875
 40
0.875
 40
1.0
 40
1.0
 40
1.0
 40
1.0
 10
-141.3820801765875
 20
508.6201201136733
 30
0.0
 10
-141.4636771575391
 20
508.6201201136733
 30
0.0
 10
-141.5431706290937
 20
508.6808027769312
 30
0.0
 10
-141.6481694786368
 20
508.8551910698431
 30
0.0
 10
-141.6815003258103
 20
508.9282213090094
 30
0.0
 10
-141.7420720492306
 20
509.0988275136637
 30
0.0
 10
-141.7693042624919
 20
509.195831893376
 30
0.0
 10
-141.8177086830831
 20
509.4130619932868
 30
0.0
 10
-141.8389617237889
 20
509.534476262725
 30
0.0
 10
-141.8735325754738
 20
509.7912960386533
 30
0.0
 10
-141.8871171967607
 20
509.9275254586325
 30
0.0
 10
-141.9067761998352
 20
510.2158528907634
 30
0.0
 10
-141.9126995203967
 20
510.3672786409477
 30
0.0
 10
-141.916466836363
 20
510.6734843244762
 30
0.0
 10
-141.9144279378914
 20
510.8297423368409
 30
0.0
 10
-141.9083114499602
 20
510.9892802230661
 30
0.0
  0
LINE
  5
BD
330
1F
100
AcDbEntity
  8
0
  6
Continuous
 62
     7
370
    15
100
AcDbLine
 10
-141.3820805237
 20
508.6201188024
 30
0.0
 11
-142.2509914473
 21
508.6201188024
 31
0.0
  0
LINE
  5
BE
330
1F
100
AcDbEntity
  8
0
  6
Continuous
 62
     7
370
    15
100
AcDbLine
 10
-147.401918678
 20
542.870124882
 30
0.0
 11
-170.9930291608
 21
542.870124882
 31
0.0
  0
LINE
  5
BF
330
1F
100
AcDbEntity
  8
0
  6
Continuous
 62
     7
370
    15
100
AcDbLine
 10
-146.9930270895
 20
542.870124882
 30
0.0
 11
-147.401918678
 21
542.870124882
 31
0.0
  0
LINE
  5
C0
330
1F
100
AcDbEntity
  8
0
  6
Continuous
 62
     7
370
    15
100
AcDbLine
 10
-147.401918678
 20
540.3701272662
 30
0.0
 11
-170.9930291608
 21
540.3701272662
 31
0.0
  0
LINE
  5
C1
330
1F
100
AcDbEntity
  8
0
  6
Continuous
 62
     7
370
    15
100
AcDbLine
 10
-146.9930270895
 20
540.3701272662
 30
0.0
 11
-147.401918678
 21
540.3701272662
 31
0.0
  0
LINE
  5
C2
330
1F
100
AcDbEntity
  8
0
  6
Continuous
 62
     7
370
    15
100
AcDbLine
 10
-156.1538716987
 20
552.8701153453
 30
0.0
 11
-156.1538716987
 21
542.870124882
 31
0.0
  0
LINE
  5
C3
330
1F
100
AcDbEntity
  8
0
  6
Continuous
 62
     7
370
    15
100
AcDbLine
 10
-156.1538716987
 20
552.8701153453
 30
0.0
 11
-148.3971541956
 21
552.8701153453
 31
0.0
  0
LINE
  5
C4
330
1F
100
AcDbEntity
  8
0
  6
Continuous
 62
     7
370
    15
100
AcDbLine
 10
-148.3971541956
 20
552.8701153453
 30
0.0
 11
-148.3971541956
 21
542.870124882
 31
0.0
  0
LINE
  5
C5
330
1F
100
AcDbEntity
  8
0
  6
Continuous
 62
     7
370
    15
100
AcDbLine
 10
-166.7497446969
 20
552.8701153453
 30
0.0
 11
-166.7497446969
 21
542.870124882
 31
0.0
  0
LINE
  5
C6
330
1F
100
AcDbEntity
  8
0
  6
Continuous
 62
     7
370
    15
100
AcDbLine
 10
-166.7497446969
 20
552.8701153453
 30
0.0
 11
-156.1538716987
 21
552.8701153453
 31
0.0
  0
LINE
  5
C7
330
1F
100
AcDbEntity
  8
0
  6
Continuous
 62
     7
370
    15
100
AcDbLine
 10
-165.3254879847
 20
508.6201188024
 30
0.0
 11
-164.9930281773
 21
517.5914970096
 31
0.0
  0
LINE
  5
C8
330
1F
100
AcDbEntity
  8
0
  6
Continuous
 62
     7
370
    15
100
AcDbLine
 10
-165.4448388353
 20
508.6201188024
 30
0.0
 11
-165.3254879847
 21
508.6201188024
 31
0.0
  0
LINE
  5
C9
330
1F
100
AcDbEntity
  8
0
  6
Continuous
 62
     7
370
    15
100
AcDbLine
 10
-165.4448388353
 20
508.6201188024
 30
0.0
 11
-169.3880735174
 21
535.3517291005
 31
0.0
  0
LINE
  5
CA
330
1F
100
AcDbEntity
  8
0
  6
Continuous
 62
     7
370
    15
100
AcDbLine
 10
-151.2656202749
 20
562.1201154645
 30
0.0
 11
-166.9930285052
 21
562.1201154645
 31
0.0
  0
LINE
  5
CB
330
1F
100
AcDbEntity
  8
0
  6
Continuous
 62
     7
370
    15
100
AcDbLine
 10
-150.9930296078
 20
562.1201154645
 30
0.0
 11
-151.2656202749
 21
562.1201154645
 31
0.0
  0
LINE
  5
CC
330
1F
100
AcDbEntity
  8
0
  6
Continuous
 62
     7
370
    15
100
AcDbLine
 10
-151.2656202749
 20
561.6201219018
 30
0.0
 11
-166.9930285052
 21
561.6201219018
 31
0.0
  0
LINE
  5
CD
330
1F
100
AcDbEntity
  8
0
  6
Continuous
 62
     7
370
    15
100
AcDbLine
 10
-150.9930296078
 20
561.6201219018
 30
0.0
 11
-151.2656202749
 21
561.6201219018
 31
0.0
  0
LINE
  5
CE
330
1F
100
AcDbEntity
  8
0
  6
Continuous
 62
     7
370
    15
100
AcDbLine
 10
-170.4541994467
 20
508.6201188024
 30
0.0
 11
-177.1038538054
 21
535.3517291005
 31
0.0
  0
LINE
  5
CF
330
1F
100
AcDbEntity
  8
0
  6
Continuous
 62
     7
370
    15
100
AcDbLine
 10
-165.4448388353
 20
508.6201188024
 30
0.0
 11
-170.4541994467
 21
508.6201188024
 31
0.0
  0
LINE
  5
D0
330
1F
100
AcDbEntity
  8
0
  6
Continuous
 62
     7
370
    15
100
AcDbLine
 10
-169.5889001921
 20
552.8701153453
 30
0.0
 11
-169.5889001921
 21
542.870124882
 31
0.0
  0
LINE
  5
D1
330
1F
100
AcDbEntity
  8
0
  6
Continuous
 62
     7
370
    15
100
AcDbLine
 10
-169.5889001921
 20
552.8701153453
 30
0.0
 11
-166.7497446969
 21
552.8701153453
 31
0.0
  0
LINE
  5
D2
330
1F
100
AcDbEntity
  8
0
  6
Continuous
 62
     7
370
    15
100
AcDbLine
 10
-175.3775244787
 20
396.6201200019
 30
0.0
 11
-178.0807851091
 21
396.6201200019
 31
0.0
  0
LINE
  5
D3
330
1F
100
AcDbEntity
  8
0
  6
Continuous
 62
     7
370
    15
100
AcDbLine
 10
-152.7145086065
 20
573.6201164182
 30
0.0
 11
-165.4930291906
 21
573.6201164182
 31
0.0
  0
LINE
  5
D4
330
1F
100
AcDbEntity
  8
0
  6
Continuous
 62
     7
370
    15
100
AcDbLine
 10
-152.4930289224
 20
573.6201164182
 30
0.0
 11
-152.7145086065
 21
573.6201164182
 31
0.0
  0
LINE
  5
D5
330
1F
100
AcDbEntity
  8
0
  6
Continuous
 62
     7
370
    15
100
AcDbLine
 10
-170.741486384
 20
394.6201201398
 30
0.0
 11
-203.5260936454
 21
394.6201201398
 31
0.0
  0
LINE
  5
D6
330
1F
100
AcDbEntity
  8
0
  6
Continuous
 62
     7
370
    15
100
AcDbLine
 10
-170.741486384
 20
394.6201201398
 30
0.0
 11
-170.741486384
 21
400.1014587339
 31
0.0
  0
LINE
  5
D7
330
1F
100
AcDbEntity
  8
0
  6
Continuous
 62
     7
370
    15
100
AcDbLine
 10
-32.026096268
 20
394.6201201398
 30
0.0
 11
-64.8107035294
 21
394.6201201398
 31
0.0
  0
LINE
  5
D8
330
1F
100
AcDbEntity
  8
0
  6
Continuous
 62
     7
370
    15
100
AcDbLine
 10
-64.8107035294
 20
396.6201200019
 30
0.0
 11
-64.8107035294
 21
394.6201201398
 31
0.0
  0
SPLINE
  5
D9
330
1F
100
AcDbEntity
  8
0
  6
Continuous
 62
     7
370
    15
100
AcDbSpline
210
0.0
220
0.0
230
1.0
 70
     8
 71
     3
 72
     8
 73
     4
 74
     0
 42
0.00000001
 43
0.00000001
 12
1.0
 22
0.0
 32
0.0
 13
1.0
 23
0.0
 33
0.0
 40
0.0000005887852229
 40
0.0000005887852229
 40
0.0000005887852229
 40
0.0000005887852229
 40
0.0116462162167144
 40
0.0116462162167144
 40
0.0116462162167144
 40
0.0116462162167144
 10
22.20711838475686
 20
531.3980511514982
 30
0.0
 10
18.66321105977956
 20
532.7166561327042
 30
0.0
 10
15.1190832057542
 20
534.0346056744322
 30
0.0
 10
11.57467931536618
 20
535.3517331591341
 30
0.0
  0
LINE
  5
DA
330
1F
100
AcDbEntity
  8
0
  6
Continuous
 62
     7
370
    15
100
AcDbLine
 10
-141.1250503942
 20
531.3980487044
 30
0.0
 11
22.2071120307
 21
531.3980487044
 31
0.0
  0
LINE
  5
DB
330
1F
100
AcDbEntity
  8
0
  6
Continuous
 62
     7
370
    15
100
AcDbLine
 10
-135.0598456547
 20
539.5825412925
 30
0.0
 11
0.2647796437
 21
539.5825412925
 31
0.0
  0
SPLINE
  5
DC
330
1F
100
AcDbEntity
  8
0
  6
Continuous
 62
     7
370
    15
100
AcDbSpline
210
0.0
220
0.0
230
1.0
 70
     8
 71
     3
 72
     8
 73
     4
 74
     0
 42
0.00000001
 43
0.00000001
 12
1.0
 22
0.0
 32
0.0
 13
1.0
 23
0.0
 33
0.0
 40
0.0
 40
0.0
 40
0.0
 40
0.0
 40
1.0
 40
1.0
 40
1.0
 40
1.0
 10
0.2647813313381431
 20
539.5825476071793
 30
0.0
 10
4.035038303668359
 20
538.1731087473518
 30
0.0
 10
7.804980001908018
 20
536.762767564195
 30
0.0
 10
11.57467931536618
 20
535.3517331591341
 30
0.0
  0
SPLINE
  5
DD
330
1F
100
AcDbEntity
  8
0
  6
Continuous
 62
     7
370
    15
100
AcDbSpline
210
0.0
220
0.0
230
1.0
 70
     8
 71
     3
 72
     8
 73
     4
 74
     0
 42
0.00000001
 43
0.00000001
 12
1.0
 22
0.0
 32
0.0
 13
1.0
 23
0.0
 33
0.0
 40
0.000000200499266
 40
0.000000200499266
 40
0.000000200499266
 40
0.000000200499266
 40
0.0204597700567363
 40
0.0204597700567363
 40
0.0204597700567363
 40
0.0204597700567363
 10
21.55141050904516
 20
510.9892802230661
 30
0.0
 10
21.77099077262001
 20
517.7921544430836
 30
0.0
 10
21.98955354037255
 20
524.5950785639087
 30
0.0
 10
22.20711838475686
 20
531.3980511514982
 30
0.0
  0
SPLINE
  5
DE
330
1F
100
AcDbEntity
  8
0
  6
Continuous
 62
     7
370
    15
100
AcDbSpline
210
0.0
220
0.0
230
1.0
 70
     8
 71
     3
 72
    20
 73
    16
 74
     0
 42
0.00000001
 43
0.00000001
 12
1.0
 22
0.0
 32
0.0
 13
1.0
 23
0.0
 33
0.0
 40
0.0
 40
0.0
 40
0.0
 40
0.0
 40
0.2500000000000031
 40
0.2500000000000031
 40
0.3750000000000025
 40
0.3750000000000025
 40
0.500000000000002
 40
0.500000000000002
 40
0.6250000000000016
 40
0.6250000000000016
 40
0.750000000000001
 40
0.750000000000001
 40
0.8750000000000006
 40
0.8750000000000006
 40
1.0
 40
1.0
 40
1.0
 40
1.0
 10
19.17203310538829
 20
508.6201201136733
 30
0.0
 10
19.47655718404398
 20
508.6201201136733
 30
0.0
 10
19.78387216131555
 20
508.6808027769312
 30
0.0
 10
20.20631390695413
 20
508.8551910698431
 30
0.0
 10
20.34351289364999
 20
508.9282213090094
 30
0.0
 10
20.59948712094503
 20
509.0988275136637
 30
0.0
 10
20.71812979764765
 20
509.195831893376
 30
0.0
 10
20.93687099174402
 20
509.4130619932868
 30
0.0
 10
21.03747960721616
 20
509.534476262725
 30
0.0
 10
21.21153565884329
 20
509.7912960386532
 30
0.0
 10
21.28612332596611
 20
509.9275254586324
 30
0.0
 10
21.41005277872351
 20
510.2158528907635
 30
0.0
 10
21.45871290843088
 20
510.3672786409477
 30
0.0
 10
21.52646890491658
 20
510.6734843244762
 30
0.0
 10
21.54626101340917
 20
510.8297423368408
 30
0.0
 10
21.55141050904511
 20
510.9892802230661
 30
0.0
  0
LINE
  5
DF
330
1F
100
AcDbEntity
  8
0
  6
Continuous
 62
     7
370
    15
100
AcDbLine
 10
-141.3820805237
 20
508.6201188024
 30
0.0
 11
19.1720286176
 21
508.6201188024
 31
0.0
  0
LINE
  5
E0
330
1F
100
AcDbEntity
  8
0
  6
Continuous
 62
     7
370
    15
100
AcDbLine
 10
-81.5978525415
 20
394.6201201398
 30
0.0
 11
-81.5978525415
 21
396.6201200019
 31
0.0
  0
LINE
  5
E1
330
1F
100
AcDbEntity
  8
0
  6
Continuous
 62
     7
370
    15
100
AcDbLine
 10
-81.5978525415
 20
394.6201201398
 30
0.0
 11
-93.7760947481
 21
394.6201201398
 31
0.0
  0
LINE
  5
E2
330
1F
100
AcDbEntity
  8
0
  6
Continuous
 62
     7
370
    15
100
AcDbLine
 10
-152.7341222599
 20
397.7011387106
 30
0.0
 11
-152.7341222599
 21
396.6201200019
 31
0.0
  0
LINE
  5
E3
330
1F
100
AcDbEntity
  8
0
  6
Continuous
 62
     7
370
    15
100
AcDbLine
 10
-141.7760951653
 20
394.6201201398
 30
0.0
 11
-153.3266781107
 21
394.6201201398
 31
0.0
  0
LINE
  5
E4
330
1F
100
AcDbEntity
  8
0
  6
Continuous
 62
     7
370
    15
100
AcDbLine
 10
-148.7027267203
 20
510.9892767723
 30
0.0
 11
-148.7468527839
 21
514.5958495196
 31
0.0
  0
LINE
  5
E5
330
1F
100
AcDbEntity
  8
0
  6
Continuous
 62
     7
370
    15
100
AcDbLine
 10
-152.9404549137
 20
531.4541366752
 30
0.0
 11
-152.9930262104
 21
531.4543899949
 31
0.0
  0
SPLINE
  5
E6
330
1F
100
AcDbEntity
  8
0
  6
Continuous
 62
     7
370
    15
100
AcDbSpline
210
0.0
220
0.0
230
1.0
 70
     8
 71
     3
 72
    18
 73
    14
 74
     0
 42
0.00000001
 43
0.00000001
 12
1.0
 22
0.0
 32
0.0
 13
1.0
 23
0.0
 33
0.0
 40
0.0
 40
0.0
 40
0.0
 40
0.0
 40
0.2267071507813173
 40
0.4745247898073178
 40
0.6421177093795954
 40
0.7558016153578326
 40
0.8332626460382873
 40
0.8863919201219619
 40
0.923202523829655
 40
0.9614156715308227
 40
0.9769277785496983
 40
0.9926185504010959
 40
1.0
 40
1.0
 40
1.0
 40
1.0
 10
-152.993026210378
 20
510.1074111517096
 30
0.0
 10
-152.6551379542929
 20
510.1266166495938
 30
0.0
 10
-151.947898005555
 20
510.1668160205233
 30
0.0
 10
-150.994840403478
 20
510.2689104267276
 30
0.0
 10
-150.2137401212169
 20
510.3835903460877
 30
0.0
 10
-149.6887478573817
 20
510.4886896254926
 30
0.0
 10
-149.3362228176916
 20
510.5815279806794
 30
0.0
 10
-149.0993969110161
 20
510.6625484687586
 30
0.0
 10
-148.924885775529
 20
510.7409004367445
 30
0.0
 10
-148.8077515041295
 20
510.8127835867529
 30
0.0
 10
-148.7352497749986
 20
510.8884938867448
 30
0.0
 10
-148.7058553878703
 20
510.9421332162495
 30
0.0
 10
-148.7034850558573
 20
510.9778499797201
 30
0.0
 10
-148.7027267202838
 20
510.9892767723227
 30
0.0
  0
LINE
  5
E7
330
1F
100
AcDbEntity
  8
0
  6
Continuous
 62
     7
370
    15
100
AcDbLine
 10
-165.3254879847
 20
508.6201188024
 30
0.0
 11
-164.9930281773
 21
508.6201188024
 31
0.0
  0
LINE
  5
E8
330
1F
100
AcDbEntity
  8
0
  6
Continuous
 62
     7
370
    15
100
AcDbLine
 10
-152.9930262104
 20
508.6201188024
 30
0.0
 11
-147.2603520587
 21
508.6201188024
 31
0.0
  0
LINE
  5
E9
330
1F
100
AcDbEntity
  8
0
  6
Continuous
 62
     7
370
    15
100
AcDbLine
 10
-152.9930262104
 20
531.3980487044
 30
0.0
 11
-152.9264999762
 21
531.3980487044
 31
0.0
  0
LINE
  5
EA
330
1F
100
AcDbEntity
  8
0
  6
Continuous
 62
     7
370
    15
100
AcDbLine
 10
-267.7628090814
 20
531.3980487044
 30
0.0
 11
-176.1203510895
 21
531.3980487044
 31
0.0
  0
LINE
  5
EB
330
1F
100
AcDbEntity
  8
0
  6
Continuous
 62
     7
370
    15
100
AcDbLine
 10
-245.2760925725
 20
539.5825412925
 30
0.0
 11
-179.3006984726
 21
539.5825412925
 31
0.0
  0
LINE
  5
EC
330
1F
100
AcDbEntity
  8
0
  6
Continuous
 62
     7
370
    15
100
AcDbLine
 10
-153.4252679184
 20
396.6201200019
 30
0.0
 11
-152.7341222599
 21
396.6201200019
 31
0.0
  0
LINE
  5
ED
330
1F
100
AcDbEntity
  8
0
  6
Continuous
 62
     7
370
    15
100
AcDbLine
 10
-153.4252679184
 20
394.6201201398
 30
0.0
 11
-153.4252679184
 21
396.6201200019
 31
0.0
  0
LINE
  5
EE
330
1F
100
AcDbEntity
  8
0
  6
Continuous
 62
     7
370
    15
100
AcDbLine
 10
-153.4252679184
 20
394.6201201398
 30
0.0
 11
-170.741486384
 21
394.6201201398
 31
0.0
  0
LINE
  5
EF
330
1F
100
AcDbEntity
  8
0
  6
Continuous
 62
     7
370
    15
100
AcDbLine
 10
-81.3445216254
 20
394.6201201398
 30
0.0
 11
-81.3445216254
 21
396.6201200019
 31
0.0
  0
LINE
  5
F0
330
1F
100
AcDbEntity
  8
0
  6
Continuous
 62
     7
370
    15
100
AcDbLine
 10
-64.8107035294
 20
394.6201201398
 30
0.0
 11
-81.3445216254
 21
394.6201201398
 31
0.0
  0
LINE
  5
F1
330
1F
100
AcDbEntity
  8
0
  6
Continuous
 62
     7
370
    15
100
AcDbLine
 10
-264.1966631845
 20
508.6201188024
 30
0.0
 11
-170.4541994467
 21
508.6201188024
 31
0.0
  0
SPLINE
  5
F2
330
1F
100
AcDbEntity
  8
0
  6
Continuous
 62
     7
370
    15
100
AcDbSpline
210
0.0
220
0.0
230
1.0
 70
     8
 71
     3
 72
    13
 73
     9
 74
     0
 42
0.00000001
 43
0.00000001
 12
1.0
 22
0.0
 32
0.0
 13
1.0
 23
0.0
 33
0.0
 40
0.0
 40
0.0
 40
0.0
 40
0.0
 40
0.0327094598432855
 40
0.2371426593750364
 40
0.4479669065383649
 40
0.658805629378214
 40
0.829028655221035
 40
1.0
 40
1.0
 40
1.0
 40
1.0
 10
-252.2788336709245
 20
394.1230921409601
 30
0.0
 10
-252.277977560688
 20
394.1221664180497
 30
0.0
 10
-252.2717707856706
 20
394.1154549531138
 30
0.0
 10
-252.2990436308776
 20
394.1450098416468
 30
0.0
 10
-252.3640295537678
 20
394.2155536179183
 30
0.0
 10
-252.4675269216036
 20
394.3277854889265
 30
0.0
 10
-252.5920075116657
 20
394.4626279948731
 30
0.0
 10
-252.688975558216
 20
394.5675460548553
 30
0.0
 10
-252.7375659182771
 20
394.6201201397503
 30
0.0
  0
SPLINE
  5
F3
330
1F
100
AcDbEntity
  8
0
  6
Continuous
 62
     7
370
    15
100
AcDbSpline
210
0.0
220
0.0
230
1.0
 70
     8
 71
     3
 72
    16
 73
    12
 74
     0
 42
0.00000001
 43
0.00000001
 12
1.0
 22
0.0
 32
0.0
 13
1.0
 23
0.0
 33
0.0
 40
0.0
 40
0.0
 40
0.0
 40
0.0
 40
0.1249999999999986
 40
0.1249999999999986
 40
0.2499999999999972
 40
0.2499999999999972
 40
0.4999999999999981
 40
0.4999999999999981
 40
0.749999999999999
 40
0.749999999999999
 40
1.0
 40
1.0
 40
1.0
 40
1.0
 10
-215.4887183643054
 20
394.6201201136735
 30
0.0
 10
-215.2573944192545
 20
394.5401252494833
 30
0.0
 10
-215.0281780667473
 20
394.468685903867
 30
0.0
 10
-214.5742300693238
 20
394.3441928667081
 30
0.0
 10
-214.3482121006717
 20
394.2909165753457
 30
0.0
 10
-213.6883798825821
 20
394.1631700550942
 30
0.0
 10
-213.2735510852149
 20
394.1202701921471
 30
0.0
 10
-212.4944352984224
 20
394.1199708176918
 30
0.0
 10
-212.1269595153378
 20
394.1640960904782
 30
0.0
 10
-211.4731424216519
 20
394.3339812379933
 30
0.0
 10
-211.1833613789483
 20
394.4587985823724
 30
0.0
 10
-210.9278165017483
 20
394.6201201136732
 30
0.0
  0
SPLINE
  5
F4
330
1F
100
AcDbEntity
  8
0
  6
Continuous
 62
     7
370
    15
100
AcDbSpline
210
0.0
220
0.0
230
1.0
 70
     8
 71
     3
 72
    18
 73
    14
 74
     0
 42
0.00000001
 43
0.00000001
 12
1.0
 22
0.0
 32
0.0
 13
1.0
 23
0.0
 33
0.0
 40
0.0
 40
0.0
 40
0.0
 40
0.0
 40
0.2499999999999986
 40
0.2499999999999986
 40
0.3749999999999988
 40
0.3749999999999988
 40
0.499999999999999
 40
0.499999999999999
 40
0.7499999999999994
 40
0.7499999999999994
 40
0.8749999999999997
 40
0.8749999999999997
 40
1.0
 40
1.0
 40
1.0
 40
1.0
 10
-121.0011395920456
 20
394.6201201136731
 30
0.0
 10
-120.4891792327251
 20
394.4583568083353
 30
0.0
 10
-119.9645549496385
 20
394.3338940789675
 30
0.0
 10
-119.1574077580642
 20
394.2069633801514
 30
0.0
 10
-118.8849779926265
 20
394.1746487251531
 30
0.0
 10
-118.3329794381877
 20
394.1311485260384
 30
0.0
 10
-118.0535562573488
 20
394.1201531740115
 30
0.0
 10
-117.2249679927631
 20
394.120054219644
 30
0.0
 10
-116.678590702846
 20
394.1629841379692
 30
0.0
 10
-115.867730977022
 20
394.2895315872833
 30
0.0
 10
-115.5978463572019
 20
394.3423921302739
 30
0.0
 10
-115.0676617842392
 20
394.4672615097682
 30
0.0
 10
-114.807171791321
 20
394.5391938177335
 30
0.0
 10
-114.551050321367
 20
394.6201201136731
 30
0.0
  0
LINE
  5
F5
330
1F
100
AcDbEntity
  8
0
  6
Continuous
 62
     7
370
    15
100
AcDbLine
 10
-81.3445216254
 20
394.6201201398
 30
0.0
 11
-81.5978525415
 21
394.6201201398
 31
0.0
  0
SPLINE
  5
F6
330
1F
100
AcDbEntity
  8
0
  6
Continuous
 62
     7
370
    15
100
AcDbSpline
210
0.0
220
0.0
230
1.0
 70
     8
 71
     3
 72
    16
 73
    12
 74
     0
 42
0.00000001
 43
0.00000001
 12
1.0
 22
0.0
 32
0.0
 13
1.0
 23
0.0
 33
0.0
 40
0.0
 40
0.0
 40
0.0
 40
0.0
 40
0.1249999999999986
 40
0.1249999999999986
 40
0.2499999999999972
 40
0.2499999999999972
 40
0.4999999999999981
 40
0.4999999999999981
 40
0.749999999999999
 40
0.749999999999999
 40
1.0
 40
1.0
 40
1.0
 40
1.0
 10
-24.62437341166535
 20
394.6201201136735
 30
0.0
 10
-24.49765580874348
 20
394.5401252494832
 30
0.0
 10
-24.36176576119768
 20
394.468685903867
 30
0.0
 10
-24.07035505513222
 20
394.3441928667081
 30
0.0
 10
-23.91383840934522
 20
394.2909165753457
 30
0.0
 10
-23.4205955691571
 20
394.1631700550942
 30
0.0
 10
-23.06163142079118
 20
394.1202701921471
 30
0.0
 10
-22.2829056650361
 20
394.1199708176918
 30
0.0
 10
-21.85796817144857
 20
394.1640960904782
 30
0.0
 10
-20.98260915997875
 20
394.3339812379933
 30
0.0
 10
-20.52997066026903
 20
394.4587985823724
 30
0.0
 10
-20.06347154910852
 20
394.6201201136732
 30
0.0
  0
SPLINE
  5
F7
330
1F
100
AcDbEntity
  8
0
  6
Continuous
 62
     7
370
    15
100
AcDbSpline
210
0.0
220
0.0
230
1.0
 70
     8
 71
     3
 72
    12
 73
     8
 74
     0
 42
0.00000001
 43
0.00000001
 12
1.0
 22
0.0
 32
0.0
 13
1.0
 23
0.0
 33
0.0
 40
0.0
 40
0.0
 40
0.0
 40
0.0
 40
0.2042276357843989
 40
0.4084367447916343
 40
0.6183574372552418
 40
0.8282649085180593
 40
1.0
 40
1.0
 40
1.0
 40
1.0
 10
17.18537600486442
 20
394.6201201397503
 30
0.0
 10
17.12787944570982
 20
394.5579112671152
 30
0.0
 10
17.01289154327618
 20
394.4334991652041
 30
0.0
 10
16.88207782945303
 20
394.291706350209
 30
0.0
 10
16.78717715207401
 20
394.1888109178071
 30
0.0
 10
16.7318830719371
 20
394.1287851881982
 30
0.0
 10
16.72826972512231
 20
394.1248589199054
 30
0.0
 10
16.72664375751184
 20
394.1230921409601
 30
0.0
  0
LINE
  5
F8
330
1F
100
AcDbEntity
  8
0
  6
Continuous
 62
     7
370
    15
100
AcDbLine
 10
14.223904328
 20
391.6201201137
 30
0.0
 11
-249.7760942415
 21
391.6201201137
 31
0.0
  0
SPLINE
  5
F9
330
1F
100
AcDbEntity
  8
0
  6
Continuous
 62
     7
370
    15
100
AcDbSpline
210
0.0
220
0.0
230
1.0
 70
     8
 71
     3
 72
    12
 73
     8
 74
     0
 42
0.00000001
 43
0.00000001
 12
1.0
 22
0.0
 32
0.0
 13
1.0
 23
0.0
 33
0.0
 40
0.0
 40
0.0
 40
0.0
 40
0.0
 40
0.2500000000000014
 40
0.2500000000000014
 40
0.5000000000000028
 40
0.5000000000000028
 40
1.0
 40
1.0
 40
1.0
 40
1.0
 10
-107.4228955210845
 20
458.6471062599216
 30
0.0
 10
-107.2629609327246
 20
458.2562985318274
 30
0.0
 10
-107.0712473287499
 20
457.8851503017548
 30
0.0
 10
-106.626818414173
 20
457.1805762944439
 30
0.0
 10
-106.3728206781612
 20
456.8457533872397
 30
0.0
 10
-105.5228142333721
 20
455.9097336859709
 30
0.0
 10
-104.8665171757041
 20
455.4006369718379
 30
0.0
 10
-104.1204789725466
 20
455.0068183843444
 30
0.0
  0
SPLINE
  5
FA
330
1F
100
AcDbEntity
  8
0
  6
Continuous
 62
     7
370
    15
100
AcDbSpline
210
0.0
220
0.0
230
1.0
 70
     8
 71
     3
 72
    10
 73
     6
 74
     0
 42
0.00000001
 43
0.00000001
 12
1.0
 22
0.0
 32
0.0
 13
1.0
 23
0.0
 33
0.0
 40
0.0
 40
0.0
 40
0.0
 40
0.0
 40
0.5
 40
0.5
 40
1.0
 40
1.0
 40
1.0
 40
1.0
 10
-107.6861991325931
 20
458.7307413738241
 30
0.0
 10
-107.6416786407259
 20
458.7591040551892
 30
0.0
 10
-107.5851518786107
 20
458.7663153790248
 30
0.0
 10
-107.4854671953222
 20
458.7348538742083
 30
0.0
 10
-107.4429879010193
 20
458.696202940226
 30
0.0
 10
-107.4228955210845
 20
458.6471062599216
 30
0.0
  0
LWPOLYLINE
  5
FB
330
1F
100
AcDbEntity
  8
0
  6
Continuous
 62
     7
370
    15
100
AcDbPolyline
 90
        3
 70
   128
 43
0.0
 10
-112.4993809708
 20
455.6644094046
 10
-110.0905202538
 20
457.1990203913
 10
-107.6861992687
 20
458.7307405527
  0
SPLINE
  5
FC
330
1F
100
AcDbEntity
  8
0
  6
Continuous
 62
     7
370
    15
100
AcDbSpline
210
0.0
220
0.0
230
1.0
 70
     8
 71
     3
 72
    10
 73
     6
 74
     0
 42
0.00000001
 43
0.00000001
 12
1.0
 22
0.0
 32
0.0
 13
1.0
 23
0.0
 33
0.0
 40
0.0
 40
0.0
 40
0.0
 40
0.0
 40
0.5
 40
0.5
 40
1.0
 40
1.0
 40
1.0
 40
1.0
 10
-112.7760949567064
 20
455.8162167891568
 30
0.0
 10
-112.7760949567064
 20
455.7515992302079
 30
0.0
 10
-112.7390431781308
 20
455.6893467191063
 30
0.0
 10
-112.6263671336758
 20
455.6275005895751
 30
0.0
 10
-112.5538799684694
 20
455.6296866741848
 30
0.0
 10
-112.499381027204
 20
455.6644063289105
 30
0.0
  0
LINE
  5
FD
330
1F
100
AcDbEntity
  8
0
  6
Continuous
 62
     7
370
    15
100
AcDbLine
 10
-112.7760950685
 20
459.3231660183
 30
0.0
 11
-112.7760950685
 21
455.8162149842
 31
0.0
  0
SPLINE
  5
FE
330
1F
100
AcDbEntity
  8
0
  6
Continuous
 62
     7
370
    15
100
AcDbSpline
210
0.0
220
0.0
230
1.0
 70
     8
 71
     3
 72
     8
 73
     4
 74
     0
 42
0.00000001
 43
0.00000001
 12
1.0
 22
0.0
 32
0.0
 13
1.0
 23
0.0
 33
0.0
 40
0.0
 40
0.0
 40
0.0
 40
0.0
 40
1.0
 40
1.0
 40
1.0
 40
1.0
 10
-112.6928088862088
 20
459.4749779783505
 30
0.0
 10
-112.7440856922534
 20
459.4423110501502
 30
0.0
 10
-112.7760949567064
 20
459.3839692321633
 30
0.0
 10
-112.7760949567064
 20
459.3231675181041
 30
0.0
  0
LWPOLYLINE
  5
FF
330
1F
100
AcDbEntity
  8
0
  6
Continuous
 62
     7
370
    15
100
AcDbPolyline
 90
        3
 70
   128
 43
0.0
 10
-107.6355772302
 20
462.6967889126
 10
-110.1616928563
 20
461.0874784048
 10
-112.6928087533
 20
459.4749790486
  0
SPLINE
  5
100
330
1F
100
AcDbEntity
  8
0
  6
Continuous
 62
     7
370
    15
100
AcDbSpline
210
0.0
220
0.0
230
1.0
 70
     8
 71
     3
 72
    10
 73
     6
 74
     0
 42
0.00000001
 43
0.00000001
 12
1.0
 22
0.0
 32
0.0
 13
1.0
 23
0.0
 33
0.0
 40
0.0
 40
0.0
 40
0.0
 40
0.0
 40
0.5
 40
0.5
 40
1.0
 40
1.0
 40
1.0
 40
1.0
 10
-107.6634085333123
 20
463.0148983951343
 30
0.0
 10
-107.6023174248086
 20
462.9895936294516
 30
0.0
 10
-107.5585286409191
 20
462.929083810871
 30
0.0
 10
-107.5473689640799
 20
462.7988525485501
 30
0.0
 10
-107.5800523187738
 20
462.7321631382115
 30
0.0
 10
-107.6355776216356
 20
462.6967896190359
 30
0.0
  0
LWPOLYLINE
  5
101
330
1F
100
AcDbEntity
  8
0
  6
Continuous
 62
     7
370
    15
100
AcDbPolyline
 90
        3
 70
   128
 43
0.0
 10
-112.6649780408
 20
465.0866147931
 10
-110.1634991564
 20
464.0504700001
 10
-107.663408874
 20
463.0148989018
  0
SPLINE
  5
102
330
1F
100
AcDbEntity
  8
0
  6
Continuous
 62
     7
370
    15
100
AcDbSpline
210
0.0
220
0.0
230
1.0
 70
     8
 71
     3
 72
     8
 73
     4
 74
     0
 42
0.00000001
 43
0.00000001
 12
1.0
 22
0.0
 32
0.0
 13
1.0
 23
0.0
 33
0.0
 40
0.0
 40
0.0
 40
0.0
 40
0.0
 40
1.0
 40
1.0
 40
1.0
 40
1.0
 10
-112.7760949567064
 20
465.2529146066904
 30
0.0
 10
-112.7760949567064
 20
465.1817487352873
 30
0.0
 10
-112.7308950745215
 20
465.1139200476462
 30
0.0
 10
-112.6649779745321
 20
465.0866162908384
 30
0.0
  0
LINE
  5
103
330
1F
100
AcDbEntity
  8
0
  6
Continuous
 62
     7
370
    15
100
AcDbLine
 10
-112.7760950685
 20
468.7598627861
 30
0.0
 11
-112.7760950685
 21
465.252911752
 31
0.0
  0
SPLINE
  5
104
330
1F
100
AcDbEntity
  8
0
  6
Continuous
 62
     7
370
    15
100
AcDbSpline
210
0.0
220
0.0
230
1.0
 70
     8
 71
     3
 72
    10
 73
     6
 74
     0
 42
0.00000001
 43
0.00000001
 12
1.0
 22
0.0
 32
0.0
 13
1.0
 23
0.0
 33
0.0
 40
0.0
 40
0.0
 40
0.0
 40
0.0
 40
0.5
 40
0.5
 40
1.0
 40
1.0
 40
1.0
 40
1.0
 10
-112.5272119388807
 20
468.9261636514897
 30
0.0
 10
-112.5822318734789
 20
468.9489536546012
 30
0.0
 10
-112.64695447895
 20
468.9423871430371
 30
0.0
 10
-112.7453286381575
 20
468.8766138238495
 30
0.0
 10
-112.7760949567064
 20
468.8192748838435
 30
0.0
 10
-112.7760949567064
 20
468.7598653356378
 30
0.0
  0
LWPOLYLINE
  5
105
330
1F
100
AcDbEntity
  8
0
  6
Continuous
 62
     7
370
    15
100
AcDbPolyline
 90
        4
 70
   128
 43
0.0
 10
-100.5356246814
 20
463.9590886291
 10
-104.5252103567
 20
465.6116274055
 10
-108.523653841
 20
467.2678318675
 10
-112.5272121489
 20
468.9261671956
  0
SPLINE
  5
106
330
1F
100
AcDbEntity
  8
0
  6
Continuous
 62
     7
370
    15
100
AcDbSpline
210
0.0
220
0.0
230
1.0
 70
     8
 71
     3
 72
     8
 73
     4
 74
     0
 42
0.00000001
 43
0.00000001
 12
1.0
 22
0.0
 32
0.0
 13
1.0
 23
0.0
 33
0.0
 40
0.0
 40
0.0
 40
0.0
 40
0.0
 40
1.0
 40
1.0
 40
1.0
 40
1.0
 10
-100.4245082408392
 20
463.7927874835525
 30
0.0
 10
-100.4245082408392
 20
463.8639777211082
 30
0.0
 10
-100.4699847589944
 20
463.9318966289674
 30
0.0
 10
-100.5356252230135
 20
463.9590857994045
 30
0.0
  0
LINE
  5
107
330
1F
100
AcDbEntity
  8
0
  6
Continuous
 62
     7
370
    15
100
AcDbLine
 10
-100.424508585
 20
460.2858331855
 30
0.0
 11
-100.424508585
 21
463.7927842196
 31
0.0
  0
SPLINE
  5
108
330
1F
100
AcDbEntity
  8
0
  6
Continuous
 62
     7
370
    15
100
AcDbSpline
210
0.0
220
0.0
230
1.0
 70
     8
 71
     3
 72
    10
 73
     6
 74
     0
 42
0.00000001
 43
0.00000001
 12
1.0
 22
0.0
 32
0.0
 13
1.0
 23
0.0
 33
0.0
 40
0.0
 40
0.0
 40
0.0
 40
0.0
 40
0.5
 40
0.5
 40
1.0
 40
1.0
 40
1.0
 40
1.0
 10
-100.673391258665
 20
460.1195384387531
 30
0.0
 10
-100.6182744315302
 20
460.0967083014389
 30
0.0
 10
-100.5537791507297
 20
460.1033454980167
 30
0.0
 10
-100.4556400211407
 20
460.1687267529897
 30
0.0
 10
-100.4245082408392
 20
460.2260582794208
 30
0.0
 10
-100.4245082408392
 20
460.2858367546052
 30
0.0
  0
LWPOLYLINE
  5
109
330
1F
100
AcDbEntity
  8
0
  6
Continuous
 62
     7
370
    15
100
AcDbPolyline
 90
        3
 70
   128
 43
0.0
 10
-104.467421791
 20
461.6910797413
 10
-102.5692038447
 20
460.9048125203
 10
-100.6733915046
 20
460.1195362266
  0
SPLINE
  5
10A
330
1F
100
AcDbEntity
  8
0
  6
Continuous
 62
     7
370
    15
100
AcDbSpline
210
0.0
220
0.0
230
1.0
 70
     8
 71
     3
 72
    10
 73
     6
 74
     0
 42
0.00000001
 43
0.00000001
 12
1.0
 22
0.0
 32
0.0
 13
1.0
 23
0.0
 33
0.0
 40
0.0
 40
0.0
 40
0.0
 40
0.0
 40
0.5
 40
0.5
 40
1.0
 40
1.0
 40
1.0
 40
1.0
 10
-104.7161616269552
 20
461.5319531925341
 30
0.0
 10
-104.7138345182706
 20
461.5902934843479
 30
0.0
 10
-104.6820186684258
 20
461.6451747296205
 30
0.0
 10
-104.5848935509762
 20
461.70744486945
 30
0.0
 10
-104.5213928268107
 20
461.713432876312
 30
0.0
 10
-104.4674216370333
 20
461.6910772775288
 30
0.0
  0
SPLINE
  5
10B
330
1F
100
AcDbEntity
  8
0
  6
Continuous
 62
     7
370
    15
100
AcDbSpline
210
0.0
220
0.0
230
1.0
 70
     8
 71
     3
 72
    22
 73
    18
 74
     0
 42
0.00000001
 43
0.00000001
 12
1.0
 22
0.0
 32
0.0
 13
1.0
 23
0.0
 33
0.0
 40
0.0
 40
0.0
 40
0.0
 40
0.0
 40
0.1250000000000006
 40
0.1250000000000006
 40
0.2500000000000012
 40
0.2500000000000012
 40
0.3750000000000009
 40
0.3750000000000009
 40
0.5000000000000008
 40
0.5000000000000008
 40
0.6250000000000006
 40
0.6250000000000006
 40
0.7500000000000003
 40
0.7500000000000003
 40
0.8750000000000002
 40
0.8750000000000002
 40
1.0
 40
1.0
 40
1.0
 40
1.0
 10
-100.6112386756219
 20
457.4168893390208
 30
0.0
 10
-100.8836800941671
 20
457.4066952703176
 30
0.0
 10
-101.1528239115931
 20
457.4245011011915
 30
0.0
 10
-101.6847168579273
 20
457.5143320601262
 30
0.0
 10
-101.9504308991941
 20
457.5877654029925
 30
0.0
 10
-102.4558562795457
 20
457.7856692035031
 30
0.0
 10
-102.6963310587489
 20
457.9094776011729
 30
0.0
 10
-103.152502189947
 20
458.2073508043485
 30
0.0
 10
-103.3668550732344
 20
458.3814934333338
 30
0.0
 10
-103.7504117438297
 20
458.7648261928181
 30
0.0
 10
-103.9232441192097
 20
458.976966798082
 30
0.0
 10
-104.2235215540373
 20
459.4360642884836
 30
0.0
 10
-104.3477183904618
 20
459.6774555387153
 30
0.0
 10
-104.5457519361305
 20
460.1832371537565
 30
0.0
 10
-104.6196359594606
 20
460.4503100456227
 30
0.0
 10
-104.7096828175169
 20
460.9866980687057
 30
0.0
 10
-104.7270963549508
 20
461.2578210789893
 30
0.0
 10
-104.7161616269552
 20
461.5319531925341
 30
0.0
  0
SPLINE
  5
10C
330
1F
100
AcDbEntity
  8
0
  6
Continuous
 62
     7
370
    15
100
AcDbSpline
210
0.0
220
0.0
230
1.0
 70
     8
 71
     3
 72
    10
 73
     6
 74
     0
 42
0.00000001
 43
0.00000001
 12
1.0
 22
0.0
 32
0.0
 13
1.0
 23
0.0
 33
0.0
 40
0.0
 40
0.0
 40
0.0
 40
0.0
 40
0.5
 40
0.5
 40
1.0
 40
1.0
 40
1.0
 40
1.0
 10
-100.4245082408393
 20
457.2370152129003
 30
0.0
 10
-100.4245082408393
 20
457.2856998993751
 30
0.0
 10
-100.4451249112545
 20
457.3335046883097
 30
0.0
 10
-100.514495473147
 20
457.4001438929864
 30
0.0
 10
-100.5629049170653
 20
457.418697865999
 30
0.0
 10
-100.6112386756219
 20
457.4168893390208
 30
0.0
  0
LINE
  5
10D
330
1F
100
AcDbEntity
  8
0
  6
Continuous
 62
     7
370
    15
100
AcDbLine
 10
-100.424508585
 20
453.8141210433
 30
0.0
 11
-100.424508585
 21
457.2370183523
 31
0.0
  0
SPLINE
  5
10E
330
1F
100
AcDbEntity
  8
0
  6
Continuous
 62
     7
370
    15
100
AcDbSpline
210
0.0
220
0.0
230
1.0
 70
     8
 71
     3
 72
    10
 73
     6
 74
     0
 42
0.00000001
 43
0.00000001
 12
1.0
 22
0.0
 32
0.0
 13
1.0
 23
0.0
 33
0.0
 40
0.0
 40
0.0
 40
0.0
 40
0.0
 40
0.5
 40
0.5
 40
1.0
 40
1.0
 40
1.0
 40
1.0
 10
-100.6045082408393
 20
453.6341201136732
 30
0.0
 10
-100.5569776420212
 20
453.6341201136732
 30
0.0
 10
-100.5106766174088
 20
453.6535157568746
 30
0.0
 10
-100.4442503564119
 20
453.7196979581315
 30
0.0
 10
-100.4245082408393
 20
453.7662908125018
 30
0.0
 10
-100.4245082408393
 20
453.8141201136732
 30
0.0
  0
LINE
  5
10F
330
1F
100
AcDbEntity
  8
0
  6
Continuous
 62
     7
370
    15
100
AcDbLine
 10
-103.8445085496
 20
453.6341187413
 30
0.0
 11
-100.6045090243
 21
453.6341187413
 31
0.0
  0
SPLINE
  5
110
330
1F
100
AcDbEntity
  8
0
  6
Continuous
 62
     7
370
    15
100
AcDbSpline
210
0.0
220
0.0
230
1.0
 70
     8
 71
     3
 72
    10
 73
     6
 74
     0
 42
0.00000001
 43
0.00000001
 12
1.0
 22
0.0
 32
0.0
 13
1.0
 23
0.0
 33
0.0
 40
0.0
 40
0.0
 40
0.0
 40
0.0
 40
0.5
 40
0.5
 40
1.0
 40
1.0
 40
1.0
 40
1.0
 10
-104.0245082408393
 20
453.8141201136733
 30
0.0
 10
-104.0245082408393
 20
453.7666283110279
 30
0.0
 10
-104.0049796367609
 20
453.7200061435551
 30
0.0
 10
-103.9384920573034
 20
453.6535724555674
 30
0.0
 10
-103.8918513520311
 20
453.6341201136732
 30
0.0
 10
-103.8445082408393
 20
453.6341201136732
 30
0.0
  0
LINE
  5
111
330
1F
100
AcDbEntity
  8
0
  6
Continuous
 62
     7
370
    15
100
AcDbLine
 10
-104.0245080575
 20
454.8476395066
 30
0.0
 11
-104.0245080575
 21
453.8141210433
 31
0.0
  0
SPLINE
  5
112
330
1F
100
AcDbEntity
  8
0
  6
Continuous
 62
     7
370
    15
100
AcDbSpline
210
0.0
220
0.0
230
1.0
 70
     8
 71
     3
 72
     8
 73
     4
 74
     0
 42
0.00000001
 43
0.00000001
 12
1.0
 22
0.0
 32
0.0
 13
1.0
 23
0.0
 33
0.0
 40
0.0
 40
0.0
 40
0.0
 40
0.0
 40
1.0
 40
1.0
 40
1.0
 40
1.0
 10
-104.1204789725466
 20
455.0068183843444
 30
0.0
 10
-104.0624620474954
 20
454.9761924145514
 30
0.0
 10
-104.0245082408393
 20
454.9132040604067
 30
0.0
 10
-104.0245082408393
 20
454.8476358411112
 30
0.0
  0
LINE
  5
113
330
1F
100
AcDbEntity
  8
0
  6
Continuous
 62
     7
370
    15
100
AcDbLine
 10
-95.4960948065
 20
477.1543946918
 30
0.0
 11
-95.4960948065
 21
489.454118615
 31
0.0
  0
SPLINE
  5
114
330
1F
100
AcDbEntity
  8
0
  6
Continuous
 62
     7
370
    15
100
AcDbSpline
210
0.0
220
0.0
230
1.0
 70
     8
 71
     3
 72
     8
 73
     4
 74
     0
 42
0.00000001
 43
0.00000001
 12
1.0
 22
0.0
 32
0.0
 13
1.0
 23
0.0
 33
0.0
 40
0.0
 40
0.0
 40
0.0
 40
0.0
 40
1.0
 40
1.0
 40
1.0
 40
1.0
 10
-95.60721193888064
 20
476.9880939526467
 30
0.0
 10
-95.54174798983345
 20
477.0152100081885
 30
0.0
 10
-95.49609495670636
 20
477.0824565549844
 30
0.0
 10
-95.49609495670636
 20
477.1543922684987
 30
0.0
  0
LWPOLYLINE
  5
115
330
1F
100
AcDbEntity
  8
0
  6
Continuous
 62
     7
370
    15
100
AcDbPolyline
 90
        4
 70
   128
 43
0.0
 10
-106.9580605462
 20
472.2864162977
 10
-103.1576432496
 20
473.8606047686
 10
-99.3729504034
 20
475.4282739814
 10
-95.6072127655
 20
476.9880902823
  0
SPLINE
  5
116
330
1F
100
AcDbEntity
  8
0
  6
Continuous
 62
     7
370
    15
100
AcDbSpline
210
0.0
220
0.0
230
1.0
 70
     8
 71
     3
 72
    10
 73
     6
 74
     0
 42
0.00000001
 43
0.00000001
 12
1.0
 22
0.0
 32
0.0
 13
1.0
 23
0.0
 33
0.0
 40
0.0
 40
0.0
 40
0.0
 40
0.0
 40
0.5
 40
0.5
 40
1.0
 40
1.0
 40
1.0
 40
1.0
 10
-106.9580607526781
 20
471.9538217978213
 30
0.0
 10
-107.0240833538942
 20
471.9811692546681
 30
0.0
 10
-107.0693530978565
 20
472.0501843419652
 30
0.0
 10
-107.0690012473512
 20
472.1909556834856
 30
0.0
 10
-107.0238057250224
 20
472.2591859703224
 30
0.0
 10
-106.9580607526781
 20
472.2864184295253
 30
0.0
  0
LWPOLYLINE
  5
117
330
1F
100
AcDbEntity
  8
0
  6
Continuous
 62
     7
370
    15
100
AcDbPolyline
 90
        4
 70
   128
 43
0.0
 10
-95.6072127655
 20
467.2521483954
 10
-99.3794882879
 20
468.8146767076
 10
-103.1641755462
 20
470.3823459204
 10
-106.9580605462
 20
471.9538223799
  0
SPLINE
  5
118
330
1F
100
AcDbEntity
  8
0
  6
Continuous
 62
     7
370
    15
100
AcDbSpline
210
0.0
220
0.0
230
1.0
 70
     8
 71
     3
 72
     8
 73
     4
 74
     0
 42
0.00000001
 43
0.00000001
 12
1.0
 22
0.0
 32
0.0
 13
1.0
 23
0.0
 33
0.0
 40
0.0
 40
0.0
 40
0.0
 40
0.0
 40
1.0
 40
1.0
 40
1.0
 40
1.0
 10
-95.49609495670639
 20
467.0858479588478
 30
0.0
 10
-95.49609495670639
 20
467.1571118105923
 30
0.0
 10
-95.54177233096716
 20
467.2250403015856
 30
0.0
 10
-95.60721193888067
 20
467.2521462746998
 30
0.0
  0
LINE
  5
119
330
1F
100
AcDbEntity
  8
0
  6
Continuous
 62
     7
370
    15
100
AcDbLine
 10
-95.4960948065
 20
453.8141210433
 30
0.0
 11
-95.4960948065
 21
467.0858514364
 31
0.0
  0
SPLINE
  5
11A
330
1F
100
AcDbEntity
  8
0
  6
Continuous
 62
     7
370
    15
100
AcDbSpline
210
0.0
220
0.0
230
1.0
 70
     8
 71
     3
 72
    10
 73
     6
 74
     0
 42
0.00000001
 43
0.00000001
 12
1.0
 22
0.0
 32
0.0
 13
1.0
 23
0.0
 33
0.0
 40
0.0
 40
0.0
 40
0.0
 40
0.0
 40
0.5
 40
0.5
 40
1.0
 40
1.0
 40
1.0
 40
1.0
 10
-95.67609495670642
 20
453.6341201136732
 30
0.0
 10
-95.62865673383523
 20
453.6341201136732
 30
0.0
 10
-95.58248161914568
 20
453.6533905781284
 30
0.0
 10
-95.51597382679707
 20
453.7194698927423
 30
0.0
 10
-95.49609495670644
 20
453.7661055118546
 30
0.0
 10
-95.49609495670644
 20
453.8141201136732
 30
0.0
  0
LINE
  5
11B
330
1F
100
AcDbEntity
  8
0
  6
Continuous
 62
     7
370
    15
100
AcDbLine
 10
-98.9160957024
 20
453.6341187413
 30
0.0
 11
-95.6760952458
 21
453.6341187413
 31
0.0
  0
SPLINE
  5
11C
330
1F
100
AcDbEntity
  8
0
  6
Continuous
 62
     7
370
    15
100
AcDbSpline
210
0.0
220
0.0
230
1.0
 70
     8
 71
     3
 72
    10
 73
     6
 74
     0
 42
0.00000001
 43
0.00000001
 12
1.0
 22
0.0
 32
0.0
 13
1.0
 23
0.0
 33
0.0
 40
0.0
 40
0.0
 40
0.0
 40
0.0
 40
0.5
 40
0.5
 40
1.0
 40
1.0
 40
1.0
 40
1.0
 10
-99.09609495670644
 20
453.8141201136732
 30
0.0
 10
-99.09609495670642
 20
453.7665568736295
 30
0.0
 10
-99.07646504729797
 20
453.7198266546105
 30
0.0
 10
-99.00987929354888
 20
453.6534517579171
 30
0.0
 10
-98.96328165313471
 20
453.6341201136732
 30
0.0
 10
-98.91609495670643
 20
453.6341201136732
 30
0.0
  0
LINE
  5
11D
330
1F
100
AcDbEntity
  8
0
  6
Continuous
 62
     7
370
    15
100
AcDbLine
 10
-99.096094279
 20
464.6804016884
 30
0.0
 11
-99.096094279
 21
453.8141210433
 31
0.0
  0
SPLINE
  5
11E
330
1F
100
AcDbEntity
  8
0
  6
Continuous
 62
     7
370
    15
100
AcDbSpline
210
0.0
220
0.0
230
1.0
 70
     8
 71
     3
 72
     8
 73
     4
 74
     0
 42
0.00000001
 43
0.00000001
 12
1.0
 22
0.0
 32
0.0
 13
1.0
 23
0.0
 33
0.0
 40
0.0
 40
0.0
 40
0.0
 40
0.0
 40
1.0
 40
1.0
 40
1.0
 40
1.0
 10
-99.20721193888068
 20
464.8467031781903
 30
0.0
 10
-99.14162527277257
 20
464.8195362915775
 30
0.0
 10
-99.09609495670641
 20
464.7516246165407
 30
0.0
 10
-99.0960949567064
 20
464.6804048623383
 30
0.0
  0
LWPOLYLINE
  5
11F
330
1F
100
AcDbEntity
  8
0
  6
Continuous
 62
     7
370
    15
100
AcDbPolyline
 90
        4
 70
   128
 43
0.0
 10
-112.6649780408
 20
470.4210889395
 10
-108.1704106391
 20
468.5593825634
 10
-103.6827201232
 20
466.7005223091
 10
-99.207212238
 20
464.8467060979
  0
SPLINE
  5
120
330
1F
100
AcDbEntity
  8
0
  6
Continuous
 62
     7
370
    15
100
AcDbSpline
210
0.0
220
0.0
230
1.0
 70
     8
 71
     3
 72
     8
 73
     4
 74
     0
 42
0.00000001
 43
0.00000001
 12
1.0
 22
0.0
 32
0.0
 13
1.0
 23
0.0
 33
0.0
 40
0.0
 40
0.0
 40
0.0
 40
0.0
 40
1.0
 40
1.0
 40
1.0
 40
1.0
 10
-112.7760949567064
 20
470.5873907052532
 30
0.0
 10
-112.7760949567064
 20
470.5162249307498
 30
0.0
 10
-112.7308949232585
 20
470.4483960835539
 30
0.0
 10
-112.6649779745321
 20
470.4210923894011
 30
0.0
  0
LINE
  5
121
330
1F
100
AcDbEntity
  8
0
  6
Continuous
 62
     7
370
    15
100
AcDbLine
 10
-112.7760950685
 20
473.6528527792
 30
0.0
 11
-112.7760950685
 21
470.587393349
 31
0.0
  0
SPLINE
  5
122
330
1F
100
AcDbEntity
  8
0
  6
Continuous
 62
     7
370
    15
100
AcDbSpline
210
0.0
220
0.0
230
1.0
 70
     8
 71
     3
 72
     8
 73
     4
 74
     0
 42
0.00000001
 43
0.00000001
 12
1.0
 22
0.0
 32
0.0
 13
1.0
 23
0.0
 33
0.0
 40
0.0
 40
0.0
 40
0.0
 40
0.0
 40
1.0
 40
1.0
 40
1.0
 40
1.0
 10
-112.6649779745321
 20
473.8191478379454
 30
0.0
 10
-112.7308875683559
 20
473.7918471902931
 30
0.0
 10
-112.7760949567064
 20
473.7241629519175
 30
0.0
 10
-112.7760949567064
 20
473.6528495220934
 30
0.0
  0
LWPOLYLINE
  5
123
330
1F
100
AcDbEntity
  8
0
  6
Continuous
 62
     7
370
    15
100
AcDbPolyline
 90
        4
 70
   128
 43
0.0
 10
-99.207212238
 20
479.3935400303
 10
-103.6735624284
 20
477.5435161646
 10
-108.1612706393
 20
475.6846410092
 10
-112.6649780408
 20
473.8191497381
  0
SPLINE
  5
124
330
1F
100
AcDbEntity
  8
0
  6
Continuous
 62
     7
370
    15
100
AcDbSpline
210
0.0
220
0.0
230
1.0
 70
     8
 71
     3
 72
     8
 73
     4
 74
     0
 42
0.00000001
 43
0.00000001
 12
1.0
 22
0.0
 32
0.0
 13
1.0
 23
0.0
 33
0.0
 40
0.0
 40
0.0
 40
0.0
 40
0.0
 40
1.0
 40
1.0
 40
1.0
 40
1.0
 10
-99.09609495670635
 20
479.5598353650082
 30
0.0
 10
-99.09609495670635
 20
479.4880931703966
 30
0.0
 10
-99.14161501241486
 20
479.4207081857483
 30
0.0
 10
-99.20721193888065
 20
479.3935370491562
 30
0.0
  0
LINE
  5
125
330
1F
100
AcDbEntity
  8
0
  6
Continuous
 62
     7
370
    15
100
AcDbLine
 10
-99.096094279
 20
489.454118615
 30
0.0
 11
-99.096094279
 21
479.5598369892
 31
0.0
  0
SPLINE
  5
126
330
1F
100
AcDbEntity
  8
0
  6
Continuous
 62
     7
370
    15
100
AcDbSpline
210
0.0
220
0.0
230
1.0
 70
     8
 71
     3
 72
    10
 73
     6
 74
     0
 42
0.00000001
 43
0.00000001
 12
1.0
 22
0.0
 32
0.0
 13
1.0
 23
0.0
 33
0.0
 40
0.0
 40
0.0
 40
0.0
 40
0.0
 40
0.5
 40
0.5
 40
1.0
 40
1.0
 40
1.0
 40
1.0
 10
-98.91609495670632
 20
489.6341201136732
 30
0.0
 10
-98.96358468940065
 20
489.6341201136732
 30
0.0
 10
-99.00984130766149
 20
489.6147743836427
 30
0.0
 10
-99.07630317091729
 20
489.5486267318338
 30
0.0
 10
-99.09609495670631
 20
489.5020153987872
 30
0.0
 10
-99.09609495670631
 20
489.4541201136732
 30
0.0
  0
LINE
  5
127
330
1F
100
AcDbEntity
  8
0
  6
Continuous
 62
     7
370
    15
100
AcDbLine
 10
-95.6760952458
 20
489.6341171916
 30
0.0
 11
-98.9160957024
 21
489.6341171916
 31
0.0
  0
SPLINE
  5
128
330
1F
100
AcDbEntity
  8
0
  6
Continuous
 62
     7
370
    15
100
AcDbSpline
210
0.0
220
0.0
230
1.0
 70
     8
 71
     3
 72
    10
 73
     6
 74
     0
 42
0.00000001
 43
0.00000001
 12
1.0
 22
0.0
 32
0.0
 13
1.0
 23
0.0
 33
0.0
 40
0.0
 40
0.0
 40
0.0
 40
0.0
 40
0.5
 40
0.5
 40
1.0
 40
1.0
 40
1.0
 40
1.0
 10
-95.4960949567063
 20
489.4541201136732
 30
0.0
 10
-95.49609495670632
 20
489.501762700496
 30
0.0
 10
-95.515828878963
 20
489.5485940756401
 30
0.0
 10
-95.58250246640246
 20
489.6149025471778
 30
0.0
 10
-95.62904504885877
 20
489.6341201136732
 30
0.0
 10
-95.6760949567063
 20
489.6341201136732
 30
0.0
  0
LINE
  5
129
330
1F
100
AcDbEntity
  8
0
  6
Continuous
 62
     7
370
    15
100
AcDbLine
 10
-103.8926169485
 20
483.1198510583
 30
0.0
 11
-106.677211842
 21
484.2732679899
 31
0.0
  0
SPLINE
  5
12A
330
1F
100
AcDbEntity
  8
0
  6
Continuous
 62
     7
370
    15
100
AcDbSpline
210
0.0
220
0.0
230
1.0
 70
     8
 71
     3
 72
    10
 73
     6
 74
     0
 42
0.00000001
 43
0.00000001
 12
1.0
 22
0.0
 32
0.0
 13
1.0
 23
0.0
 33
0.0
 40
0.0
 40
0.0
 40
0.0
 40
0.0
 40
0.5
 40
0.5
 40
1.0
 40
1.0
 40
1.0
 40
1.0
 10
-106.6772119388806
 20
484.2732681313103
 30
0.0
 10
-106.7322902174884
 20
484.2960823013019
 30
0.0
 10
-106.7969318853261
 20
484.2894707267855
 30
0.0
 10
-106.8951997293089
 20
484.2238404393716
 30
0.0
 10
-106.9260949567063
 20
484.1665217688267
 30
0.0
 10
-106.9260949567063
 20
484.1069698154583
 30
0.0
  0
LINE
  5
12B
330
1F
100
AcDbEntity
  8
0
  6
Continuous
 62
     7
370
    15
100
AcDbLine
 10
-106.9260947615
 20
484.106971031
 30
0.0
 11
-106.9260947615
 21
481.8001371678
 31
0.0
  0
SPLINE
  5
12C
330
1F
100
AcDbEntity
  8
0
  6
Continuous
 62
     7
370
    15
100
AcDbSpline
210
0.0
220
0.0
230
1.0
 70
     8
 71
     3
 72
    10
 73
     6
 74
     0
 42
0.00000001
 43
0.00000001
 12
1.0
 22
0.0
 32
0.0
 13
1.0
 23
0.0
 33
0.0
 40
0.0
 40
0.0
 40
0.0
 40
0.0
 40
0.5
 40
0.5
 40
1.0
 40
1.0
 40
1.0
 40
1.0
 10
-106.9260949567063
 20
481.800136152644
 30
0.0
 10
-106.9260949567063
 20
481.7407389739569
 30
0.0
 10
-106.8953337569768
 20
481.683329095969
 30
0.0
 10
-106.7966888515311
 20
481.6174989006889
 30
0.0
 10
-106.7319129416646
 20
481.6111799395635
 30
0.0
 10
-106.6772119388806
 20
481.6338378367921
 30
0.0
  0
LINE
  5
12D
330
1F
100
AcDbEntity
  8
0
  6
Continuous
 62
     7
370
    15
100
AcDbLine
 10
-106.677211842
 20
481.6338402088
 30
0.0
 11
-103.8926169485
 21
482.7872571405
 31
0.0
  0
SPLINE
  5
12E
330
1F
100
AcDbEntity
  8
0
  6
Continuous
 62
     7
370
    15
100
AcDbSpline
210
0.0
220
0.0
230
1.0
 70
     8
 71
     3
 72
    10
 73
     6
 74
     0
 42
0.00000001
 43
0.00000001
 12
1.0
 22
0.0
 32
0.0
 13
1.0
 23
0.0
 33
0.0
 40
0.0
 40
0.0
 40
0.0
 40
0.0
 40
0.5
 40
0.5
 40
1.0
 40
1.0
 40
1.0
 40
1.0
 10
-103.8926173814281
 20
482.7872546681991
 30
0.0
 10
-103.8269878796916
 20
482.8144392979102
 30
0.0
 10
-103.7817356434939
 20
482.8825310032125
 30
0.0
 10
-103.7812671465595
 20
483.0233775055239
 30
0.0
 10
-103.8266293853596
 20
483.0925181769778
 30
0.0
 10
-103.8926173814281
 20
483.1198512999032
 30
0.0
  0
SPLINE
  5
12F
330
1F
100
AcDbEntity
  8
0
  6
Continuous
 62
     7
370
    15
100
AcDbSpline
210
0.0
220
0.0
230
1.0
 70
     8
 71
     3
 72
     8
 73
     4
 74
     0
 42
0.00000001
 43
0.00000001
 12
1.0
 22
0.0
 32
0.0
 13
1.0
 23
0.0
 33
0.0
 40
0.0
 40
0.0
 40
0.0
 40
0.0
 40
1.0
 40
1.0
 40
1.0
 40
1.0
 10
-100.5356252230135
 20
480.2811544279419
 30
0.0
 10
-100.4699737591492
 20
480.3083481546641
 30
0.0
 10
-100.4245082408392
 20
480.375746172007
 30
0.0
 10
-100.4245082408392
 20
480.447452743794
 30
0.0
  0
LWPOLYLINE
  5
130
330
1F
100
AcDbEntity
  8
0
  6
Continuous
 62
     7
370
    15
100
AcDbPolyline
 90
        4
 70
   128
 43
0.0
 10
-112.5272121489
 20
475.3140789326
 10
-108.5163848683
 20
476.9754168447
 10
-104.5179255515
 20
478.6316287573
 10
-100.5356246814
 20
480.2811574991
  0
SPLINE
  5
131
330
1F
100
AcDbEntity
  8
0
  6
Continuous
 62
     7
370
    15
100
AcDbSpline
210
0.0
220
0.0
230
1.0
 70
     8
 71
     3
 72
    10
 73
     6
 74
     0
 42
0.00000001
 43
0.00000001
 12
1.0
 22
0.0
 32
0.0
 13
1.0
 23
0.0
 33
0.0
 40
0.0
 40
0.0
 40
0.0
 40
0.0
 40
0.5
 40
0.5
 40
1.0
 40
1.0
 40
1.0
 40
1.0
 10
-112.7760949567064
 20
475.4803748917088
 30
0.0
 10
-112.7760949567064
 20
475.4210357576016
 30
0.0
 10
-112.7454321319791
 20
475.3637329146189
 30
0.0
 10
-112.6470075952873
 20
475.2978513426237
 30
0.0
 10
-112.5820582858722
 20
475.2913584750863
 30
0.0
 10
-112.5272119388807
 20
475.3140765758569
 30
0.0
  0
LINE
  5
132
330
1F
100
AcDbEntity
  8
0
  6
Continuous
 62
     7
370
    15
100
AcDbLine
 10
-112.7760950685
 20
478.9873269256
 30
0.0
 11
-112.7760950685
 21
475.4803758915
 31
0.0
  0
SPLINE
  5
133
330
1F
100
AcDbEntity
  8
0
  6
Continuous
 62
     7
370
    15
100
AcDbSpline
210
0.0
220
0.0
230
1.0
 70
     8
 71
     3
 72
     8
 73
     4
 74
     0
 42
0.00000001
 43
0.00000001
 12
1.0
 22
0.0
 32
0.0
 13
1.0
 23
0.0
 33
0.0
 40
0.0
 40
0.0
 40
0.0
 40
0.0
 40
1.0
 40
1.0
 40
1.0
 40
1.0
 10
-112.6649779745321
 20
479.1536239365082
 30
0.0
 10
-112.7308874243888
 20
479.1263233484891
 30
0.0
 10
-112.7760949567063
 20
479.0586393701008
 30
0.0
 10
-112.7760949567063
 20
478.9873256206562
 30
0.0
  0
LINE
  5
134
330
1F
100
AcDbEntity
  8
0
  6
Continuous
 62
     7
370
    15
100
AcDbLine
 10
-110.3672119998
 20
480.1053908523
 30
0.0
 11
-112.6649780408
 21
479.1536238845
 31
0.0
  0
SPLINE
  5
135
330
1F
100
AcDbEntity
  8
0
  6
Continuous
 62
     7
370
    15
100
AcDbSpline
210
0.0
220
0.0
230
1.0
 70
     8
 71
     3
 72
     8
 73
     4
 74
     0
 42
0.00000001
 43
0.00000001
 12
1.0
 22
0.0
 32
0.0
 13
1.0
 23
0.0
 33
0.0
 40
0.0
 40
0.0
 40
0.0
 40
0.0
 40
1.0
 40
1.0
 40
1.0
 40
1.0
 10
-110.2560949567063
 20
480.2716881074873
 30
0.0
 10
-110.2560949567063
 20
480.200323514983
 30
0.0
 10
-110.3013220688061
 20
480.1326822694432
 30
0.0
 10
-110.3672119388806
 20
480.1053897916353
 30
0.0
  0
LINE
  5
136
330
1F
100
AcDbEntity
  8
0
  6
Continuous
 62
     7
370
    15
100
AcDbLine
 10
-110.2560949721
 20
485.6354203876
 30
0.0
 11
-110.2560949721
 21
480.2716878112
 31
0.0
  0
SPLINE
  5
137
330
1F
100
AcDbEntity
  8
0
  6
Continuous
 62
     7
370
    15
100
AcDbSpline
210
0.0
220
0.0
230
1.0
 70
     8
 71
     3
 72
     8
 73
     4
 74
     0
 42
0.00000001
 43
0.00000001
 12
1.0
 22
0.0
 32
0.0
 13
1.0
 23
0.0
 33
0.0
 40
0.0
 40
0.0
 40
0.0
 40
0.0
 40
1.0
 40
1.0
 40
1.0
 40
1.0
 10
-110.3672119388806
 20
485.801716176467
 30
0.0
 10
-110.3013365741499
 20
485.7744297069693
 30
0.0
 10
-110.2560949567063
 20
485.7065753087456
 30
0.0
 10
-110.2560949567063
 20
485.635417860615
 30
0.0
  0
LINE
  5
138
330
1F
100
AcDbEntity
  8
0
  6
Continuous
 62
     7
370
    15
100
AcDbLine
 10
-112.6649780408
 20
486.7534843143
 30
0.0
 11
-110.3672119998
 21
485.8017173465
 31
0.0
  0
SPLINE
  5
139
330
1F
100
AcDbEntity
  8
0
  6
Continuous
 62
     7
370
    15
100
AcDbSpline
210
0.0
220
0.0
230
1.0
 70
     8
 71
     3
 72
     8
 73
     4
 74
     0
 42
0.00000001
 43
0.00000001
 12
1.0
 22
0.0
 32
0.0
 13
1.0
 23
0.0
 33
0.0
 40
0.0
 40
0.0
 40
0.0
 40
0.0
 40
1.0
 40
1.0
 40
1.0
 40
1.0
 10
-112.7760949567063
 20
486.9197803474461
 30
0.0
 10
-112.7760949567063
 20
486.8486148711943
 30
0.0
 10
-112.7308944519769
 20
486.7807855305356
 30
0.0
 10
-112.664977974532
 20
486.7534820315941
 30
0.0
  0
LINE
  5
13A
330
1F
100
AcDbEntity
  8
0
  6
Continuous
 62
     7
370
    15
100
AcDbLine
 10
-112.7760950685
 20
490.4267323073
 30
0.0
 11
-112.7760950685
 21
486.9197812732
 31
0.0
  0
SPLINE
  5
13B
330
1F
100
AcDbEntity
  8
0
  6
Continuous
 62
     7
370
    15
100
AcDbSpline
210
0.0
220
0.0
230
1.0
 70
     8
 71
     3
 72
    10
 73
     6
 74
     0
 42
0.00000001
 43
0.00000001
 12
1.0
 22
0.0
 32
0.0
 13
1.0
 23
0.0
 33
0.0
 40
0.0
 40
0.0
 40
0.0
 40
0.0
 40
0.5
 40
0.5
 40
1.0
 40
1.0
 40
1.0
 40
1.0
 10
-112.5272119388806
 20
490.5930293922455
 30
0.0
 10
-112.5822326008642
 20
490.6158196966499
 30
0.0
 10
-112.6469547007709
 20
490.6092526024352
 30
0.0
 10
-112.7453278569071
 20
490.5434802199987
 30
0.0
 10
-112.7760949567063
 20
490.4861416795141
 30
0.0
 10
-112.7760949567063
 20
490.4267310763935
 30
0.0
  0
LWPOLYLINE
  5
13C
330
1F
100
AcDbEntity
  8
0
  6
Continuous
 62
     7
370
    15
100
AcDbPolyline
 90
        4
 70
   128
 43
0.0
 10
-104.2733909771
 20
487.1741813477
 10
-107.02190364
 20
488.3126524146
 10
-109.7735930443
 20
489.4524422343
 10
-112.5272121489
 20
490.5930292662
  0
SPLINE
  5
13D
330
1F
100
AcDbEntity
  8
0
  6
Continuous
 62
     7
370
    15
100
AcDbSpline
210
0.0
220
0.0
230
1.0
 70
     8
 71
     3
 72
    10
 73
     6
 74
     0
 42
0.00000001
 43
0.00000001
 12
1.0
 22
0.0
 32
0.0
 13
1.0
 23
0.0
 33
0.0
 40
0.0
 40
0.0
 40
0.0
 40
0.0
 40
0.5
 40
0.5
 40
1.0
 40
1.0
 40
1.0
 40
1.0
 10
-104.0245082408392
 20
487.3404832409567
 30
0.0
 10
-104.0245082408392
 20
487.2808417680534
 30
0.0
 10
-104.0553468182993
 20
487.2237110787195
 30
0.0
 10
-104.1534726909027
 20
487.1580545138046
 30
0.0
 10
-104.2182876177917
 20
487.1513602497188
 30
0.0
 10
-104.2733912586649
 20
487.1741849251047
 30
0.0
  0
LINE
  5
13E
330
1F
100
AcDbEntity
  8
0
  6
Continuous
 62
     7
370
    15
100
AcDbLine
 10
-104.0245080575
 20
489.454118615
 30
0.0
 11
-104.0245080575
 21
487.3404857572
 31
0.0
  0
SPLINE
  5
13F
330
1F
100
AcDbEntity
  8
0
  6
Continuous
 62
     7
370
    15
100
AcDbSpline
210
0.0
220
0.0
230
1.0
 70
     8
 71
     3
 72
    10
 73
     6
 74
     0
 42
0.00000001
 43
0.00000001
 12
1.0
 22
0.0
 32
0.0
 13
1.0
 23
0.0
 33
0.0
 40
0.0
 40
0.0
 40
0.0
 40
0.0
 40
0.5
 40
0.5
 40
1.0
 40
1.0
 40
1.0
 40
1.0
 10
-103.8445082408391
 20
489.6341201136732
 30
0.0
 10
-103.8920730758928
 20
489.6341201136732
 30
0.0
 10
-103.9384403842151
 20
489.6146685437965
 30
0.0
 10
-104.0048361435159
 20
489.54842817058
 30
0.0
 10
-104.0245082408392
 20
489.5018514399078
 30
0.0
 10
-104.0245082408392
 20
489.4541201136733
 30
0.0
  0
LINE
  5
140
330
1F
100
AcDbEntity
  8
0
  6
Continuous
 62
     7
370
    15
100
AcDbLine
 10
-100.6045090243
 20
489.6341171916
 30
0.0
 11
-103.8445085496
 21
489.6341171916
 31
0.0
  0
SPLINE
  5
141
330
1F
100
AcDbEntity
  8
0
  6
Continuous
 62
     7
370
    15
100
AcDbSpline
210
0.0
220
0.0
230
1.0
 70
     8
 71
     3
 72
    10
 73
     6
 74
     0
 42
0.00000001
 43
0.00000001
 12
1.0
 22
0.0
 32
0.0
 13
1.0
 23
0.0
 33
0.0
 40
0.0
 40
0.0
 40
0.0
 40
0.0
 40
0.5
 40
0.5
 40
1.0
 40
1.0
 40
1.0
 40
1.0
 10
-100.4245082408391
 20
489.4541201136732
 30
0.0
 10
-100.4245082408391
 20
489.5016619807154
 30
0.0
 10
-100.4441104383644
 20
489.5483637854353
 30
0.0
 10
-100.510666541212
 20
489.614753423161
 30
0.0
 10
-100.5572734976639
 20
489.6341201136732
 30
0.0
 10
-100.6045082408392
 20
489.6341201136732
 30
0.0
  0
LINE
  5
142
330
1F
100
AcDbEntity
  8
0
  6
Continuous
 62
     7
370
    15
100
AcDbLine
 10
-100.424508585
 20
480.4474544581
 30
0.0
 11
-100.424508585
 21
489.454118615
 31
0.0
  0
LINE
  5
143
330
1F
100
AcDbEntity
  8
0
  6
Continuous
 62
     7
370
    15
100
AcDbLine
 10
-153.3266781107
 20
394.6201201398
 30
0.0
 11
-153.3266781107
 21
396.6201200019
 31
0.0
  0
LINE
  5
144
330
1F
100
AcDbEntity
  8
0
  6
Continuous
 62
     7
370
    15
100
AcDbLine
 10
-153.3266781107
 20
394.6201201398
 30
0.0
 11
-153.4252679184
 21
394.6201201398
 31
0.0
  0
LINE
  5
145
330
1F
100
AcDbEntity
  8
0
  6
Continuous
 62
     7
370
    15
100
AcDbLine
 10
-148.3971541956
 20
543.3517304118
 30
0.0
 11
7.723898606
 21
543.3517304118
 31
0.0
  0
LINE
  5
146
330
1F
100
AcDbEntity
  8
0
  6
Continuous
 62
     7
370
    15
100
AcDbLine
 10
-243.2760885194
 20
543.3517304118
 30
0.0
 11
-169.5889001921
 21
543.3517304118
 31
0.0
  0
LINE
  5
147
330
1F
100
AcDbEntity
  8
0
  6
Continuous
 62
     7
370
    15
100
AcDbLine
 10
0.2647796437
 20
540.3517392333
 30
0.0
 11
0.2647796437
 21
539.5825412925
 31
0.0
  0
LINE
  5
148
330
1F
100
AcDbEntity
  8
0
  6
Continuous
 62
     7
370
    15
100
AcDbLine
 10
-266.2994554475
 20
394.6201201398
 30
0.0
 11
-269.5148429111
 21
394.6201201398
 31
0.0
  0
LINE
  5
149
330
1F
100
AcDbEntity
  8
0
  6
Continuous
 62
     7
370
    15
100
AcDbLine
 10
33.9626529977
 20
394.6201201398
 30
0.0
 11
30.7472655341
 21
394.6201201398
 31
0.0
  0
LINE
  5
14A
330
1F
100
AcDbEntity
  8
0
  6
Continuous
 62
     7
370
    15
100
AcDbLine
 10
50.0175962016
 20
540.3517392333
 30
0.0
 11
50.0175962016
 21
535.3517291005
 31
0.0
  0
LINE
  5
14B
330
1F
100
AcDbEntity
  8
0
  6
Continuous
 62
     7
370
    15
100
AcDbLine
 10
41.8188581034
 20
535.3517291005
 30
0.0
 11
11.574686484
 21
535.3517291005
 31
0.0
  0
LINE
  5
14C
330
1F
100
AcDbEntity
  8
0
  6
Continuous
 62
     7
370
    15
100
AcDbLine
 10
50.0175962016
 20
540.3517392333
 30
0.0
 11
0.2647796437
 21
540.3517392333
 31
0.0
  0
LINE
  5
14D
330
1F
100
AcDbEntity
  8
0
  6
Continuous
 62
     7
370
    15
100
AcDbLine
 10
50.0175962016
 20
535.3517291005
 30
0.0
 11
41.8188581034
 21
535.3517291005
 31
0.0
  0
LINE
  5
14E
330
1F
100
AcDbEntity
  8
0
  6
Continuous
 62
     7
370
    15
100
AcDbLine
 10
58.2998106047
 20
540.3517392333
 30
0.0
 11
58.2998106047
 21
535.3517291005
 31
0.0
  0
LINE
  5
14F
330
1F
100
AcDbEntity
  8
0
  6
Continuous
 62
     7
370
    15
100
AcDbLine
 10
58.2998106047
 20
540.3517392333
 30
0.0
 11
50.0175962016
 21
540.3517392333
 31
0.0
  0
LINE
  5
150
330
1F
100
AcDbEntity
  8
0
  6
Continuous
 62
     7
370
    15
100
AcDbLine
 10
58.2998106047
 20
535.3517291005
 30
0.0
 11
50.0175962016
 21
535.3517291005
 31
0.0
  0
LINE
  5
151
330
1F
100
AcDbEntity
  8
0
  6
Continuous
 62
     7
370
    15
100
AcDbLine
 10
42.8994158074
 20
396.6201200019
 30
0.0
 11
42.7716979548
 21
396.6201200019
 31
0.0
  0
LINE
  5
152
330
1F
100
AcDbEntity
  8
0
  6
Continuous
 62
     7
370
    15
100
AcDbLine
 10
22.4148491189
 20
508.6201188024
 30
0.0
 11
41.8188581034
 21
535.3517291005
 31
0.0
  0
LINE
  5
153
330
1F
100
AcDbEntity
  8
0
  6
Continuous
 62
     7
370
    15
100
AcDbLine
 10
23.7571159169
 20
508.6201188024
 30
0.0
 11
43.886289911
 21
535.3517291005
 31
0.0
  0
LINE
  5
154
330
1F
100
AcDbEntity
  8
0
  6
Continuous
 62
     7
370
    15
100
AcDbLine
 10
23.7571159169
 20
508.6201188024
 30
0.0
 11
22.4148491189
 21
508.6201188024
 31
0.0
  0
LINE
  5
155
330
1F
100
AcDbEntity
  8
0
  6
Continuous
 62
     7
370
    15
100
AcDbLine
 10
22.4148491189
 20
508.6201188024
 30
0.0
 11
19.1720286176
 21
508.6201188024
 31
0.0
  0
LINE
  5
156
330
1F
100
AcDbEntity
  8
0
  6
Continuous
 62
     7
370
    15
100
AcDbLine
 10
51.0475942656
 20
402.4913200046
 30
0.0
 11
42.8994158074
 21
402.4913200046
 31
0.0
  0
LINE
  5
157
330
1F
100
AcDbEntity
  8
0
  6
Continuous
 62
     7
370
    15
100
AcDbLine
 10
51.0475942656
 20
403.620120218
 30
0.0
 11
45.3286329076
 21
403.620120218
 31
0.0
  0
LINE
  5
158
330
1F
100
AcDbEntity
  8
0
  6
Continuous
 62
     7
370
    15
100
AcDbLine
 10
48.047588186
 20
540.3701272662
 30
0.0
 11
24.0475991532
 21
540.3701272662
 31
0.0
  0
LINE
  5
159
330
1F
100
AcDbEntity
  8
0
  6
Continuous
 62
     7
370
    15
100
AcDbLine
 10
48.047588186
 20
542.870124882
 30
0.0
 11
24.0475991532
 21
542.870124882
 31
0.0
  0
LINE
  5
15A
330
1F
100
AcDbEntity
  8
0
  6
Continuous
 62
     7
370
    15
100
AcDbLine
 10
25.4517206713
 20
552.8701153453
 30
0.0
 11
25.4517206713
 21
542.870124882
 31
0.0
  0
LINE
  5
15B
330
1F
100
AcDbEntity
  8
0
  6
Continuous
 62
     7
370
    15
100
AcDbLine
 10
25.4517206713
 20
552.8701153453
 30
0.0
 11
33.2084307238
 21
552.8701153453
 31
0.0
  0
LINE
  5
15C
330
1F
100
AcDbEntity
  8
0
  6
Continuous
 62
     7
370
    15
100
AcDbLine
 10
33.2084307238
 20
552.8701153453
 30
0.0
 11
33.2084307238
 21
542.870124882
 31
0.0
  0
LINE
  5
15D
330
1F
100
AcDbEntity
  8
0
  6
Continuous
 62
     7
370
    15
100
AcDbLine
 10
33.2084307238
 20
552.8701153453
 30
0.0
 11
43.8043037221
 21
552.8701153453
 31
0.0
  0
LINE
  5
15E
330
1F
100
AcDbEntity
  8
0
  6
Continuous
 62
     7
370
    15
100
AcDbLine
 10
43.8043037221
 20
552.8701153453
 30
0.0
 11
43.8043037221
 21
542.870124882
 31
0.0
  0
LINE
  5
15F
330
1F
100
AcDbEntity
  8
0
  6
Continuous
 62
     7
370
    15
100
AcDbLine
 10
44.0475949809
 20
561.6201219018
 30
0.0
 11
28.0475923583
 21
561.6201219018
 31
0.0
  0
LINE
  5
160
330
1F
100
AcDbEntity
  8
0
  6
Continuous
 62
     7
370
    15
100
AcDbLine
 10
44.0475949809
 20
562.1201154645
 30
0.0
 11
28.0475923583
 21
562.1201154645
 31
0.0
  0
LINE
  5
161
330
1F
100
AcDbEntity
  8
0
  6
Continuous
 62
     7
370
    15
100
AcDbLine
 10
46.6434666678
 20
552.8701153453
 30
0.0
 11
46.6434666678
 21
542.870124882
 31
0.0
  0
LINE
  5
162
330
1F
100
AcDbEntity
  8
0
  6
Continuous
 62
     7
370
    15
100
AcDbLine
 10
43.8043037221
 20
552.8701153453
 30
0.0
 11
46.6434666678
 21
552.8701153453
 31
0.0
  0
LINE
  5
163
330
1F
100
AcDbEntity
  8
0
  6
Continuous
 62
     7
370
    15
100
AcDbLine
 10
42.5475993916
 20
573.6201164182
 30
0.0
 11
29.5475879475
 21
573.6201164182
 31
0.0
  0
SPLINE
  5
164
330
1F
100
AcDbEntity
  8
0
  6
Continuous
 62
     7
370
    15
100
AcDbSpline
210
0.0
220
0.0
230
1.0
 70
     8
 71
     3
 72
    21
 73
    17
 74
     0
 42
0.00000001
 43
0.00000001
 12
1.0
 22
0.0
 32
0.0
 13
1.0
 23
0.0
 33
0.0
 40
0.0
 40
0.0
 40
0.0
 40
0.0
 40
0.004432597172574
 40
0.010080797725711
 40
0.0205524695308054
 40
0.0387085417591598
 40
0.0569546782244732
 40
0.1148575202547317
 40
0.1729610008229048
 40
0.2310729473272175
 40
0.3694079734552321
 40
0.5078416344740151
 40
0.6463694447062027
 40
0.7849165311113455
 40
0.9233461144084376
 40
0.9999999999999999
 40
0.9999999999999999
 40
0.9999999999999999
 40
0.9999999999999999
 10
27.89427431075736
 20
510.9892767723227
 30
0.0
 10
27.89285400610361
 20
510.9720447753876
 30
0.0
 10
27.88962388990626
 20
510.9328550478417
 30
0.0
 10
27.87423043679077
 20
510.8649387495521
 30
0.0
 10
27.84305546766111
 20
510.7809682607306
 30
0.0
 10
27.7966298009425
 20
510.6979527110133
 30
0.0
 10
27.70118212138573
 20
510.5761268664482
 30
0.0
 10
27.56376358679399
 20
510.4455065524274
 30
0.0
 10
27.38566630113387
 20
510.338015631864
 30
0.0
 10
27.12602013161291
 20
510.2225942623531
 30
0.0
 10
26.78507789979534
 20
510.1009552561317
 30
0.0
 10
26.36442764905359
 20
510.0180244619681
 30
0.0
 10
25.94578819015828
 20
509.9875663373522
 30
0.0
 10
25.529690504975
 20
510.0077116357099
 30
0.0
 10
25.17672829768222
 20
510.046553024911
 30
0.0
 10
24.96411212980684
 20
510.1024725023864
 30
0.0
 10
24.88833756892844
 20
510.1224017198707
 30
0.0
  0
LINE
  5
165
330
1F
100
AcDbEntity
  8
0
  6
Continuous
 62
     7
370
    15
100
AcDbLine
 10
28.0651608273
 20
514.3412184771
 30
0.0
 11
27.8942743108
 21
510.9892767723
 31
0.0
  0
LINE
  5
166
330
1F
100
AcDbEntity
  8
0
  6
Continuous
 62
     7
370
    15
100
AcDbLine
 10
28.1842062041
 20
508.6201188024
 30
0.0
 11
28.4133413598
 21
514.8036164101
 31
0.0
  0
LINE
  5
167
330
1F
100
AcDbEntity
  8
0
  6
Continuous
 62
     7
370
    15
100
AcDbLine
 10
23.7571159169
 20
508.6201188024
 30
0.0
 11
28.1842062041
 21
508.6201188024
 31
0.0
  0
LINE
  5
168
330
1F
100
AcDbEntity
  8
0
  6
Continuous
 62
     7
370
    15
100
AcDbLine
 10
48.0336257979
 20
535.3517291005
 30
0.0
 11
42.0475909278
 21
527.105158275
 31
0.0
  0
LINE
  5
169
330
1F
100
AcDbEntity
  8
0
  6
Continuous
 62
     7
370
    15
100
AcDbLine
 10
30.0475964114
 20
510.5735567268
 30
0.0
 11
28.6296317145
 21
508.6201188024
 31
0.0
  0
LINE
  5
16A
330
1F
100
AcDbEntity
  8
0
  6
Continuous
 62
     7
370
    15
100
AcDbLine
 10
28.1842062041
 20
508.6201188024
 30
0.0
 11
28.6296317145
 21
508.6201188024
 31
0.0
  0
LINE
  5
16B
330
1F
100
AcDbEntity
  8
0
  6
Continuous
 62
     7
370
    15
100
AcDbLine
 10
50.1010725066
 20
535.3517291005
 30
0.0
 11
42.0475909278
 21
524.6567037757
 31
0.0
  0
LINE
  5
16C
330
1F
100
AcDbEntity
  8
0
  6
Continuous
 62
     7
370
    15
100
AcDbLine
 10
30.0475964114
 20
508.7206643875
 30
0.0
 11
29.9718836114
 21
508.6201188024
 31
0.0
  0
LINE
  5
16D
330
1F
100
AcDbEntity
  8
0
  6
Continuous
 62
     7
370
    15
100
AcDbLine
 10
29.9718836114
 20
508.6201188024
 30
0.0
 11
28.6296317145
 21
508.6201188024
 31
0.0
  0
LINE
  5
16E
330
1F
100
AcDbEntity
  8
0
  6
Continuous
 62
     7
370
    15
100
AcDbLine
 10
51.414714174
 20
396.6201200019
 30
0.0
 11
47.8933313653
 21
396.6201200019
 31
0.0
  0
LINE
  5
16F
330
1F
100
AcDbEntity
  8
0
  6
Continuous
 62
     7
370
    15
100
AcDbLine
 10
47.8933313653
 20
396.6201200019
 30
0.0
 11
46.76412137
 21
396.6201200019
 31
0.0
  0
LINE
  5
170
330
1F
100
AcDbEntity
  8
0
  6
Continuous
 62
     7
370
    15
100
AcDbLine
 10
42.8994158074
 20
396.6201200019
 30
0.0
 11
46.76412137
 21
396.6201200019
 31
0.0
  0
LINE
  5
171
330
1F
100
AcDbEntity
  8
0
  6
Continuous
 62
     7
370
    15
100
AcDbLine
 10
53.7239024207
 20
394.6201201398
 30
0.0
 11
33.9626529977
 21
394.6201201398
 31
0.0
  0
LINE
  5
172
330
1F
100
AcDbEntity
  8
0
  6
Continuous
 62
     7
370
    15
100
AcDbLine
 10
-269.5148429111
 20
394.6201201398
 30
0.0
 11
-289.2760923341
 21
394.6201201398
 31
0.0
  0
LINE
  5
173
330
1F
100
AcDbEntity
  8
0
  6
Continuous
 62
     7
370
    15
100
AcDbLine
 10
-256.9001605943
 20
535.3517291005
 30
0.0
 11
-285.65326242
 21
535.3517291005
 31
0.0
  0
LINE
  5
174
330
1F
100
AcDbEntity
  8
0
  6
Continuous
 62
     7
370
    15
100
AcDbLine
 10
-293.8520005182
 20
535.3517291005
 30
0.0
 11
-285.65326242
 21
535.3517291005
 31
0.0
  0
LINE
  5
175
330
1F
100
AcDbEntity
  8
0
  6
Continuous
 62
     7
370
    15
100
AcDbLine
 10
-293.8520005182
 20
540.3517392333
 30
0.0
 11
-293.8520005182
 21
535.3517291005
 31
0.0
  0
LINE
  5
176
330
1F
100
AcDbEntity
  8
0
  6
Continuous
 62
     7
370
    15
100
AcDbLine
 10
-245.2760925725
 20
540.3517392333
 30
0.0
 11
-293.8520005182
 21
540.3517392333
 31
0.0
  0
LINE
  5
177
330
1F
100
AcDbEntity
  8
0
  6
Continuous
 62
     7
370
    15
100
AcDbLine
 10
-285.65326242
 20
535.3517291005
 30
0.0
 11
-265.5240735248
 21
508.6201188024
 31
0.0
  0
LINE
  5
178
330
1F
100
AcDbEntity
  8
0
  6
Continuous
 62
     7
370
    15
100
AcDbLine
 10
-264.1966631845
 20
508.6201188024
 30
0.0
 11
-265.5240735248
 21
508.6201188024
 31
0.0
  0
LINE
  5
179
330
1F
100
AcDbEntity
  8
0
  6
Continuous
 62
     7
370
    15
100
AcDbLine
 10
-274.7056177095
 20
542.870124882
 30
0.0
 11
-283.5997780994
 21
542.870124882
 31
0.0
  0
LINE
  5
17A
330
1F
100
AcDbEntity
  8
0
  6
Continuous
 62
     7
370
    15
100
AcDbLine
 10
-259.5997890666
 20
542.870124882
 30
0.0
 11
-274.7056177095
 21
542.870124882
 31
0.0
  0
LINE
  5
17B
330
1F
100
AcDbEntity
  8
0
  6
Continuous
 62
     7
370
    15
100
AcDbLine
 10
-274.7056177095
 20
540.3701272662
 30
0.0
 11
-283.5997780994
 21
540.3701272662
 31
0.0
  0
LINE
  5
17C
330
1F
100
AcDbEntity
  8
0
  6
Continuous
 62
     7
370
    15
100
AcDbLine
 10
-259.5997890666
 20
540.3701272662
 30
0.0
 11
-274.7056177095
 21
540.3701272662
 31
0.0
  0
LINE
  5
17D
330
1F
100
AcDbEntity
  8
0
  6
Continuous
 62
     7
370
    15
100
AcDbLine
 10
-282.1956565812
 20
552.8701153453
 30
0.0
 11
-282.1956565812
 21
542.870124882
 31
0.0
  0
LINE
  5
17E
330
1F
100
AcDbEntity
  8
0
  6
Continuous
 62
     7
370
    15
100
AcDbLine
 10
-282.1956565812
 20
552.8701153453
 30
0.0
 11
-274.4389316276
 21
552.8701153453
 31
0.0
  0
LINE
  5
17F
330
1F
100
AcDbEntity
  8
0
  6
Continuous
 62
     7
370
    15
100
AcDbLine
 10
-274.4389316276
 20
552.8701153453
 30
0.0
 11
-274.4389316276
 21
542.870124882
 31
0.0
  0
LINE
  5
180
330
1F
100
AcDbEntity
  8
0
  6
Continuous
 62
     7
370
    15
100
AcDbLine
 10
-263.8430586293
 20
552.8701153453
 30
0.0
 11
-263.8430586293
 21
542.870124882
 31
0.0
  0
LINE
  5
181
330
1F
100
AcDbEntity
  8
0
  6
Continuous
 62
     7
370
    15
100
AcDbLine
 10
-274.4389316276
 20
552.8701153453
 30
0.0
 11
-263.8430586293
 21
552.8701153453
 31
0.0
  0
LINE
  5
182
330
1F
100
AcDbEntity
  8
0
  6
Continuous
 62
     7
370
    15
100
AcDbLine
 10
-273.6703297332
 20
562.1201154645
 30
0.0
 11
-279.5997848943
 21
562.1201154645
 31
0.0
  0
LINE
  5
183
330
1F
100
AcDbEntity
  8
0
  6
Continuous
 62
     7
370
    15
100
AcDbLine
 10
-263.5997822717
 20
562.1201154645
 30
0.0
 11
-273.6703297332
 21
562.1201154645
 31
0.0
  0
LINE
  5
184
330
1F
100
AcDbEntity
  8
0
  6
Continuous
 62
     7
370
    15
100
AcDbLine
 10
-273.6703297332
 20
561.6201219018
 30
0.0
 11
-279.5997848943
 21
561.6201219018
 31
0.0
  0
LINE
  5
185
330
1F
100
AcDbEntity
  8
0
  6
Continuous
 62
     7
370
    15
100
AcDbLine
 10
-263.5997822717
 20
561.6201219018
 30
0.0
 11
-273.6703297332
 21
561.6201219018
 31
0.0
  0
LINE
  5
186
330
1F
100
AcDbEntity
  8
0
  6
Continuous
 62
     7
370
    15
100
AcDbLine
 10
-261.0039105848
 20
552.8701153453
 30
0.0
 11
-261.0039105848
 21
542.870124882
 31
0.0
  0
LINE
  5
187
330
1F
100
AcDbEntity
  8
0
  6
Continuous
 62
     7
370
    15
100
AcDbLine
 10
-263.8430586293
 20
552.8701153453
 30
0.0
 11
-261.0039105848
 21
552.8701153453
 31
0.0
  0
LINE
  5
188
330
1F
100
AcDbEntity
  8
0
  6
Continuous
 62
     7
370
    15
100
AcDbLine
 10
-273.2821097806
 20
573.6201164182
 30
0.0
 11
-278.099789305
 21
573.6201164182
 31
0.0
  0
LINE
  5
189
330
1F
100
AcDbEntity
  8
0
  6
Continuous
 62
     7
370
    15
100
AcDbLine
 10
-265.0997778609
 20
573.6201164182
 30
0.0
 11
-273.2821097806
 21
573.6201164182
 31
0.0
  0
LINE
  5
18A
330
1F
100
AcDbEntity
  8
0
  6
Continuous
 62
     7
370
    15
100
AcDbLine
 10
-84.3158802226
 20
552.8701153453
 30
0.0
 11
-84.3158802226
 21
543.3517304118
 31
0.0
  0
LINE
  5
18B
330
1F
100
AcDbEntity
  8
0
  6
Continuous
 62
     7
370
    15
100
AcDbLine
 10
-84.3158802226
 20
552.8701153453
 30
0.0
 11
-73.7200072244
 21
552.8701153453
 31
0.0
  0
LINE
  5
18C
330
1F
100
AcDbEntity
  8
0
  6
Continuous
 62
     7
370
    15
100
AcDbLine
 10
-73.7200072244
 20
552.8701153453
 30
0.0
 11
-73.7200072244
 21
543.3517304118
 31
0.0
  0
LINE
  5
18D
330
1F
100
AcDbEntity
  8
0
  6
Continuous
 62
     7
370
    15
100
AcDbLine
 10
-65.9632897213
 20
552.8701153453
 30
0.0
 11
-65.9632897213
 21
543.3517304118
 31
0.0
  0
LINE
  5
18E
330
1F
100
AcDbEntity
  8
0
  6
Continuous
 62
     7
370
    15
100
AcDbLine
 10
-73.7200072244
 20
552.8701153453
 30
0.0
 11
-65.9632897213
 21
552.8701153453
 31
0.0
  0
LINE
  5
18F
330
1F
100
AcDbEntity
  8
0
  6
Continuous
 62
     7
370
    15
100
AcDbLine
 10
-68.5591614083
 20
562.1201154645
 30
0.0
 11
-84.5591603056
 21
562.1201154645
 31
0.0
  0
LINE
  5
190
330
1F
100
AcDbEntity
  8
0
  6
Continuous
 62
     7
370
    15
100
AcDbLine
 10
-68.5591614083
 20
561.6201219018
 30
0.0
 11
-84.5591603056
 21
561.6201219018
 31
0.0
  0
LINE
  5
191
330
1F
100
AcDbEntity
  8
0
  6
Continuous
 62
     7
370
    15
100
AcDbLine
 10
-87.1550357178
 20
552.8701153453
 30
0.0
 11
-87.1550357178
 21
543.3517304118
 31
0.0
  0
LINE
  5
192
330
1F
100
AcDbEntity
  8
0
  6
Continuous
 62
     7
370
    15
100
AcDbLine
 10
-87.1550357178
 20
552.8701153453
 30
0.0
 11
-84.3158802226
 21
552.8701153453
 31
0.0
  0
LINE
  5
193
330
1F
100
AcDbEntity
  8
0
  6
Continuous
 62
     7
370
    15
100
AcDbLine
 10
-70.0591607228
 20
573.6201164182
 30
0.0
 11
-83.059160991
 21
573.6201164182
 31
0.0
  0
LINE
  5
194
330
1F
100
AcDbEntity
  8
0
  6
Continuous
 62
     8
370
     0
100
AcDbLine
 10
-178.0807851091
 20
396.6201200019
 30
0.0
 11
-178.0807851091
 21
403.620120218
 31
0.0
  0
LINE
  5
195
330
1F
100
AcDbEntity
  8
0
  6
Continuous
 62
     8
370
     0
100
AcDbLine
 10
-203.5260936454
 20
394.6201201398
 30
0.0
 11
-203.5260936454
 21
396.6201200019
 31
0.0
  0
LINE
  5
196
330
1F
100
AcDbEntity
  8
0
  6
Continuous
 62
     8
370
     0
100
AcDbLine
 10
-266.2994554475
 20
394.6201201398
 30
0.0
 11
-266.2994554475
 21
396.6201200019
 31
0.0
  0
LINE
  5
197
330
1F
100
AcDbEntity
  8
0
  6
Continuous
 62
     8
370
     0
100
AcDbLine
 10
51.414714174
 20
403.620120218
 30
0.0
 11
51.414714174
 21
396.6201200019
 31
0.0
  0
LINE
  5
198
330
1F
100
AcDbEntity
  8
0
  6
Continuous
 62
     8
370
     0
100
AcDbLine
 10
42.7716979548
 20
396.6201200019
 30
0.0
 11
42.7716979548
 21
403.620120218
 31
0.0
  0
LINE
  5
199
330
1F
100
AcDbEntity
  8
0
  6
Continuous
 62
     8
370
     0
100
AcDbLine
 10
30.7472655341
 20
394.6201201398
 30
0.0
 11
30.7472655341
 21
396.6201200019
 31
0.0
  0
LINE
  5
19A
330
1F
100
AcDbEntity
  8
0
  6
Continuous
 62
     8
370
     0
100
AcDbLine
 10
-32.026096268
 20
394.6201201398
 30
0.0
 11
-32.026096268
 21
396.6201200019
 31
0.0
  0
LINE
  5
19B
330
1F
100
AcDbEntity
  8
0
  6
Continuous
 62
     8
370
     0
100
AcDbLine
 10
-145.8245991007
 20
403.620120218
 30
0.0
 11
-145.8245991007
 21
396.6201200019
 31
0.0
  0
LINE
  5
19C
330
1F
100
AcDbEntity
  8
0
  6
Continuous
 62
     8
370
     0
100
AcDbLine
 10
-141.908311306
 20
510.9892767723
 30
0.0
 11
21.5514162347
 21
510.9892767723
 31
0.0
  0
LINE
  5
19D
330
1F
100
AcDbEntity
  8
0
  6
Continuous
 62
     8
370
     0
100
AcDbLine
 10
-152.9930262104
 20
510.9892767723
 30
0.0
 11
-148.7027267203
 21
510.9892767723
 31
0.0
  0
LINE
  5
19E
330
1F
100
AcDbEntity
  8
0
  6
Continuous
 62
     8
370
     0
100
AcDbLine
 10
22.0220396086
 20
508.0241617616
 30
0.0
 11
-152.9930262104
 21
508.0241617616
 31
0.0
  0
LINE
  5
19F
330
1F
100
AcDbEntity
  8
0
  6
Continuous
 62
     8
370
     0
100
AcDbLine
 10
-164.9930281773
 20
508.0241617616
 30
0.0
 11
-257.5742295221
 21
508.0241617616
 31
0.0
  0
LINE
  5
1A0
330
1F
100
AcDbEntity
  8
0
  6
Continuous
 62
     8
370
     0
100
AcDbLine
 10
21.6522672936
 20
503.7976634558
 30
0.0
 11
-152.9930262104
 21
503.7976634558
 31
0.0
  0
LINE
  5
1A1
330
1F
100
AcDbEntity
  8
0
  6
Continuous
 62
     8
370
     0
100
AcDbLine
 10
-164.9930281773
 20
503.7976634558
 30
0.0
 11
-257.204457207
 21
503.7976634558
 31
0.0
  0
LINE
  5
1A2
330
1F
100
AcDbEntity
  8
0
  6
Continuous
 62
     8
370
     0
100
AcDbLine
 10
-266.6932335332
 20
510.9892767723
 30
0.0
 11
-171.0435440973
 21
510.9892767723
 31
0.0
  0
LINE
  5
1A3
330
1F
100
AcDbEntity
  8
0
  6
Continuous
 62
     8
370
     0
100
AcDbLine
 10
11.8410298392
 20
495.5650624688
 30
0.0
 11
-152.9930262104
 21
495.5650624688
 31
0.0
  0
LINE
  5
1A4
330
1F
100
AcDbEntity
  8
0
  6
Continuous
 62
     8
370
     0
100
AcDbLine
 10
-164.9930281773
 20
495.5650624688
 30
0.0
 11
-247.3932197526
 21
495.5650624688
 31
0.0
  0
LINE
  5
1A5
330
1F
100
AcDbEntity
  8
0
  6
Continuous
 62
     8
370
     0
100
AcDbLine
 10
13.2954874799
 20
445.2187587376
 30
0.0
 11
-152.9930262104
 21
445.2187587376
 31
0.0
  0
LINE
  5
1A6
330
1F
100
AcDbEntity
  8
0
  6
Continuous
 62
     8
370
     0
100
AcDbLine
 10
-164.9930281773
 20
445.2187587376
 30
0.0
 11
-248.8476773933
 21
445.2187587376
 31
0.0
  0
LINE
  5
1A7
330
1F
100
AcDbEntity
  8
0
  6
Continuous
 62
     8
370
     0
100
AcDbLine
 10
8.5693457886
 20
439.8768265601
 30
0.0
 11
-152.9930262104
 21
439.8768265601
 31
0.0
  0
LINE
  5
1A8
330
1F
100
AcDbEntity
  8
0
  6
Continuous
 62
     8
370
     0
100
AcDbLine
 10
-164.9930281773
 20
439.8768265601
 30
0.0
 11
-244.1215357021
 21
439.8768265601
 31
0.0
  0
LINE
  5
1A9
330
1F
100
AcDbEntity
  8
0
  6
Continuous
 62
     8
370
     0
100
AcDbLine
 10
10.0671509072
 20
491.3860616143
 30
0.0
 11
-152.9930262104
 21
491.3860616143
 31
0.0
  0
LINE
  5
1AA
330
1F
100
AcDbEntity
  8
0
  6
Continuous
 62
     8
370
     0
100
AcDbLine
 10
-164.9930281773
 20
491.3860616143
 30
0.0
 11
-245.6193408206
 21
491.3860616143
 31
0.0
  0
LINE
  5
1AB
330
1F
100
AcDbEntity
  8
0
  6
Continuous
 62
     8
370
     0
100
AcDbLine
 10
-146.9930270895
 20
541.3517263587
 30
0.0
 11
9.7239026591
 21
541.3517263587
 31
0.0
  0
LINE
  5
1AC
330
1F
100
AcDbEntity
  8
0
  6
Continuous
 62
     8
370
     0
100
AcDbLine
 10
-245.2760925725
 20
541.3517263587
 30
0.0
 11
-170.9930291608
 21
541.3517263587
 31
0.0
  0
LINE
  5
1AD
330
1F
100
AcDbEntity
  8
0
  6
Continuous
 62
     8
370
     0
100
AcDbLine
 10
7.5668999717
 20
439.8242925163
 30
0.0
 11
-152.9930262104
 21
439.8242925163
 31
0.0
  0
LINE
  5
1AE
330
1F
100
AcDbEntity
  8
0
  6
Continuous
 62
     8
370
     0
100
AcDbLine
 10
-164.9930281773
 20
439.8242925163
 30
0.0
 11
-243.1190898851
 21
439.8242925163
 31
0.0
  0
LINE
  5
1AF
330
1F
100
AcDbEntity
  8
0
  6
Continuous
 62
     8
370
     0
100
AcDbLine
 10
4.7239074275
 20
415.7337006982
 30
0.0
 11
-152.9930262104
 21
415.7337006982
 31
0.0
  0
LINE
  5
1B0
330
1F
100
AcDbEntity
  8
0
  6
Continuous
 62
     8
370
     0
100
AcDbLine
 10
-164.9930281773
 20
415.7337006982
 30
0.0
 11
-240.2760973409
 21
415.7337006982
 31
0.0
  0
LINE
  5
1B1
330
1F
100
AcDbEntity
  8
0
  6
Continuous
 62
     8
370
     0
100
AcDbLine
 10
4.7239074275
 20
436.8284028824
 30
0.0
 11
-152.9930262104
 21
436.8284028824
 31
0.0
  0
LINE
  5
1B2
330
1F
100
AcDbEntity
  8
0
  6
Continuous
 62
     8
370
     0
100
AcDbLine
 10
-164.9930281773
 20
436.8284028824
 30
0.0
 11
-240.2760973409
 21
436.8284028824
 31
0.0
  0
LINE
  5
1B3
330
1F
100
AcDbEntity
  8
0
  6
Continuous
 62
     8
370
     0
100
AcDbLine
 10
25.5411127373
 20
510.9892767723
 30
0.0
 11
27.8942743108
 21
510.9892767723
 31
0.0
  0
LINE
  5
1B4
330
1F
100
AcDbEntity
  8
0
  6
Continuous
 62
     8
370
     0
100
AcDbLine
 10
47.8933313653
 20
396.6201200019
 30
0.0
 11
47.8933313653
 21
400.1607327591
 31
0.0
  0
LINE
  5
1B5
330
1F
100
AcDbEntity
  8
0
  6
CENTERX2
 62
     7
370
     0
100
AcDbLine
 10
-117.7760949567
 20
562.0647494251
 30
0.0
 11
-117.7760949567
 21
377.2074445171
 31
0.0
  0
LINE
  5
1B6
330
1F
100
AcDbEntity
  8
0
  6
Continuous
 62
     7
370
    15
100
AcDbLine
 10
815.8669466935
 20
396.6201200019
 30
0.0
 11
815.8669466935
 21
413.6201199945
 31
0.0
  0
LINE
  5
1B7
330
1F
100
AcDbEntity
  8
0
  6
Continuous
 62
     7
370
    15
100
AcDbLine
 10
472.8669519387
 20
413.6201199945
 30
0.0
 11
472.8669519387
 21
396.6201200019
 31
0.0
  0
LINE
  5
1B8
330
1F
100
AcDbEntity
  8
0
  6
Continuous
 62
     7
370
    15
100
AcDbLine
 10
614.6455420964
 20
403.620120218
 30
0.0
 11
614.6455420964
 21
396.6201200019
 31
0.0
  0
ARC
  5
1B9
330
1F
100
AcDbEntity
  8
0
  6
Continuous
 62
     7
370
    15
100
AcDbCircle
 10
603.1500163836
 20
419.4927916329
 30
0.0
 40
22.67267151925524
100
AcDbArc
 50
228.5787947176
 51
300.4656175796
  0
LINE
  5
1BA
330
1F
100
AcDbEntity
  8
0
  6
Continuous
 62
     7
370
    15
100
AcDbLine
 10
588.1500164829
 20
403.620120218
 30
0.0
 11
588.1500164829
 21
402.4913200046
 31
0.0
  0
LINE
  5
1BB
330
1F
100
AcDbEntity
  8
0
  6
Continuous
 62
     7
370
    15
100
AcDbLine
 10
615.1500171833
 20
540.3701272662
 30
0.0
 11
615.1500171833
 21
542.870124882
 31
0.0
  0
LINE
  5
1BC
330
1F
100
AcDbEntity
  8
0
  6
Continuous
 62
     7
370
    15
100
AcDbLine
 10
591.150015112
 20
542.870124882
 30
0.0
 11
591.150015112
 21
540.3701272662
 31
0.0
  0
LINE
  5
1BD
330
1F
100
AcDbEntity
  8
0
  6
Continuous
 62
     7
370
    15
100
AcDbLine
 10
611.150014665
 20
561.6201219018
 30
0.0
 11
611.150014665
 21
562.1201154645
 31
0.0
  0
LINE
  5
1BE
330
1F
100
AcDbEntity
  8
0
  6
Continuous
 62
     7
370
    15
100
AcDbLine
 10
595.1500157677
 20
562.1201154645
 30
0.0
 11
595.1500157677
 21
561.6201219018
 31
0.0
  0
LINE
  5
1BF
330
1F
100
AcDbEntity
  8
0
  6
Continuous
 62
     7
370
    15
100
AcDbLine
 10
586.7655197941
 20
396.6201200019
 30
0.0
 11
586.7655197941
 21
403.620120218
 31
0.0
  0
LINE
  5
1C0
330
1F
100
AcDbEntity
  8
0
  6
Continuous
 62
     7
370
    15
100
AcDbLine
 10
609.6500153505
 20
562.1201154645
 30
0.0
 11
609.6500153505
 21
573.6201164182
 31
0.0
  0
LINE
  5
1C1
330
1F
100
AcDbEntity
  8
0
  6
Continuous
 62
     7
370
    15
100
AcDbLine
 10
596.6500150822
 20
573.6201164182
 30
0.0
 11
596.6500150822
 21
562.1201154645
 31
0.0
  0
LINE
  5
1C2
330
1F
100
AcDbEntity
  8
0
  6
Continuous
 62
     7
370
    15
100
AcDbLine
 10
609.1500180625
 20
413.6201199945
 30
0.0
 11
609.1500180625
 21
531.6654947456
 31
0.0
  0
LINE
  5
1C3
330
1F
100
AcDbEntity
  8
0
  6
Continuous
 62
     7
370
    15
100
AcDbLine
 10
609.1500180625
 20
540.3517392333
 30
0.0
 11
609.1500180625
 21
540.3701272662
 31
0.0
  0
LINE
  5
1C4
330
1F
100
AcDbEntity
  8
0
  6
Continuous
 62
     7
370
    15
100
AcDbLine
 10
597.1500160955
 20
540.3701272662
 30
0.0
 11
597.1500160955
 21
540.3517392333
 31
0.0
  0
LINE
  5
1C5
330
1F
100
AcDbEntity
  8
0
  6
Continuous
 62
     7
370
    15
100
AcDbLine
 10
597.1500160955
 20
535.3517291005
 30
0.0
 11
597.1500160955
 21
413.6201199945
 31
0.0
  0
LINE
  5
1C6
330
1F
100
AcDbEntity
  8
0
  6
Continuous
 62
     7
370
    15
100
AcDbLine
 10
609.1500180625
 20
552.8701153453
 30
0.0
 11
609.1500180625
 21
561.6201219018
 31
0.0
  0
LINE
  5
1C7
330
1F
100
AcDbEntity
  8
0
  6
Continuous
 62
     7
370
    15
100
AcDbLine
 10
597.1500160955
 20
561.6201219018
 30
0.0
 11
597.1500160955
 21
552.8701153453
 31
0.0
  0
ARC
  5
1C8
330
1F
100
AcDbEntity
  8
0
  6
Continuous
 62
     7
370
    15
100
AcDbCircle
 10
781.8669493161
 20
506.0958000027
 30
0.0
 40
3.00000000000003
100
AcDbArc
 50
310.0
 51
40.0
  0
ARC
  5
1C9
330
1F
100
AcDbEntity
  8
0
  6
Continuous
 62
     7
370
    15
100
AcDbCircle
 10
506.8669493161
 20
506.0958000027
 30
0.0
 40
3.00000000000003
100
AcDbArc
 50
140.0
 51
230.0
  0
LINE
  5
1CA
330
1F
100
AcDbEntity
  8
0
  6
Continuous
 62
     7
370
    15
100
AcDbLine
 10
516.8669517003
 20
539.5825412925
 30
0.0
 11
494.3802351915
 21
531.3980487044
 31
0.0
  0
LINE
  5
1CB
330
1F
100
AcDbEntity
  8
0
  6
Continuous
 62
     7
370
    15
100
AcDbLine
 10
494.3802351915
 20
531.3980487044
 30
0.0
 11
495.4498107396
 21
510.9892767723
 31
0.0
  0
ARC
  5
1CC
330
1F
100
AcDbEntity
  8
0
  6
Continuous
 62
     7
370
    15
100
AcDbCircle
 10
782.6329937593
 20
506.7385876124
 30
0.0
 40
2.000000000000037
100
AcDbArc
 50
40.0
 51
70.1806389043
  0
ARC
  5
1CD
330
1F
100
AcDbEntity
  8
0
  6
Continuous
 62
     7
370
    15
100
AcDbCircle
 10
506.100904873
 20
506.7385876124
 30
0.0
 40
1.999999999999993
100
AcDbArc
 50
109.8193610957
 51
140.0
  0
ARC
  5
1CE
330
1F
100
AcDbEntity
  8
0
  6
Continuous
 62
     7
370
    15
100
AcDbCircle
 10
497.9463823137
 20
511.1201201137
 30
0.0
 40
2.500000000000057
100
AcDbArc
 50
183.0
 51
270.0
  0
LINE
  5
1CF
330
1F
100
AcDbEntity
  8
0
  6
Continuous
 62
     7
370
    15
100
AcDbLine
 10
504.9385870658
 20
503.7976634558
 30
0.0
 11
514.7498245202
 21
495.5650624688
 31
0.0
  0
LINE
  5
1D0
330
1F
100
AcDbEntity
  8
0
  6
Continuous
 62
     7
370
    15
100
AcDbLine
 10
773.9840741121
 20
495.5650624688
 30
0.0
 11
783.7953115665
 21
503.7976634558
 31
0.0
  0
LINE
  5
1D1
330
1F
100
AcDbEntity
  8
0
  6
Continuous
 62
     7
370
    15
100
AcDbLine
 10
509.8640913926
 20
394.1229745615
 30
0.0
 11
512.3669500314
 21
391.6201201137
 31
0.0
  0
LINE
  5
1D2
330
1F
100
AcDbEntity
  8
0
  6
Continuous
 62
     7
370
    15
100
AcDbLine
 10
776.3669486009
 20
391.6201201137
 30
0.0
 11
778.8698072396
 21
394.1229745615
 31
0.0
  0
ARC
  5
1D3
330
1F
100
AcDbEntity
  8
0
  6
Continuous
 62
     7
370
    15
100
AcDbCircle
 10
770.4507085147
 20
444.8699758712
 30
0.0
 40
5.000000000000012
100
AcDbArc
 50
273.0
 51
4.0
  0
ARC
  5
1D4
330
1F
100
AcDbEntity
  8
0
  6
Continuous
 62
     7
370
    15
100
AcDbCircle
 10
518.2831901176
 20
444.8699758712
 30
0.0
 40
5.000000000000012
100
AcDbArc
 50
176.0
 51
267.0
  0
LINE
  5
1D5
330
1F
100
AcDbEntity
  8
0
  6
Continuous
 62
     7
370
    15
100
AcDbLine
 10
775.4385317527
 20
445.2187587376
 30
0.0
 11
772.2101951801
 21
491.3860616143
 31
0.0
  0
LINE
  5
1D6
330
1F
100
AcDbEntity
  8
0
  6
Continuous
 62
     7
370
    15
100
AcDbLine
 10
516.5237034522
 20
491.3860616143
 30
0.0
 11
513.2953668796
 21
445.2187587376
 31
0.0
  0
ARC
  5
1D7
330
1F
100
AcDbEntity
  8
0
  6
Continuous
 62
     7
370
    15
100
AcDbCircle
 10
777.1980168051
 20
491.73484214
 30
0.0
 40
5.000000000000004
100
AcDbArc
 50
130.0
 51
184.0
  0
ARC
  5
1D8
330
1F
100
AcDbEntity
  8
0
  6
Continuous
 62
     7
370
    15
100
AcDbCircle
 10
511.5358818271
 20
491.73484214
 30
0.0
 40
5.000000000000004
100
AcDbArc
 50
356.0
 51
50.0
  0
LINE
  5
1D9
330
1F
100
AcDbEntity
  8
0
  6
Continuous
 62
     7
370
    15
100
AcDbLine
 10
516.8669517003
 20
541.3517263587
 30
0.0
 11
516.8669517003
 21
539.5825412925
 31
0.0
  0
LINE
  5
1DA
330
1F
100
AcDbEntity
  8
0
  6
Continuous
 62
     7
370
    15
100
AcDbLine
 10
771.866946932
 20
540.3517392333
 30
0.0
 11
771.866946932
 21
541.3517263587
 31
0.0
  0
ARC
  5
1DB
330
1F
100
AcDbEntity
  8
0
  6
Continuous
 62
     7
370
    15
100
AcDbCircle
 10
518.8669493161
 20
541.3517331591
 30
0.0
 40
2.0
100
AcDbArc
 50
90.0
 51
180.0
  0
ARC
  5
1DC
330
1F
100
AcDbEntity
  8
0
  6
Continuous
 62
     7
370
    15
100
AcDbCircle
 10
769.8669493161
 20
541.3517331591
 30
0.0
 40
2.0
100
AcDbArc
 50
0.0
 51
90.0
  0
LINE
  5
1DD
330
1F
100
AcDbEntity
  8
0
  6
Continuous
 62
     7
370
    15
100
AcDbLine
 10
518.0215085708
 20
439.8768265601
 30
0.0
 11
519.0239543878
 21
439.8242925163
 31
0.0
  0
LINE
  5
1DE
330
1F
100
AcDbEntity
  8
0
  6
Continuous
 62
     7
370
    15
100
AcDbLine
 10
769.7099442445
 20
439.8242925163
 30
0.0
 11
770.7123900615
 21
439.8768265601
 31
0.0
  0
ARC
  5
1DF
330
1F
100
AcDbEntity
  8
0
  6
Continuous
 62
     7
370
    15
100
AcDbCircle
 10
769.8669493161
 20
415.7337012232
 30
0.0
 40
3.000000000000123
100
AcDbArc
 50
180.0
 51
224.791346703
  0
ARC
  5
1E0
330
1F
100
AcDbEntity
  8
0
  6
Continuous
 62
     7
370
    15
100
AcDbCircle
 10
518.8669493161
 20
415.7337012232
 30
0.0
 40
3.000000000000114
100
AcDbArc
 50
315.208653297
 51
0.0
  0
ARC
  5
1E1
330
1F
100
AcDbEntity
  8
0
  6
Continuous
 62
     7
370
    15
100
AcDbCircle
 10
769.8669493161
 20
436.82840358
 30
0.0
 40
3.000000000000114
100
AcDbArc
 50
93.0
 51
180.0
  0
ARC
  5
1E2
330
1F
100
AcDbEntity
  8
0
  6
Continuous
 62
     7
370
    15
100
AcDbCircle
 10
518.8669493161
 20
436.82840358
 30
0.0
 40
3.000000000000114
100
AcDbArc
 50
0.0
 51
87.0
  0
LINE
  5
1E3
330
1F
100
AcDbEntity
  8
0
  6
Continuous
 62
     7
370
    15
100
AcDbLine
 10
766.8669517003
 20
415.7337006982
 30
0.0
 11
766.8669517003
 21
436.8284028824
 31
0.0
  0
LINE
  5
1E4
330
1F
100
AcDbEntity
  8
0
  6
Continuous
 62
     7
370
    15
100
AcDbLine
 10
521.866946932
 20
436.8284028824
 30
0.0
 11
521.866946932
 21
415.7337006982
 31
0.0
  0
LINE
  5
1E5
330
1F
100
AcDbEntity
  8
0
  6
Continuous
 62
     7
370
    15
100
AcDbLine
 10
492.6282013618
 20
396.6201200019
 30
0.0
 11
492.6282013618
 21
394.6201201398
 31
0.0
  0
LINE
  5
1E6
330
1F
100
AcDbEntity
  8
0
  6
Continuous
 62
     7
370
    15
100
AcDbLine
 10
796.1056972705
 20
394.6201201398
 30
0.0
 11
796.1056972705
 21
396.6201200019
 31
0.0
  0
LINE
  5
1E7
330
1F
100
AcDbEntity
  8
0
  6
Continuous
 62
     7
370
    15
100
AcDbLine
 10
805.0424600803
 20
396.6201200019
 30
0.0
 11
805.0424600803
 21
403.620120218
 31
0.0
  0
LINE
  5
1E8
330
1F
100
AcDbEntity
  8
0
  6
Continuous
 62
     7
370
    15
100
AcDbLine
 10
813.1906385385
 20
402.4913200046
 30
0.0
 11
813.1906385385
 21
403.620120218
 31
0.0
  0
ARC
  5
1E9
330
1F
100
AcDbEntity
  8
0
  6
Continuous
 62
     7
370
    15
100
AcDbCircle
 10
798.1906371527
 20
419.4927916329
 30
0.0
 40
22.67267151925522
100
AcDbArc
 50
287.5901803728
 51
311.4212052824
  0
LINE
  5
1EA
330
1F
100
AcDbEntity
  8
0
  6
Continuous
 62
     7
370
    15
100
AcDbLine
 10
810.1906324588
 20
540.3701272662
 30
0.0
 11
810.1906324588
 21
542.870124882
 31
0.0
  0
LINE
  5
1EB
330
1F
100
AcDbEntity
  8
0
  6
Continuous
 62
     7
370
    15
100
AcDbLine
 10
786.1906434261
 20
542.870124882
 30
0.0
 11
786.1906434261
 21
540.3701272662
 31
0.0
  0
LINE
  5
1EC
330
1F
100
AcDbEntity
  8
0
  6
Continuous
 62
     7
370
    15
100
AcDbLine
 10
806.1906392537
 20
561.6201219018
 30
0.0
 11
806.1906392537
 21
562.1201154645
 31
0.0
  0
LINE
  5
1ED
330
1F
100
AcDbEntity
  8
0
  6
Continuous
 62
     7
370
    15
100
AcDbLine
 10
790.1906366311
 20
562.1201154645
 30
0.0
 11
790.1906366311
 21
561.6201219018
 31
0.0
  0
LINE
  5
1EE
330
1F
100
AcDbEntity
  8
0
  6
Continuous
 62
     7
370
    15
100
AcDbLine
 10
804.6906436645
 20
562.1201154645
 30
0.0
 11
804.6906436645
 21
573.6201164182
 31
0.0
  0
LINE
  5
1EF
330
1F
100
AcDbEntity
  8
0
  6
Continuous
 62
     7
370
    15
100
AcDbLine
 10
791.6906322204
 20
573.6201164182
 30
0.0
 11
791.6906322204
 21
562.1201154645
 31
0.0
  0
LINE
  5
1F0
330
1F
100
AcDbEntity
  8
0
  6
Continuous
 62
     7
370
    15
100
AcDbLine
 10
804.1906352006
 20
413.6201199945
 30
0.0
 11
804.1906352006
 21
532.9099354203
 31
0.0
  0
LINE
  5
1F1
330
1F
100
AcDbEntity
  8
0
  6
Continuous
 62
     7
370
    15
100
AcDbLine
 10
804.1906352006
 20
540.3517392333
 30
0.0
 11
804.1906352006
 21
540.3701272662
 31
0.0
  0
LINE
  5
1F2
330
1F
100
AcDbEntity
  8
0
  6
Continuous
 62
     7
370
    15
100
AcDbLine
 10
792.1906406842
 20
540.3701272662
 30
0.0
 11
792.1906406842
 21
540.3517392333
 31
0.0
  0
LINE
  5
1F3
330
1F
100
AcDbEntity
  8
0
  6
Continuous
 62
     7
370
    15
100
AcDbLine
 10
792.1906406842
 20
516.9739034827
 30
0.0
 11
792.1906406842
 21
413.6201199945
 31
0.0
  0
LINE
  5
1F4
330
1F
100
AcDbEntity
  8
0
  6
Continuous
 62
     7
370
    15
100
AcDbLine
 10
804.1906352006
 20
552.8701153453
 30
0.0
 11
804.1906352006
 21
561.6201219018
 31
0.0
  0
LINE
  5
1F5
330
1F
100
AcDbEntity
  8
0
  6
Continuous
 62
     7
370
    15
100
AcDbLine
 10
792.1906406842
 20
561.6201219018
 30
0.0
 11
792.1906406842
 21
552.8701153453
 31
0.0
  0
LINE
  5
1F6
330
1F
100
AcDbEntity
  8
0
  6
Continuous
 62
     7
370
    15
100
AcDbLine
 10
808.9071656429
 20
399.5126514565
 30
0.0
 11
808.9071656429
 21
396.6201200019
 31
0.0
  0
LINE
  5
1F7
330
1F
100
AcDbEntity
  8
0
  6
Continuous
 62
     7
370
    15
100
AcDbLine
 10
472.8669519387
 20
396.6201200019
 30
0.0
 11
472.8669519387
 21
394.6201201398
 31
0.0
  0
LINE
  5
1F8
330
1F
100
AcDbEntity
  8
0
  6
Continuous
 62
     7
370
    15
100
AcDbLine
 10
815.8669466935
 20
394.6201201398
 30
0.0
 11
815.8669466935
 21
396.6201200019
 31
0.0
  0
LINE
  5
1F9
330
1F
100
AcDbEntity
  8
0
  6
Continuous
 62
     7
370
    15
100
AcDbLine
 10
774.7100735866
 20
455.6362164076
 30
0.0
 11
776.1117662154
 21
455.6362164076
 31
0.0
  0
LINE
  5
1FA
330
1F
100
AcDbEntity
  8
0
  6
Continuous
 62
     7
370
    15
100
AcDbLine
 10
775.1810247861
 20
468.9398688133
 30
0.0
 11
773.7797940932
 21
468.9398688133
 31
0.0
  0
LINE
  5
1FB
330
1F
100
AcDbEntity
  8
0
  6
Continuous
 62
     7
370
    15
100
AcDbLine
 10
773.3350242339
 20
475.3003773149
 30
0.0
 11
774.7356439792
 21
475.3003773149
 31
0.0
  0
LINE
  5
1FC
330
1F
100
AcDbEntity
  8
0
  6
Continuous
 62
     7
370
    15
100
AcDbLine
 10
773.6647273265
 20
490.6067308839
 30
0.0
 11
772.2646887265
 21
490.6067308839
 31
0.0
  0
LINE
  5
1FD
330
1F
100
AcDbEntity
  8
0
  6
Continuous
 62
     7
370
    15
100
AcDbLine
 10
502.5432552062
 20
540.3701272662
 30
0.0
 11
502.5432552062
 21
542.870124882
 31
0.0
  0
LINE
  5
1FE
330
1F
100
AcDbEntity
  8
0
  6
Continuous
 62
     7
370
    15
100
AcDbLine
 10
478.5432661735
 20
542.870124882
 30
0.0
 11
478.5432661735
 21
540.3701272662
 31
0.0
  0
LINE
  5
1FF
330
1F
100
AcDbEntity
  8
0
  6
Continuous
 62
     7
370
    15
100
AcDbLine
 10
498.5432620012
 20
561.6201219018
 30
0.0
 11
498.5432620012
 21
562.1201154645
 31
0.0
  0
LINE
  5
200
330
1F
100
AcDbEntity
  8
0
  6
Continuous
 62
     7
370
    15
100
AcDbLine
 10
482.5432593785
 20
562.1201154645
 30
0.0
 11
482.5432593785
 21
561.6201219018
 31
0.0
  0
LINE
  5
201
330
1F
100
AcDbEntity
  8
0
  6
Continuous
 62
     7
370
    15
100
AcDbLine
 10
497.0432664119
 20
562.1201154645
 30
0.0
 11
497.0432664119
 21
573.6201164182
 31
0.0
  0
LINE
  5
202
330
1F
100
AcDbEntity
  8
0
  6
Continuous
 62
     7
370
    15
100
AcDbLine
 10
484.0432549678
 20
573.6201164182
 30
0.0
 11
484.0432549678
 21
562.1201154645
 31
0.0
  0
LINE
  5
203
330
1F
100
AcDbEntity
  8
0
  6
Continuous
 62
     7
370
    15
100
AcDbLine
 10
496.543257948
 20
552.8701153453
 30
0.0
 11
496.543257948
 21
561.6201219018
 31
0.0
  0
LINE
  5
204
330
1F
100
AcDbEntity
  8
0
  6
Continuous
 62
     7
370
    15
100
AcDbLine
 10
484.5432634317
 20
561.6201219018
 30
0.0
 11
484.5432634317
 21
552.8701153453
 31
0.0
  0
LINE
  5
205
330
1F
100
AcDbEntity
  8
0
  6
Continuous
 62
     7
370
    15
100
AcDbLine
 10
496.543257948
 20
413.6201199945
 30
0.0
 11
496.543257948
 21
508.7206643875
 31
0.0
  0
LINE
  5
206
330
1F
100
AcDbEntity
  8
0
  6
Continuous
 62
     7
370
    15
100
AcDbLine
 10
496.543257948
 20
540.3517392333
 30
0.0
 11
496.543257948
 21
540.3701272662
 31
0.0
  0
LINE
  5
207
330
1F
100
AcDbEntity
  8
0
  6
Continuous
 62
     7
370
    15
100
AcDbLine
 10
484.5432634317
 20
540.3701272662
 30
0.0
 11
484.5432634317
 21
540.3517392333
 31
0.0
  0
LINE
  5
208
330
1F
100
AcDbEntity
  8
0
  6
Continuous
 62
     7
370
    15
100
AcDbLine
 10
484.5432634317
 20
524.6567037757
 30
0.0
 11
484.5432634317
 21
413.6201199945
 31
0.0
  0
LINE
  5
209
330
1F
100
AcDbEntity
  8
0
  6
Continuous
 62
     7
370
    15
100
AcDbLine
 10
693.5838828646
 20
561.6201219018
 30
0.0
 11
693.5838828646
 21
562.1201154645
 31
0.0
  0
LINE
  5
20A
330
1F
100
AcDbEntity
  8
0
  6
Continuous
 62
     7
370
    15
100
AcDbLine
 10
677.5838839673
 20
562.1201154645
 30
0.0
 11
677.5838839673
 21
561.6201219018
 31
0.0
  0
LINE
  5
20B
330
1F
100
AcDbEntity
  8
0
  6
Continuous
 62
     7
370
    15
100
AcDbLine
 10
692.08388355
 20
562.1201154645
 30
0.0
 11
692.08388355
 21
573.6201164182
 31
0.0
  0
LINE
  5
20C
330
1F
100
AcDbEntity
  8
0
  6
Continuous
 62
     7
370
    15
100
AcDbLine
 10
679.0838832818
 20
573.6201164182
 30
0.0
 11
679.0838832818
 21
562.1201154645
 31
0.0
  0
LINE
  5
20D
330
1F
100
AcDbEntity
  8
0
  6
Continuous
 62
     7
370
    15
100
AcDbLine
 10
691.5838825368
 20
552.8701153453
 30
0.0
 11
691.5838825368
 21
561.6201219018
 31
0.0
  0
LINE
  5
20E
330
1F
100
AcDbEntity
  8
0
  6
Continuous
 62
     7
370
    15
100
AcDbLine
 10
679.5838805698
 20
561.6201219018
 30
0.0
 11
679.5838805698
 21
552.8701153453
 31
0.0
  0
LINE
  5
20F
330
1F
100
AcDbEntity
  8
0
  6
Continuous
 62
     7
370
    15
100
AcDbLine
 10
582.8423458003
 20
540.3517392333
 30
0.0
 11
582.8423458003
 21
535.3517291005
 31
0.0
  0
LINE
  5
210
330
1F
100
AcDbEntity
  8
0
  6
Continuous
 62
     7
370
    15
100
AcDbLine
 10
613.7519716136
 20
540.3517392333
 30
0.0
 11
613.7519716136
 21
535.3517291005
 31
0.0
  0
LINE
  5
211
330
1F
100
AcDbEntity
  8
0
  6
Continuous
 62
     7
370
    15
100
AcDbLine
 10
613.7519716136
 20
535.3517291005
 30
0.0
 11
582.8423458003
 21
535.3517291005
 31
0.0
  0
LINE
  5
212
330
1F
100
AcDbEntity
  8
0
  6
Continuous
 62
     7
370
    15
100
AcDbLine
 10
613.7519716136
 20
540.3517392333
 30
0.0
 11
582.8423458003
 21
540.3517392333
 31
0.0
  0
LINE
  5
213
330
1F
100
AcDbEntity
  8
0
  6
Continuous
 62
     7
370
    15
100
AcDbLine
 10
624.0527215265
 20
535.3517291005
 30
0.0
 11
615.9488181435
 21
535.3517291005
 31
0.0
  0
LINE
  5
214
330
1F
100
AcDbEntity
  8
0
  6
Continuous
 62
     7
370
    15
100
AcDbLine
 10
627.0831986182
 20
540.3517392333
 30
0.0
 11
627.0831986182
 21
539.5825412925
 31
0.0
  0
SPLINE
  5
215
330
1F
100
AcDbEntity
  8
0
  6
Continuous
 62
     7
370
    15
100
AcDbSpline
210
0.0
220
0.0
230
1.0
 70
     8
 71
     3
 72
     8
 73
     4
 74
     0
 42
0.00000001
 43
0.00000001
 12
1.0
 22
0.0
 32
0.0
 13
1.0
 23
0.0
 33
0.0
 40
0.0
 40
0.0
 40
0.0
 40
0.0
 40
1.0
 40
1.0
 40
1.0
 40
1.0
 10
627.0831993955863
 20
539.5825476071793
 30
0.0
 10
626.0729623643115
 20
538.1731091376033
 30
0.0
 10
625.0628095219689
 20
536.7627679426713
 30
0.0
 10
624.0527213642877
 20
535.3517331591343
 30
0.0
  0
LINE
  5
216
330
1F
100
AcDbEntity
  8
0
  6
Continuous
 62
     7
370
    15
100
AcDbLine
 10
613.7519716136
 20
535.3517291005
 30
0.0
 11
615.9488181435
 21
535.3517291005
 31
0.0
  0
LINE
  5
217
330
1F
100
AcDbEntity
  8
0
  6
Continuous
 62
     7
370
    15
100
AcDbLine
 10
627.0831986182
 20
540.3517392333
 30
0.0
 11
613.7519716136
 21
540.3517392333
 31
0.0
  0
LINE
  5
218
330
1F
100
AcDbEntity
  8
0
  6
Continuous
 62
     7
370
    15
100
AcDbLine
 10
807.4716771804
 20
403.620120218
 30
0.0
 11
804.9147422277
 21
403.620120218
 31
0.0
  0
LINE
  5
219
330
1F
100
AcDbEntity
  8
0
  6
Continuous
 62
     7
370
    15
100
AcDbLine
 10
804.9147422277
 20
396.6201200019
 30
0.0
 11
792.8903098069
 21
396.6201200019
 31
0.0
  0
LINE
  5
21A
330
1F
100
AcDbEntity
  8
0
  6
Continuous
 62
     7
370
    15
100
AcDbLine
 10
792.8903098069
 20
394.6201201398
 30
0.0
 11
730.1169480048
 21
394.6201201398
 31
0.0
  0
LINE
  5
21B
330
1F
100
AcDbEntity
  8
0
  6
Continuous
 62
     7
370
    15
100
AcDbLine
 10
730.1169480048
 20
396.6201200019
 30
0.0
 11
644.3669493161
 21
396.6201200019
 31
0.0
  0
LINE
  5
21C
330
1F
100
AcDbEntity
  8
0
  6
Continuous
 62
     7
370
    15
100
AcDbLine
 10
644.3669493161
 20
396.6201200019
 30
0.0
 11
616.3184451722
 21
396.6201200019
 31
0.0
  0
LINE
  5
21D
330
1F
100
AcDbEntity
  8
0
  6
Continuous
 62
     7
370
    15
100
AcDbLine
 10
616.3184451722
 20
403.620120218
 30
0.0
 11
608.7147253417
 21
403.620120218
 31
0.0
  0
LINE
  5
21E
330
1F
100
AcDbEntity
  8
0
  6
Continuous
 62
     7
370
    15
100
AcDbLine
 10
591.3660335206
 20
403.620120218
 30
0.0
 11
584.0622591637
 21
403.620120218
 31
0.0
  0
LINE
  5
21F
330
1F
100
AcDbEntity
  8
0
  6
Continuous
 62
     7
370
    15
100
AcDbLine
 10
584.0622591637
 20
396.6201200019
 30
0.0
 11
558.6169506274
 21
396.6201200019
 31
0.0
  0
LINE
  5
220
330
1F
100
AcDbEntity
  8
0
  6
Continuous
 62
     7
370
    15
100
AcDbLine
 10
558.6169506274
 20
394.6201201398
 30
0.0
 11
495.8435888253
 21
394.6201201398
 31
0.0
  0
LINE
  5
221
330
1F
100
AcDbEntity
  8
0
  6
Continuous
 62
     7
370
    15
100
AcDbLine
 10
495.8435888253
 20
396.6201200019
 30
0.0
 11
472.8669519387
 21
396.6201200019
 31
0.0
  0
LINE
  5
222
330
1F
100
AcDbEntity
  8
0
  6
Continuous
 62
     7
370
    15
100
AcDbLine
 10
815.8669466935
 20
396.6201200019
 30
0.0
 11
813.5577584468
 21
396.6201200019
 31
0.0
  0
LINE
  5
223
330
1F
100
AcDbEntity
  8
0
  6
Continuous
 62
     7
370
    15
100
AcDbLine
 10
813.5577584468
 20
403.620120218
 30
0.0
 11
813.1906385385
 21
403.620120218
 31
0.0
  0
LINE
  5
224
330
1F
100
AcDbEntity
  8
0
  6
Continuous
 62
     7
370
    15
100
AcDbLine
 10
815.8669466935
 20
413.6201199945
 30
0.0
 11
472.8669519387
 21
413.6201199945
 31
0.0
  0
LINE
  5
225
330
1F
100
AcDbEntity
  8
0
  6
Continuous
 62
     7
370
    15
100
AcDbLine
 10
620.3669491075
 20
394.6201201398
 30
0.0
 11
620.3669491075
 21
396.6201200019
 31
0.0
  0
LINE
  5
226
330
1F
100
AcDbEntity
  8
0
  6
Continuous
 62
     7
370
    15
100
AcDbLine
 10
668.3669495248
 20
394.6201201398
 30
0.0
 11
668.3669495248
 21
396.6201200019
 31
0.0
  0
LINE
  5
227
330
1F
100
AcDbEntity
  8
0
  6
Continuous
 62
     7
370
    15
100
AcDbLine
 10
668.3669495248
 20
394.6201201398
 30
0.0
 11
620.3669491075
 21
394.6201201398
 31
0.0
  0
LINE
  5
228
330
1F
100
AcDbEntity
  8
0
  6
Continuous
 62
     7
370
    15
100
AcDbLine
 10
616.3184451722
 20
396.6201200019
 30
0.0
 11
614.6455420964
 21
396.6201200019
 31
0.0
  0
LINE
  5
229
330
1F
100
AcDbEntity
  8
0
  6
Continuous
 62
     7
370
    15
100
AcDbLine
 10
614.6455420964
 20
402.4913200046
 30
0.0
 11
588.1500164829
 21
402.4913200046
 31
0.0
  0
LINE
  5
22A
330
1F
100
AcDbEntity
  8
0
  6
Continuous
 62
     7
370
    15
100
AcDbLine
 10
608.7147253417
 20
403.620120218
 30
0.0
 11
591.3660335206
 21
403.620120218
 31
0.0
  0
LINE
  5
22B
330
1F
100
AcDbEntity
  8
0
  6
Continuous
 62
     7
370
    15
100
AcDbLine
 10
615.9488181435
 20
535.3517291005
 30
0.0
 11
619.8920528256
 21
508.6201188024
 31
0.0
  0
LINE
  5
22C
330
1F
100
AcDbEntity
  8
0
  6
Continuous
 62
     7
370
    15
100
AcDbLine
 10
619.8920528256
 20
508.6201188024
 30
0.0
 11
614.8826922141
 21
508.6201188024
 31
0.0
  0
LINE
  5
22D
330
1F
100
AcDbEntity
  8
0
  6
Continuous
 62
     7
370
    15
100
AcDbLine
 10
608.2330415808
 20
535.3517291005
 30
0.0
 11
614.8826922141
 21
508.6201188024
 31
0.0
  0
SPLINE
  5
22E
330
1F
100
AcDbEntity
  8
0
  6
Continuous
 62
     7
370
    15
100
AcDbSpline
210
0.0
220
0.0
230
1.0
 70
     8
 71
     3
 72
     8
 73
     4
 74
     0
 42
0.00000001
 43
0.00000001
 12
1.0
 22
0.0
 32
0.0
 13
1.0
 23
0.0
 33
0.0
 40
0.0000005887852229
 40
0.0000005887852229
 40
0.0000005887852229
 40
0.0000005887852229
 40
0.0116462162167145
 40
0.0116462162167145
 40
0.0116462162167145
 40
0.0116462162167145
 10
621.017994152278
 20
531.3980511514982
 30
0.0
 10
622.0295392484516
 20
532.7166561327042
 30
0.0
 10
623.0411126377238
 20
534.0346056744322
 30
0.0
 10
624.0527213642877
 20
535.3517331591343
 30
0.0
  0
SPLINE
  5
22F
330
1F
100
AcDbEntity
  8
0
  6
Continuous
 62
     7
370
    15
100
AcDbSpline
210
0.0
220
0.0
230
1.0
 70
     8
 71
     3
 72
     8
 73
     4
 74
     0
 42
0.00000001
 43
0.00000001
 12
1.0
 22
0.0
 32
0.0
 13
1.0
 23
0.0
 33
0.0
 40
0.000000200499266
 40
0.000000200499266
 40
0.000000200499266
 40
0.000000200499266
 40
0.0204597700567363
 40
0.0204597700567363
 40
0.0204597700567363
 40
0.0204597700567363
 10
620.2347328228858
 20
510.9892802230661
 30
0.0
 10
620.4955467213854
 20
517.7921544430836
 30
0.0
 10
620.7566356017846
 20
524.5950785639087
 30
0.0
 10
621.017994152278
 20
531.3980511514982
 30
0.0
  0
SPLINE
  5
230
330
1F
100
AcDbEntity
  8
0
  6
Continuous
 62
     7
370
    15
100
AcDbSpline
210
0.0
220
0.0
230
1.0
 70
     8
 71
     3
 72
    20
 73
    16
 74
     0
 42
0.00000001
 43
0.00000001
 12
1.0
 22
0.0
 32
0.0
 13
1.0
 23
0.0
 33
0.0
 40
0.0
 40
0.0
 40
0.0
 40
0.0
 40
0.2499999999999974
 40
0.2499999999999974
 40
0.3749999999999978
 40
0.3749999999999978
 40
0.4999999999999982
 40
0.4999999999999982
 40
0.6249999999999986
 40
0.6249999999999986
 40
0.749999999999999
 40
0.749999999999999
 40
0.8749999999999996
 40
0.8749999999999996
 40
1.0
 40
1.0
 40
1.0
 40
1.0
 10
620.7609640962585
 20
508.6201201136733
 30
0.0
 10
620.6793671153068
 20
508.6201201136734
 30
0.0
 10
620.5998736437523
 20
508.6808027769312
 30
0.0
 10
620.4948747942092
 20
508.8551910698431
 30
0.0
 10
620.4615439470356
 20
508.9282213090094
 30
0.0
 10
620.4009722236153
 20
509.0988275136635
 30
0.0
 10
620.373740010354
 20
509.195831893376
 30
0.0
 10
620.3253355897627
 20
509.4130619932868
 30
0.0
 10
620.3040825490571
 20
509.534476262725
 30
0.0
 10
620.2695116973721
 20
509.7912960386532
 30
0.0
 10
620.2559270760852
 20
509.9275254586324
 30
0.0
 10
620.2362680730107
 20
510.2158528907634
 30
0.0
 10
620.2303447524492
 20
510.3672786409477
 30
0.0
 10
620.2265774364829
 20
510.6734843244762
 30
0.0
 10
620.2286163349544
 20
510.8297423368409
 30
0.0
 10
620.2347328228858
 20
510.9892802230661
 30
0.0
  0
LINE
  5
231
330
1F
100
AcDbEntity
  8
0
  6
Continuous
 62
     7
370
    15
100
AcDbLine
 10
620.7609637492
 20
508.6201188024
 30
0.0
 11
619.8920528256
 21
508.6201188024
 31
0.0
  0
LINE
  5
232
330
1F
100
AcDbEntity
  8
0
  6
Continuous
 62
     7
370
    15
100
AcDbLine
 10
614.7411255949
 20
540.3701272662
 30
0.0
 11
591.150015112
 21
540.3701272662
 31
0.0
  0
LINE
  5
233
330
1F
100
AcDbEntity
  8
0
  6
Continuous
 62
     7
370
    15
100
AcDbLine
 10
615.1500171833
 20
540.3701272662
 30
0.0
 11
614.7411255949
 21
540.3701272662
 31
0.0
  0
LINE
  5
234
330
1F
100
AcDbEntity
  8
0
  6
Continuous
 62
     7
370
    15
100
AcDbLine
 10
614.7411255949
 20
542.870124882
 30
0.0
 11
591.150015112
 21
542.870124882
 31
0.0
  0
LINE
  5
235
330
1F
100
AcDbEntity
  8
0
  6
Continuous
 62
     7
370
    15
100
AcDbLine
 10
615.1500171833
 20
542.870124882
 30
0.0
 11
614.7411255949
 21
542.870124882
 31
0.0
  0
LINE
  5
236
330
1F
100
AcDbEntity
  8
0
  6
Continuous
 62
     7
370
    15
100
AcDbLine
 10
595.3932995759
 20
552.8701153453
 30
0.0
 11
595.3932995759
 21
542.870124882
 31
0.0
  0
LINE
  5
237
330
1F
100
AcDbEntity
  8
0
  6
Continuous
 62
     7
370
    15
100
AcDbLine
 10
605.9891725742
 20
552.8701153453
 30
0.0
 11
605.9891725742
 21
542.870124882
 31
0.0
  0
LINE
  5
238
330
1F
100
AcDbEntity
  8
0
  6
Continuous
 62
     7
370
    15
100
AcDbLine
 10
595.3932995759
 20
552.8701153453
 30
0.0
 11
605.9891725742
 21
552.8701153453
 31
0.0
  0
LINE
  5
239
330
1F
100
AcDbEntity
  8
0
  6
Continuous
 62
     7
370
    15
100
AcDbLine
 10
613.7458900772
 20
552.8701153453
 30
0.0
 11
613.7458900772
 21
542.870124882
 31
0.0
  0
LINE
  5
23A
330
1F
100
AcDbEntity
  8
0
  6
Continuous
 62
     7
370
    15
100
AcDbLine
 10
605.9891725742
 20
552.8701153453
 30
0.0
 11
613.7458900772
 21
552.8701153453
 31
0.0
  0
LINE
  5
23B
330
1F
100
AcDbEntity
  8
0
  6
Continuous
 62
     7
370
    15
100
AcDbLine
 10
596.8175562881
 20
508.6201188024
 30
0.0
 11
597.1500160955
 21
517.5914970096
 31
0.0
  0
LINE
  5
23C
330
1F
100
AcDbEntity
  8
0
  6
Continuous
 62
     7
370
    15
100
AcDbLine
 10
596.6982054375
 20
508.6201188024
 30
0.0
 11
596.8175562881
 21
508.6201188024
 31
0.0
  0
LINE
  5
23D
330
1F
100
AcDbEntity
  8
0
  6
Continuous
 62
     7
370
    15
100
AcDbLine
 10
596.6982054375
 20
508.6201188024
 30
0.0
 11
592.7549707555
 21
535.3517291005
 31
0.0
  0
LINE
  5
23E
330
1F
100
AcDbEntity
  8
0
  6
Continuous
 62
     7
370
    15
100
AcDbLine
 10
610.877423998
 20
561.6201219018
 30
0.0
 11
595.1500157677
 21
561.6201219018
 31
0.0
  0
LINE
  5
23F
330
1F
100
AcDbEntity
  8
0
  6
Continuous
 62
     7
370
    15
100
AcDbLine
 10
611.150014665
 20
561.6201219018
 30
0.0
 11
610.877423998
 21
561.6201219018
 31
0.0
  0
LINE
  5
240
330
1F
100
AcDbEntity
  8
0
  6
Continuous
 62
     7
370
    15
100
AcDbLine
 10
610.877423998
 20
562.1201154645
 30
0.0
 11
595.1500157677
 21
562.1201154645
 31
0.0
  0
LINE
  5
241
330
1F
100
AcDbEntity
  8
0
  6
Continuous
 62
     7
370
    15
100
AcDbLine
 10
611.150014665
 20
562.1201154645
 30
0.0
 11
610.877423998
 21
562.1201154645
 31
0.0
  0
LINE
  5
242
330
1F
100
AcDbEntity
  8
0
  6
Continuous
 62
     7
370
    15
100
AcDbLine
 10
591.6888448261
 20
508.6201188024
 30
0.0
 11
585.0391904675
 21
535.3517291005
 31
0.0
  0
LINE
  5
243
330
1F
100
AcDbEntity
  8
0
  6
Continuous
 62
     7
370
    15
100
AcDbLine
 10
596.6982054375
 20
508.6201188024
 30
0.0
 11
591.6888448261
 21
508.6201188024
 31
0.0
  0
LINE
  5
244
330
1F
100
AcDbEntity
  8
0
  6
Continuous
 62
     7
370
    15
100
AcDbLine
 10
592.5541440808
 20
552.8701153453
 30
0.0
 11
592.5541440808
 21
542.870124882
 31
0.0
  0
LINE
  5
245
330
1F
100
AcDbEntity
  8
0
  6
Continuous
 62
     7
370
    15
100
AcDbLine
 10
592.5541440808
 20
552.8701153453
 30
0.0
 11
595.3932995759
 21
552.8701153453
 31
0.0
  0
LINE
  5
246
330
1F
100
AcDbEntity
  8
0
  6
Continuous
 62
     7
370
    15
100
AcDbLine
 10
586.7655197941
 20
396.6201200019
 30
0.0
 11
584.0622591637
 21
396.6201200019
 31
0.0
  0
LINE
  5
247
330
1F
100
AcDbEntity
  8
0
  6
Continuous
 62
     7
370
    15
100
AcDbLine
 10
609.4285356663
 20
573.6201164182
 30
0.0
 11
596.6500150822
 21
573.6201164182
 31
0.0
  0
LINE
  5
248
330
1F
100
AcDbEntity
  8
0
  6
Continuous
 62
     7
370
    15
100
AcDbLine
 10
609.6500153505
 20
573.6201164182
 30
0.0
 11
609.4285356663
 21
573.6201164182
 31
0.0
  0
LINE
  5
249
330
1F
100
AcDbEntity
  8
0
  6
Continuous
 62
     7
370
    15
100
AcDbLine
 10
591.4015578889
 20
394.6201201398
 30
0.0
 11
591.4015578889
 21
400.1014587339
 31
0.0
  0
LINE
  5
24A
330
1F
100
AcDbEntity
  8
0
  6
Continuous
 62
     7
370
    15
100
AcDbLine
 10
591.4015578889
 20
394.6201201398
 30
0.0
 11
558.6169506274
 21
394.6201201398
 31
0.0
  0
LINE
  5
24B
330
1F
100
AcDbEntity
  8
0
  6
Continuous
 62
     7
370
    15
100
AcDbLine
 10
697.3323407434
 20
396.6201200019
 30
0.0
 11
697.3323407434
 21
394.6201201398
 31
0.0
  0
LINE
  5
24C
330
1F
100
AcDbEntity
  8
0
  6
Continuous
 62
     7
370
    15
100
AcDbLine
 10
730.1169480048
 20
394.6201201398
 30
0.0
 11
697.3323407434
 21
394.6201201398
 31
0.0
  0
LINE
  5
24D
330
1F
100
AcDbEntity
  8
0
  6
Continuous
 62
     7
370
    15
100
AcDbLine
 10
621.0179938786
 20
531.3980487044
 30
0.0
 11
784.3501563035
 21
531.3980487044
 31
0.0
  0
LINE
  5
24E
330
1F
100
AcDbEntity
  8
0
  6
Continuous
 62
     7
370
    15
100
AcDbLine
 10
627.0831986182
 20
539.5825412925
 30
0.0
 11
762.4078239166
 21
539.5825412925
 31
0.0
  0
SPLINE
  5
24F
330
1F
100
AcDbEntity
  8
0
  6
Continuous
 62
     7
370
    15
100
AcDbSpline
210
0.0
220
0.0
230
1.0
 70
     8
 71
     3
 72
     8
 73
     4
 74
     0
 42
0.00000001
 43
0.00000001
 12
1.0
 22
0.0
 32
0.0
 13
1.0
 23
0.0
 33
0.0
 40
0.0
 40
0.0
 40
0.0
 40
0.0
 40
1.0
 40
1.0
 40
1.0
 40
1.0
 10
773.7177235882142
 20
535.3517331591343
 30
0.0
 10
769.9480242747561
 20
536.762767564195
 30
0.0
 10
766.1780825765163
 20
538.1731087473518
 30
0.0
 10
762.4078256041861
 20
539.5825476071793
 30
0.0
  0
SPLINE
  5
250
330
1F
100
AcDbEntity
  8
0
  6
Continuous
 62
     7
370
    15
100
AcDbSpline
210
0.0
220
0.0
230
1.0
 70
     8
 71
     3
 72
     8
 73
     4
 74
     0
 42
0.00000001
 43
0.00000001
 12
1.0
 22
0.0
 32
0.0
 13
1.0
 23
0.0
 33
0.0
 40
0.0000005894457284
 40
0.0000005894457284
 40
0.0000005894457284
 40
0.0000005894457284
 40
0.01164621687722
 40
0.01164621687722
 40
0.01164621687722
 40
0.01164621687722
 10
773.7177235882142
 20
535.3517331591341
 30
0.0
 10
777.2621274786022
 20
534.0346056744322
 30
0.0
 10
780.8062553326276
 20
532.7166561327042
 30
0.0
 10
784.3501626576049
 20
531.3980511514982
 30
0.0
  0
SPLINE
  5
251
330
1F
100
AcDbEntity
  8
0
  6
Continuous
 62
     7
370
    15
100
AcDbSpline
210
0.0
220
0.0
230
1.0
 70
     8
 71
     3
 72
     8
 73
     4
 74
     0
 42
0.00000001
 43
0.00000001
 12
1.0
 22
0.0
 32
0.0
 13
1.0
 23
0.0
 33
0.0
 40
0.0000002004963669
 40
0.0000002004963669
 40
0.0000002004963669
 40
0.0000002004963669
 40
0.0204597700538372
 40
0.0204597700538372
 40
0.0204597700538372
 40
0.0204597700538372
 10
784.3501626576049
 20
531.3980511514982
 30
0.0
 10
784.1325978132205
 20
524.5950785639087
 30
0.0
 10
783.914035045468
 20
517.7921544430836
 30
0.0
 10
783.6944547818931
 20
510.9892802230661
 30
0.0
  0
LINE
  5
252
330
1F
100
AcDbEntity
  8
0
  6
Continuous
 62
     7
370
    15
100
AcDbLine
 10
620.7609637492
 20
508.6201188024
 30
0.0
 11
781.3150728904
 21
508.6201188024
 31
0.0
  0
SPLINE
  5
253
330
1F
100
AcDbEntity
  8
0
  6
Continuous
 62
     7
370
    15
100
AcDbSpline
210
0.0
220
0.0
230
1.0
 70
     8
 71
     3
 72
    20
 73
    16
 74
     0
 42
0.00000001
 43
0.00000001
 12
1.0
 22
0.0
 32
0.0
 13
1.0
 23
0.0
 33
0.0
 40
0.0
 40
0.0
 40
0.0
 40
0.0
 40
0.1250000000000025
 40
0.1250000000000025
 40
0.2500000000000049
 40
0.2500000000000049
 40
0.3750000000000074
 40
0.3750000000000074
 40
0.5000000000000099
 40
0.5000000000000099
 40
0.6250000000000123
 40
0.6250000000000123
 40
0.7500000000000149
 40
0.7500000000000149
 40
1.0
 40
1.0
 40
1.0
 40
1.0
 10
783.6944547818931
 20
510.9892802230661
 30
0.0
 10
783.6893055960492
 20
510.8297519345887
 30
0.0
 10
783.6695165683934
 20
510.6735312158775
 30
0.0
 10
783.6018013679534
 20
510.3674467850217
 30
0.0
 10
783.5532055896215
 20
510.2161448039112
 30
0.0
 10
783.4292533641649
 20
509.9276856627627
 30
0.0
 10
783.3546632941551
 20
509.7914420357683
 30
0.0
 10
783.1806677167684
 20
509.534665528082
 30
0.0
 10
783.0800911295747
 20
509.4132560642427
 30
0.0
 10
782.8613012348102
 20
509.1959387852282
 30
0.0
 10
782.7426431170655
 20
509.0989126471649
 30
0.0
 10
782.4866717963026
 20
508.9282870487189
 30
0.0
 10
782.3494893206752
 20
508.8552530493803
 30
0.0
 10
781.926962617641
 20
508.6808061640562
 30
0.0
 10
781.6196857005845
 20
508.6201201136734
 30
0.0
 10
781.3150773782362
 20
508.6201201136733
 30
0.0
  0
LINE
  5
254
330
1F
100
AcDbEntity
  8
0
  6
Continuous
 62
     7
370
    15
100
AcDbLine
 10
609.4089220129
 20
397.7011387106
 30
0.0
 11
609.4089220129
 21
396.6201200019
 31
0.0
  0
LINE
  5
255
330
1F
100
AcDbEntity
  8
0
  6
Continuous
 62
     7
370
    15
100
AcDbLine
 10
620.3669491075
 20
394.6201201398
 30
0.0
 11
608.8163661622
 21
394.6201201398
 31
0.0
  0
LINE
  5
256
330
1F
100
AcDbEntity
  8
0
  6
Continuous
 62
     7
370
    15
100
AcDbLine
 10
680.5451917313
 20
394.6201201398
 30
0.0
 11
680.5451917313
 21
396.6201200019
 31
0.0
  0
LINE
  5
257
330
1F
100
AcDbEntity
  8
0
  6
Continuous
 62
     7
370
    15
100
AcDbLine
 10
680.5451917313
 20
394.6201201398
 30
0.0
 11
668.3669495248
 21
394.6201201398
 31
0.0
  0
LINE
  5
258
330
1F
100
AcDbEntity
  8
0
  6
Continuous
 62
     7
370
    15
100
AcDbLine
 10
613.4403175526
 20
510.9892767723
 30
0.0
 11
613.396191489
 21
514.5958495196
 31
0.0
  0
LINE
  5
259
330
1F
100
AcDbEntity
  8
0
  6
Continuous
 62
     7
370
    15
100
AcDbLine
 10
609.2025893592
 20
531.4541366752
 30
0.0
 11
609.1500180625
 21
531.4543899949
 31
0.0
  0
SPLINE
  5
25A
330
1F
100
AcDbEntity
  8
0
  6
Continuous
 62
     7
370
    15
100
AcDbSpline
210
0.0
220
0.0
230
1.0
 70
     8
 71
     3
 72
    18
 73
    14
 74
     0
 42
0.00000001
 43
0.00000001
 12
1.0
 22
0.0
 32
0.0
 13
1.0
 23
0.0
 33
0.0
 40
0.0
 40
0.0
 40
0.0
 40
0.0
 40
0.2267071507813173
 40
0.4745247898073178
 40
0.6421177093795954
 40
0.7558016153578326
 40
0.8332626460382873
 40
0.8863919201219619
 40
0.923202523829655
 40
0.9614156715308227
 40
0.9769277785496983
 40
0.9926185504010959
 40
1.0
 40
1.0
 40
1.0
 40
1.0
 10
609.1500180624695
 20
510.1074111517096
 30
0.0
 10
609.4879063185546
 20
510.1266166495938
 30
0.0
 10
610.1951462672926
 20
510.1668160205233
 30
0.0
 10
611.1482038693695
 20
510.2689104267276
 30
0.0
 10
611.9293041516306
 20
510.3835903460877
 30
0.0
 10
612.4542964154658
 20
510.4886896254926
 30
0.0
 10
612.8068214551558
 20
510.5815279806794
 30
0.0
 10
613.0436473618314
 20
510.6625484687586
 30
0.0
 10
613.2181584973185
 20
510.7409004367445
 30
0.0
 10
613.3352927687179
 20
510.8127835867529
 30
0.0
 10
613.4077944978488
 20
510.8884938867448
 30
0.0
 10
613.4371888849772
 20
510.9421332162495
 30
0.0
 10
613.4395592169901
 20
510.9778499797201
 30
0.0
 10
613.4403175525637
 20
510.9892767723227
 30
0.0
  0
LINE
  5
25B
330
1F
100
AcDbEntity
  8
0
  6
Continuous
 62
     7
370
    15
100
AcDbLine
 10
596.8175562881
 20
508.6201188024
 30
0.0
 11
597.1500160955
 21
508.6201188024
 31
0.0
  0
LINE
  5
25C
330
1F
100
AcDbEntity
  8
0
  6
Continuous
 62
     7
370
    15
100
AcDbLine
 10
609.1500180625
 20
508.6201188024
 30
0.0
 11
614.8826922141
 21
508.6201188024
 31
0.0
  0
LINE
  5
25D
330
1F
100
AcDbEntity
  8
0
  6
Continuous
 62
     7
370
    15
100
AcDbLine
 10
609.1500180625
 20
531.3980487044
 30
0.0
 11
609.2165442966
 21
531.3980487044
 31
0.0
  0
LINE
  5
25E
330
1F
100
AcDbEntity
  8
0
  6
Continuous
 62
     7
370
    15
100
AcDbLine
 10
494.3802351915
 20
531.3980487044
 30
0.0
 11
586.0226931833
 21
531.3980487044
 31
0.0
  0
LINE
  5
25F
330
1F
100
AcDbEntity
  8
0
  6
Continuous
 62
     7
370
    15
100
AcDbLine
 10
516.8669517003
 20
539.5825412925
 30
0.0
 11
582.8423458003
 21
539.5825412925
 31
0.0
  0
LINE
  5
260
330
1F
100
AcDbEntity
  8
0
  6
Continuous
 62
     7
370
    15
100
AcDbLine
 10
608.7177763544
 20
396.6201200019
 30
0.0
 11
609.4089220129
 21
396.6201200019
 31
0.0
  0
LINE
  5
261
330
1F
100
AcDbEntity
  8
0
  6
Continuous
 62
     7
370
    15
100
AcDbLine
 10
608.7177763544
 20
394.6201201398
 30
0.0
 11
608.7177763544
 21
396.6201200019
 31
0.0
  0
LINE
  5
262
330
1F
100
AcDbEntity
  8
0
  6
Continuous
 62
     7
370
    15
100
AcDbLine
 10
608.7177763544
 20
394.6201201398
 30
0.0
 11
591.4015578889
 21
394.6201201398
 31
0.0
  0
LINE
  5
263
330
1F
100
AcDbEntity
  8
0
  6
Continuous
 62
     7
370
    15
100
AcDbLine
 10
680.7985226475
 20
394.6201201398
 30
0.0
 11
680.7985226475
 21
396.6201200019
 31
0.0
  0
LINE
  5
264
330
1F
100
AcDbEntity
  8
0
  6
Continuous
 62
     7
370
    15
100
AcDbLine
 10
697.3323407434
 20
394.6201201398
 30
0.0
 11
680.7985226475
 21
394.6201201398
 31
0.0
  0
LINE
  5
265
330
1F
100
AcDbEntity
  8
0
  6
Continuous
 62
     7
370
    15
100
AcDbLine
 10
497.9463810884
 20
508.6201188024
 30
0.0
 11
591.6888448261
 21
508.6201188024
 31
0.0
  0
SPLINE
  5
266
330
1F
100
AcDbEntity
  8
0
  6
Continuous
 62
     7
370
    15
100
AcDbSpline
210
0.0
220
0.0
230
1.0
 70
     8
 71
     3
 72
    13
 73
     9
 74
     0
 42
0.00000001
 43
0.00000001
 12
1.0
 22
0.0
 32
0.0
 13
1.0
 23
0.0
 33
0.0
 40
0.0
 40
0.0
 40
0.0
 40
0.0
 40
0.032709459843423
 40
0.2371426593751448
 40
0.4479669065384433
 40
0.6588056293782625
 40
0.8290286552210593
 40
1.0
 40
1.0
 40
1.0
 40
1.0
 10
509.864210601923
 20
394.1230921409601
 30
0.0
 10
509.8650667121595
 20
394.1221664180497
 30
0.0
 10
509.8712734871768
 20
394.1154549531139
 30
0.0
 10
509.8440006419699
 20
394.1450098416467
 30
0.0
 10
509.7790147190797
 20
394.2155536179183
 30
0.0
 10
509.6755173512439
 20
394.3277854889265
 30
0.0
 10
509.5510367611819
 20
394.4626279948731
 30
0.0
 10
509.4540687146314
 20
394.5675460548553
 30
0.0
 10
509.4054783545704
 20
394.6201201397503
 30
0.0
  0
SPLINE
  5
267
330
1F
100
AcDbEntity
  8
0
  6
Continuous
 62
     7
370
    15
100
AcDbSpline
210
0.0
220
0.0
230
1.0
 70
     8
 71
     3
 72
    16
 73
    12
 74
     0
 42
0.00000001
 43
0.00000001
 12
1.0
 22
0.0
 32
0.0
 13
1.0
 23
0.0
 33
0.0
 40
0.0
 40
0.0
 40
0.0
 40
0.0
 40
0.1249999999999986
 40
0.1249999999999986
 40
0.2499999999999972
 40
0.2499999999999972
 40
0.4999999999999981
 40
0.4999999999999981
 40
0.749999999999999
 40
0.749999999999999
 40
1.0
 40
1.0
 40
1.0
 40
1.0
 10
546.6543259085423
 20
394.6201201136735
 30
0.0
 10
546.8856498535933
 20
394.5401252494832
 30
0.0
 10
547.1148662061004
 20
394.468685903867
 30
0.0
 10
547.568814203524
 20
394.3441928667081
 30
0.0
 10
547.794832172176
 20
394.2909165753457
 30
0.0
 10
548.4546643902656
 20
394.1631700550942
 30
0.0
 10
548.8694931876329
 20
394.1202701921471
 30
0.0
 10
549.6486089744254
 20
394.1199708176918
 30
0.0
 10
550.0160847575099
 20
394.1640960904782
 30
0.0
 10
550.669901851196
 20
394.3339812379933
 30
0.0
 10
550.9596828938995
 20
394.4587985823724
 30
0.0
 10
551.2152277710994
 20
394.6201201136732
 30
0.0
  0
SPLINE
  5
268
330
1F
100
AcDbEntity
  8
0
  6
Continuous
 62
     7
370
    15
100
AcDbSpline
210
0.0
220
0.0
230
1.0
 70
     8
 71
     3
 72
    18
 73
    14
 74
     0
 42
0.00000001
 43
0.00000001
 12
1.0
 22
0.0
 32
0.0
 13
1.0
 23
0.0
 33
0.0
 40
0.0
 40
0.0
 40
0.0
 40
0.0
 40
0.2499999999999987
 40
0.2499999999999987
 40
0.3749999999999989
 40
0.3749999999999989
 40
0.4999999999999991
 40
0.4999999999999991
 40
0.7499999999999996
 40
0.7499999999999996
 40
0.8749999999999998
 40
0.8749999999999998
 40
1.0
 40
1.0
 40
1.0
 40
1.0
 10
641.1419046808013
 20
394.620120113673
 30
0.0
 10
641.6538650401219
 20
394.4583568083353
 30
0.0
 10
642.1784893232085
 20
394.3338940789675
 30
0.0
 10
642.9856365147828
 20
394.2069633801514
 30
0.0
 10
643.2580662802205
 20
394.1746487251531
 30
0.0
 10
643.8100648346593
 20
394.1311485260384
 30
0.0
 10
644.0894880154981
 20
394.1201531740115
 30
0.0
 10
644.9180762800839
 20
394.120054219644
 30
0.0
 10
645.4644535700011
 20
394.1629841379693
 30
0.0
 10
646.275313295825
 20
394.2895315872833
 30
0.0
 10
646.5451979156451
 20
394.3423921302739
 30
0.0
 10
647.0753824886077
 20
394.4672615097682
 30
0.0
 10
647.335872481526
 20
394.5391938177335
 30
0.0
 10
647.5919939514799
 20
394.620120113673
 30
0.0
  0
LINE
  5
269
330
1F
100
AcDbEntity
  8
0
  6
Continuous
 62
     7
370
    15
100
AcDbLine
 10
680.7985226475
 20
394.6201201398
 30
0.0
 11
680.5451917313
 21
394.6201201398
 31
0.0
  0
SPLINE
  5
26A
330
1F
100
AcDbEntity
  8
0
  6
Continuous
 62
     7
370
    15
100
AcDbSpline
210
0.0
220
0.0
230
1.0
 70
     8
 71
     3
 72
    16
 73
    12
 74
     0
 42
0.00000001
 43
0.00000001
 12
1.0
 22
0.0
 32
0.0
 13
1.0
 23
0.0
 33
0.0
 40
0.0
 40
0.0
 40
0.0
 40
0.0
 40
0.1249999999999986
 40
0.1249999999999986
 40
0.2499999999999972
 40
0.2499999999999972
 40
0.4999999999999981
 40
0.4999999999999981
 40
0.749999999999999
 40
0.749999999999999
 40
1.0
 40
1.0
 40
1.0
 40
1.0
 10
737.5186708611818
 20
394.6201201136735
 30
0.0
 10
737.6453884641037
 20
394.5401252494833
 30
0.0
 10
737.7812785116495
 20
394.468685903867
 30
0.0
 10
738.0726892177149
 20
394.3441928667081
 30
0.0
 10
738.2292058635019
 20
394.2909165753457
 30
0.0
 10
738.7224487036901
 20
394.1631700550942
 30
0.0
 10
739.081412852056
 20
394.1202701921471
 30
0.0
 10
739.8601386078111
 20
394.1199708176918
 30
0.0
 10
740.2850761013985
 20
394.1640960904782
 30
0.0
 10
741.1604351128684
 20
394.3339812379933
 30
0.0
 10
741.6130736125781
 20
394.4587985823724
 30
0.0
 10
742.0795727237386
 20
394.6201201136732
 30
0.0
  0
SPLINE
  5
26B
330
1F
100
AcDbEntity
  8
0
  6
Continuous
 62
     7
370
    15
100
AcDbSpline
210
0.0
220
0.0
230
1.0
 70
     8
 71
     3
 72
    12
 73
     8
 74
     0
 42
0.00000001
 43
0.00000001
 12
1.0
 22
0.0
 32
0.0
 13
1.0
 23
0.0
 33
0.0
 40
0.0
 40
0.0
 40
0.0
 40
0.0
 40
0.2042276357844279
 40
0.4084367447916923
 40
0.6183574372553297
 40
0.828264908518177
 40
0.9999999999999999
 40
0.9999999999999999
 40
0.9999999999999999
 40
0.9999999999999999
 10
779.3284202777119
 20
394.6201201397503
 30
0.0
 10
779.2709237185574
 20
394.5579112671152
 30
0.0
 10
779.1559358161236
 20
394.4334991652041
 30
0.0
 10
779.0251221023004
 20
394.291706350209
 30
0.0
 10
778.9302214249216
 20
394.1888109178071
 30
0.0
 10
778.8749273447846
 20
394.1287851881982
 30
0.0
 10
778.8713139979698
 20
394.1248589199054
 30
0.0
 10
778.8696880303593
 20
394.1230921409601
 30
0.0
  0
LINE
  5
26C
330
1F
100
AcDbEntity
  8
0
  6
Continuous
 62
     7
370
    15
100
AcDbLine
 10
776.3669486009
 20
391.6201201137
 30
0.0
 11
512.3669500314
 21
391.6201201137
 31
0.0
  0
LINE
  5
26D
330
1F
100
AcDbEntity
  8
0
  6
Continuous
 62
     7
370
    15
100
AcDbLine
 10
608.8163661622
 20
394.6201201398
 30
0.0
 11
608.8163661622
 21
396.6201200019
 31
0.0
  0
LINE
  5
26E
330
1F
100
AcDbEntity
  8
0
  6
Continuous
 62
     7
370
    15
100
AcDbLine
 10
608.8163661622
 20
394.6201201398
 30
0.0
 11
608.7177763544
 21
394.6201201398
 31
0.0
  0
LINE
  5
26F
330
1F
100
AcDbEntity
  8
0
  6
Continuous
 62
     7
370
    15
100
AcDbLine
 10
762.4078239166
 20
539.5825412925
 30
0.0
 11
762.4078239166
 21
540.3517392333
 31
0.0
  0
LINE
  5
270
330
1F
100
AcDbEntity
  8
0
  6
Continuous
 62
     7
370
    15
100
AcDbLine
 10
765.5906374418
 20
543.3517304118
 30
0.0
 11
769.8669428788
 21
543.3517304118
 31
0.0
  0
LINE
  5
271
330
1F
100
AcDbEntity
  8
0
  6
Continuous
 62
     7
370
    15
100
AcDbLine
 10
518.8669557534
 20
543.3517304118
 30
0.0
 11
592.5541440808
 21
543.3517304118
 31
0.0
  0
LINE
  5
272
330
1F
100
AcDbEntity
  8
0
  6
Continuous
 62
     7
370
    15
100
AcDbLine
 10
613.7458900772
 20
543.3517304118
 30
0.0
 11
765.5906374418
 21
543.3517304118
 31
0.0
  0
LINE
  5
273
330
1F
100
AcDbEntity
  8
0
  6
Continuous
 62
     7
370
    15
100
AcDbLine
 10
495.8435888253
 20
394.6201201398
 30
0.0
 11
492.6282013618
 21
394.6201201398
 31
0.0
  0
LINE
  5
274
330
1F
100
AcDbEntity
  8
0
  6
Continuous
 62
     7
370
    15
100
AcDbLine
 10
796.1056972705
 20
394.6201201398
 30
0.0
 11
792.8903098069
 21
394.6201201398
 31
0.0
  0
LINE
  5
275
330
1F
100
AcDbEntity
  8
0
  6
Continuous
 62
     7
370
    15
100
AcDbLine
 10
812.1606404744
 20
540.3517392333
 30
0.0
 11
812.1606404744
 21
535.3517291005
 31
0.0
  0
LINE
  5
276
330
1F
100
AcDbEntity
  8
0
  6
Continuous
 62
     7
370
    15
100
AcDbLine
 10
812.1606404744
 20
535.3517291005
 30
0.0
 11
803.9619023763
 21
535.3517291005
 31
0.0
  0
LINE
  5
277
330
1F
100
AcDbEntity
  8
0
  6
Continuous
 62
     7
370
    15
100
AcDbLine
 10
803.9619023763
 20
535.3517291005
 30
0.0
 11
773.7177307569
 21
535.3517291005
 31
0.0
  0
LINE
  5
278
330
1F
100
AcDbEntity
  8
0
  6
Continuous
 62
     7
370
    15
100
AcDbLine
 10
812.1606404744
 20
540.3517392333
 30
0.0
 11
762.4078239166
 21
540.3517392333
 31
0.0
  0
LINE
  5
279
330
1F
100
AcDbEntity
  8
0
  6
Continuous
 62
     7
370
    15
100
AcDbLine
 10
820.4428548776
 20
540.3517392333
 30
0.0
 11
820.4428548776
 21
535.3517291005
 31
0.0
  0
LINE
  5
27A
330
1F
100
AcDbEntity
  8
0
  6
Continuous
 62
     7
370
    15
100
AcDbLine
 10
820.4428548776
 20
535.3517291005
 30
0.0
 11
812.1606404744
 21
535.3517291005
 31
0.0
  0
LINE
  5
27B
330
1F
100
AcDbEntity
  8
0
  6
Continuous
 62
     7
370
    15
100
AcDbLine
 10
820.4428548776
 20
540.3517392333
 30
0.0
 11
812.1606404744
 21
540.3517392333
 31
0.0
  0
LINE
  5
27C
330
1F
100
AcDbEntity
  8
0
  6
Continuous
 62
     7
370
    15
100
AcDbLine
 10
805.0424600803
 20
396.6201200019
 30
0.0
 11
804.9147422277
 21
396.6201200019
 31
0.0
  0
LINE
  5
27D
330
1F
100
AcDbEntity
  8
0
  6
Continuous
 62
     7
370
    15
100
AcDbLine
 10
784.5578933917
 20
508.6201188024
 30
0.0
 11
803.9619023763
 21
535.3517291005
 31
0.0
  0
LINE
  5
27E
330
1F
100
AcDbEntity
  8
0
  6
Continuous
 62
     7
370
    15
100
AcDbLine
 10
784.5578933917
 20
508.6201188024
 30
0.0
 11
781.3150728904
 21
508.6201188024
 31
0.0
  0
LINE
  5
27F
330
1F
100
AcDbEntity
  8
0
  6
Continuous
 62
     7
370
    15
100
AcDbLine
 10
785.9001601897
 20
508.6201188024
 30
0.0
 11
806.0293341838
 21
535.3517291005
 31
0.0
  0
LINE
  5
280
330
1F
100
AcDbEntity
  8
0
  6
Continuous
 62
     7
370
    15
100
AcDbLine
 10
785.9001601897
 20
508.6201188024
 30
0.0
 11
784.5578933917
 21
508.6201188024
 31
0.0
  0
LINE
  5
281
330
1F
100
AcDbEntity
  8
0
  6
Continuous
 62
     7
370
    15
100
AcDbLine
 10
813.1906385385
 20
402.4913200046
 30
0.0
 11
805.0424600803
 21
402.4913200046
 31
0.0
  0
LINE
  5
282
330
1F
100
AcDbEntity
  8
0
  6
Continuous
 62
     7
370
    15
100
AcDbLine
 10
813.1906385385
 20
403.620120218
 30
0.0
 11
807.4716771804
 21
403.620120218
 31
0.0
  0
LINE
  5
283
330
1F
100
AcDbEntity
  8
0
  6
Continuous
 62
     7
370
    15
100
AcDbLine
 10
810.1906324588
 20
540.3701272662
 30
0.0
 11
786.1906434261
 21
540.3701272662
 31
0.0
  0
LINE
  5
284
330
1F
100
AcDbEntity
  8
0
  6
Continuous
 62
     7
370
    15
100
AcDbLine
 10
810.1906324588
 20
542.870124882
 30
0.0
 11
786.1906434261
 21
542.870124882
 31
0.0
  0
LINE
  5
285
330
1F
100
AcDbEntity
  8
0
  6
Continuous
 62
     7
370
    15
100
AcDbLine
 10
787.5947649442
 20
552.8701153453
 30
0.0
 11
787.5947649442
 21
542.870124882
 31
0.0
  0
LINE
  5
286
330
1F
100
AcDbEntity
  8
0
  6
Continuous
 62
     7
370
    15
100
AcDbLine
 10
795.3514749967
 20
552.8701153453
 30
0.0
 11
795.3514749967
 21
542.870124882
 31
0.0
  0
LINE
  5
287
330
1F
100
AcDbEntity
  8
0
  6
Continuous
 62
     7
370
    15
100
AcDbLine
 10
787.5947649442
 20
552.8701153453
 30
0.0
 11
795.3514749967
 21
552.8701153453
 31
0.0
  0
LINE
  5
288
330
1F
100
AcDbEntity
  8
0
  6
Continuous
 62
     7
370
    15
100
AcDbLine
 10
805.9473479949
 20
552.8701153453
 30
0.0
 11
805.9473479949
 21
542.870124882
 31
0.0
  0
LINE
  5
289
330
1F
100
AcDbEntity
  8
0
  6
Continuous
 62
     7
370
    15
100
AcDbLine
 10
795.3514749967
 20
552.8701153453
 30
0.0
 11
805.9473479949
 21
552.8701153453
 31
0.0
  0
LINE
  5
28A
330
1F
100
AcDbEntity
  8
0
  6
Continuous
 62
     7
370
    15
100
AcDbLine
 10
806.1906392537
 20
562.1201154645
 30
0.0
 11
790.1906366311
 21
562.1201154645
 31
0.0
  0
LINE
  5
28B
330
1F
100
AcDbEntity
  8
0
  6
Continuous
 62
     7
370
    15
100
AcDbLine
 10
806.1906392537
 20
561.6201219018
 30
0.0
 11
790.1906366311
 21
561.6201219018
 31
0.0
  0
LINE
  5
28C
330
1F
100
AcDbEntity
  8
0
  6
Continuous
 62
     7
370
    15
100
AcDbLine
 10
808.7865109407
 20
552.8701153453
 30
0.0
 11
808.7865109407
 21
542.870124882
 31
0.0
  0
LINE
  5
28D
330
1F
100
AcDbEntity
  8
0
  6
Continuous
 62
     7
370
    15
100
AcDbLine
 10
805.9473479949
 20
552.8701153453
 30
0.0
 11
808.7865109407
 21
552.8701153453
 31
0.0
  0
LINE
  5
28E
330
1F
100
AcDbEntity
  8
0
  6
Continuous
 62
     7
370
    15
100
AcDbLine
 10
804.6906436645
 20
573.6201164182
 30
0.0
 11
791.6906322204
 21
573.6201164182
 31
0.0
  0
LINE
  5
28F
330
1F
100
AcDbEntity
  8
0
  6
Continuous
 62
     7
370
    15
100
AcDbLine
 10
790.0373185836
 20
510.9892767723
 30
0.0
 11
790.2082051002
 21
514.3412184771
 31
0.0
  0
SPLINE
  5
290
330
1F
100
AcDbEntity
  8
0
  6
Continuous
 62
     7
370
    15
100
AcDbSpline
210
0.0
220
0.0
230
1.0
 70
     8
 71
     3
 72
    22
 73
    18
 74
     0
 42
0.00000001
 43
0.00000001
 12
1.0
 22
0.0
 32
0.0
 13
1.0
 23
0.0
 33
0.0
 40
0.0
 40
0.0
 40
0.0
 40
0.0
 40
0.1324178293900445
 40
0.2705281456941269
 40
0.4086569673824238
 40
0.5466692415930448
 40
0.6926295133779693
 40
0.7911327238730705
 40
0.857748000731489
 40
0.9029353803082298
 40
0.9337247956229474
 40
0.9548427599820829
 40
0.9694743360866807
 40
0.9846633990867265
 40
0.9908291924051856
 40
0.9970660018937413
 40
1.0
 40
1.0
 40
1.0
 40
1.0
 10
787.0211745463581
 20
510.1088342126037
 30
0.0
 10
787.1526991956852
 20
510.0777525250321
 30
0.0
 10
787.4214025844922
 20
510.0142529846568
 30
0.0
 10
787.8316802967518
 20
509.9889415577242
 30
0.0
 10
788.2496420646447
 20
510.0056378242449
 30
0.0
 10
788.6772581843935
 20
510.0613010524562
 30
0.0
 10
789.0662143946479
 20
510.1485931270358
 30
0.0
 10
789.3840504792016
 20
510.2683109816253
 30
0.0
 10
789.5995983476378
 20
510.3836780079847
 30
0.0
 10
789.7459621102832
 20
510.4886767253678
 30
0.0
 10
789.8454535555327
 20
510.5815298950557
 30
0.0
 10
789.9132974402074
 20
510.6625481844164
 30
0.0
 10
789.9643276344061
 20
510.7409005054486
 30
0.0
 10
789.999618318955
 20
510.8127835798465
 30
0.0
 10
790.0231444013466
 20
510.888493887924
 30
0.0
 10
790.0339305777744
 20
510.9421332161268
 30
0.0
 10
790.0364973888715
 20
510.9778499796903
 30
0.0
 10
790.0373185836048
 20
510.9892767723227
 30
0.0
  0
LINE
  5
291
330
1F
100
AcDbEntity
  8
0
  6
Continuous
 62
     7
370
    15
100
AcDbLine
 10
790.327250477
 20
508.6201188024
 30
0.0
 11
790.5563856326
 21
514.8036164101
 31
0.0
  0
LINE
  5
292
330
1F
100
AcDbEntity
  8
0
  6
Continuous
 62
     7
370
    15
100
AcDbLine
 10
785.9001601897
 20
508.6201188024
 30
0.0
 11
790.327250477
 21
508.6201188024
 31
0.0
  0
LINE
  5
293
330
1F
100
AcDbEntity
  8
0
  6
Continuous
 62
     7
370
    15
100
AcDbLine
 10
810.1766700708
 20
535.3517291005
 30
0.0
 11
804.1906352006
 21
527.105158275
 31
0.0
  0
LINE
  5
294
330
1F
100
AcDbEntity
  8
0
  6
Continuous
 62
     7
370
    15
100
AcDbLine
 10
792.1906406842
 20
510.5735567268
 30
0.0
 11
790.7726759874
 21
508.6201188024
 31
0.0
  0
LINE
  5
295
330
1F
100
AcDbEntity
  8
0
  6
Continuous
 62
     7
370
    15
100
AcDbLine
 10
790.327250477
 20
508.6201188024
 30
0.0
 11
790.7726759874
 21
508.6201188024
 31
0.0
  0
LINE
  5
296
330
1F
100
AcDbEntity
  8
0
  6
Continuous
 62
     7
370
    15
100
AcDbLine
 10
812.2441167794
 20
535.3517291005
 30
0.0
 11
804.1906352006
 21
524.6567037757
 31
0.0
  0
LINE
  5
297
330
1F
100
AcDbEntity
  8
0
  6
Continuous
 62
     7
370
    15
100
AcDbLine
 10
792.1906406842
 20
508.7206643875
 30
0.0
 11
792.1149278842
 21
508.6201188024
 31
0.0
  0
LINE
  5
298
330
1F
100
AcDbEntity
  8
0
  6
Continuous
 62
     7
370
    15
100
AcDbLine
 10
792.1149278842
 20
508.6201188024
 30
0.0
 11
790.7726759874
 21
508.6201188024
 31
0.0
  0
LINE
  5
299
330
1F
100
AcDbEntity
  8
0
  6
Continuous
 62
     7
370
    15
100
AcDbLine
 10
813.5577584468
 20
396.6201200019
 30
0.0
 11
810.0363756381
 21
396.6201200019
 31
0.0
  0
LINE
  5
29A
330
1F
100
AcDbEntity
  8
0
  6
Continuous
 62
     7
370
    15
100
AcDbLine
 10
810.0363756381
 20
396.6201200019
 30
0.0
 11
808.9071656429
 21
396.6201200019
 31
0.0
  0
LINE
  5
29B
330
1F
100
AcDbEntity
  8
0
  6
Continuous
 62
     7
370
    15
100
AcDbLine
 10
805.0424600803
 20
396.6201200019
 30
0.0
 11
808.9071656429
 21
396.6201200019
 31
0.0
  0
LINE
  5
29C
330
1F
100
AcDbEntity
  8
0
  6
Continuous
 62
     7
370
    15
100
AcDbLine
 10
492.6282013618
 20
394.6201201398
 30
0.0
 11
472.8669519387
 21
394.6201201398
 31
0.0
  0
LINE
  5
29D
330
1F
100
AcDbEntity
  8
0
  6
Continuous
 62
     7
370
    15
100
AcDbLine
 10
815.8669466935
 20
394.6201201398
 30
0.0
 11
796.1056972705
 21
394.6201201398
 31
0.0
  0
LWPOLYLINE
  5
29E
330
1F
100
AcDbEntity
  8
0
  6
Continuous
 62
     7
370
    15
100
AcDbPolyline
 90
        3
 70
   128
 43
0.0
 10
775.8608902656
 20
459.3231660183
 10
776.0766590797
 20
456.2396463807
 10
776.1062974893
 20
455.8162149842
  0
SPLINE
  5
29F
330
1F
100
AcDbEntity
  8
0
  6
Continuous
 62
     7
370
    15
100
AcDbSpline
210
0.0
220
0.0
230
1.0
 70
     8
 71
     3
 72
    12
 73
     8
 74
     0
 42
0.00000001
 43
0.00000001
 12
1.0
 22
0.0
 32
0.0
 13
1.0
 23
0.0
 33
0.0
 40
0.0
 40
0.0
 40
0.0
 40
0.0
 40
0.2142592861338097
 40
0.4292719734914835
 40
0.6437732987375389
 40
0.8577914318821238
 40
1.0
 40
1.0
 40
1.0
 40
1.0
 10
776.1062974892826
 20
455.8162149842406
 30
0.0
 10
776.1076311923294
 20
455.7960604879775
 30
0.0
 10
776.1103032881314
 20
455.7556806260743
 30
0.0
 10
776.1129193121544
 20
455.70163916151
 30
0.0
 10
776.1139732422963
 20
455.6612877111635
 30
0.0
 10
776.1136276344712
 20
455.6383744345796
 30
0.0
 10
776.1122972969096
 20
455.6384455454773
 30
0.0
 10
776.1117662154408
 20
455.6384739335203
 30
0.0
  0
SPLINE
  5
2A0
330
1F
100
AcDbEntity
  8
0
  6
Continuous
 62
     7
370
    15
100
AcDbSpline
210
0.0
220
0.0
230
1.0
 70
     8
 71
     3
 72
     8
 73
     4
 74
     0
 42
0.00000001
 43
0.00000001
 12
1.0
 22
0.0
 32
0.0
 13
1.0
 23
0.0
 33
0.0
 40
0.0
 40
0.0
 40
0.0
 40
0.0
 40
1.0
 40
1.0
 40
1.0
 40
1.0
 10
775.8470712755666
 20
459.4749779783505
 30
0.0
 10
775.8513397407974
 20
459.4423110501502
 30
0.0
 10
775.8566334162261
 20
459.3839692321633
 30
0.0
 10
775.8608881588168
 20
459.3231675181041
 30
0.0
  0
LWPOLYLINE
  5
2A1
330
1F
100
AcDbEntity
  8
0
  6
Continuous
 62
     7
370
    15
100
AcDbPolyline
 90
        3
 70
   128
 43
0.0
 10
775.2005304061
 20
468.7598627861
 10
775.416746255
 20
465.6700474079
 10
775.4459376298
 20
465.252911752
  0
SPLINE
  5
2A2
330
1F
100
AcDbEntity
  8
0
  6
Continuous
 62
     7
370
    15
100
AcDbSpline
210
0.0
220
0.0
230
1.0
 70
     8
 71
     3
 72
     8
 73
     4
 74
     0
 42
0.00000001
 43
0.00000001
 12
1.0
 22
0.0
 32
0.0
 13
1.0
 23
0.0
 33
0.0
 40
0.0
 40
0.0
 40
0.0
 40
0.0
 40
1.0
 40
1.0
 40
1.0
 40
1.0
 10
775.4459392460144
 20
465.2529146066904
 30
0.0
 10
775.450919267628
 20
465.1817487352873
 30
0.0
 10
775.4539504985688
 20
465.1139200476462
 30
0.0
 10
775.4532910758112
 20
465.0866162908384
 30
0.0
  0
SPLINE
  5
2A3
330
1F
100
AcDbEntity
  8
0
  6
Continuous
 62
     7
370
    15
100
AcDbSpline
210
0.0
220
0.0
230
1.0
 70
     8
 71
     3
 72
    12
 73
     8
 74
     0
 42
0.00000001
 43
0.00000001
 12
1.0
 22
0.0
 32
0.0
 13
1.0
 23
0.0
 33
0.0
 40
0.0
 40
0.0
 40
0.0
 40
0.0
 40
0.1776354731180254
 40
0.3918109213241863
 40
0.6066370060660918
 40
0.8219606524
 40
1.0
 40
1.0
 40
1.0
 40
1.0
 10
775.1810247861118
 20
468.9384383018637
 30
0.0
 10
775.1817453821434
 20
468.9376554024831
 30
0.0
 10
775.1833348022634
 20
468.9359285597401
 30
0.0
 10
775.1872464335569
 20
468.9091916975955
 30
0.0
 10
775.1919177387218
 20
468.8661378591731
 30
0.0
 10
775.1965997646599
 20
468.8136110719608
 30
0.0
 10
775.1993056844266
 20
468.7766098469016
 30
0.0
 10
775.2005304061146
 20
468.7598627861166
 30
0.0
  0
LWPOLYLINE
  5
2A4
330
1F
100
AcDbEntity
  8
0
  6
Continuous
 62
     7
370
    15
100
AcDbPolyline
 90
        3
 70
   128
 43
0.0
 10
774.8581315242
 20
473.6528527792
 10
775.0441278182
 20
470.9949028547
 10
775.0726486407
 20
470.587393349
  0
SPLINE
  5
2A5
330
1F
100
AcDbEntity
  8
0
  6
Continuous
 62
     7
370
    15
100
AcDbSpline
210
0.0
220
0.0
230
1.0
 70
     8
 71
     3
 72
     8
 73
     4
 74
     0
 42
0.00000001
 43
0.00000001
 12
1.0
 22
0.0
 32
0.0
 13
1.0
 23
0.0
 33
0.0
 40
0.0
 40
0.0
 40
0.0
 40
0.0
 40
1.0
 40
1.0
 40
1.0
 40
1.0
 10
775.0726442822602
 20
470.5873907052532
 30
0.0
 10
775.0776243177871
 20
470.5162249307498
 30
0.0
 10
775.0806506752548
 20
470.4483960835539
 30
0.0
 10
775.0799839221901
 20
470.4210923894011
 30
0.0
  0
SPLINE
  5
2A6
330
1F
100
AcDbEntity
  8
0
  6
Continuous
 62
     7
370
    15
100
AcDbSpline
210
0.0
220
0.0
230
1.0
 70
     8
 71
     3
 72
     8
 73
     4
 74
     0
 42
0.00000001
 43
0.00000001
 12
1.0
 22
0.0
 32
0.0
 13
1.0
 23
0.0
 33
0.0
 40
0.0
 40
0.0
 40
0.0
 40
0.0
 40
1.0
 40
1.0
 40
1.0
 40
1.0
 10
774.8421868253288
 20
473.8191478379454
 30
0.0
 10
774.8466792185915
 20
473.7918471902931
 30
0.0
 10
774.8531390983882
 20
473.7241629519175
 30
0.0
 10
774.8581294785301
 20
473.6528495220934
 30
0.0
  0
SPLINE
  5
2A7
330
1F
100
AcDbEntity
  8
0
  6
Continuous
 62
     7
370
    15
100
AcDbSpline
210
0.0
220
0.0
230
1.0
 70
     8
 71
     3
 72
    12
 73
     8
 74
     0
 42
0.00000001
 43
0.00000001
 12
1.0
 22
0.0
 32
0.0
 13
1.0
 23
0.0
 33
0.0
 40
0.0
 40
0.0
 40
0.0
 40
0.0
 40
0.2142798628018204
 40
0.4292639575760155
 40
0.6437575109513564
 40
0.8577658697382264
 40
1.0
 40
1.0
 40
1.0
 40
1.0
 10
774.7302497588367
 20
475.4803758915091
 30
0.0
 10
774.7315790016092
 20
475.4602185900027
 30
0.0
 10
774.7342418557182
 20
475.4198377399054
 30
0.0
 10
774.736835173947
 20
475.3657994236616
 30
0.0
 10
774.7379062198721
 20
475.3254485653616
 30
0.0
 10
774.7375198585396
 20
475.3025342906379
 30
0.0
 10
774.7361792381311
 20
475.3026061500485
 30
0.0
 10
774.7356439791889
 20
475.3026348407889
 30
0.0
  0
LWPOLYLINE
  5
2A8
330
1F
100
AcDbEntity
  8
0
  6
Continuous
 62
     7
370
    15
100
AcDbPolyline
 90
        3
 70
   128
 43
0.0
 10
774.484827634
 20
478.9873269256
 10
774.6984208785
 20
475.9352114852
 10
774.7302497588
 20
475.4803758915
  0
SPLINE
  5
2A9
330
1F
100
AcDbEntity
  8
0
  6
Continuous
 62
     7
370
    15
100
AcDbSpline
210
0.0
220
0.0
230
1.0
 70
     8
 71
     3
 72
     8
 73
     4
 74
     0
 42
0.00000001
 43
0.00000001
 12
1.0
 22
0.0
 32
0.0
 13
1.0
 23
0.0
 33
0.0
 40
0.0
 40
0.0
 40
0.0
 40
0.0
 40
1.0
 40
1.0
 40
1.0
 40
1.0
 10
774.4688770000148
 20
479.1536239365082
 30
0.0
 10
774.4733768002194
 20
479.1263233484891
 30
0.0
 10
774.4798416320849
 20
479.0586393701008
 30
0.0
 10
774.4848320556126
 20
478.9873256206562
 30
0.0
  0
SPLINE
  5
2AA
330
1F
100
AcDbEntity
  8
0
  6
Continuous
 62
     7
370
    15
100
AcDbSpline
210
0.0
220
0.0
230
1.0
 70
     8
 71
     3
 72
     8
 73
     4
 74
     0
 42
0.00000001
 43
0.00000001
 12
1.0
 22
0.0
 32
0.0
 13
1.0
 23
0.0
 33
0.0
 40
0.0
 40
0.0
 40
0.0
 40
0.0
 40
1.0
 40
1.0
 40
1.0
 40
1.0
 10
773.9297296518885
 20
486.9197803474461
 30
0.0
 10
773.9347097310191
 20
486.8486148711943
 30
0.0
 10
773.9377209927886
 20
486.7807855305356
 30
0.0
 10
773.9370315343212
 20
486.7534820315941
 30
0.0
  0
LWPOLYLINE
  5
2AB
330
1F
100
AcDbEntity
  8
0
  6
Continuous
 62
     7
370
    15
100
AcDbPolyline
 90
        3
 70
   128
 43
0.0
 10
773.6843223535
 20
490.4267323073
 10
773.8688434325
 20
487.7899420317
 10
773.9297295772
 20
486.9197812732
  0
SPLINE
  5
2AC
330
1F
100
AcDbEntity
  8
0
  6
Continuous
 62
     7
370
    15
100
AcDbSpline
210
0.0
220
0.0
230
1.0
 70
     8
 71
     3
 72
    12
 73
     8
 74
     0
 42
0.00000001
 43
0.00000001
 12
1.0
 22
0.0
 32
0.0
 13
1.0
 23
0.0
 33
0.0
 40
0.0
 40
0.0
 40
0.0
 40
0.0
 40
0.1776438045347155
 40
0.3918287201699215
 40
0.6066636396402045
 40
0.8220140608855481
 40
0.9999999999999999
 40
0.9999999999999999
 40
0.9999999999999999
 40
0.9999999999999999
 10
773.6647273265095
 20
490.6053078230048
 30
0.0
 10
773.6654521441462
 20
490.604521848131
 30
0.0
 10
773.6670508735122
 20
490.6027882243232
 30
0.0
 10
773.6709937534241
 20
490.5760543519443
 30
0.0
 10
773.6756980883652
 20
490.5329992712985
 30
0.0
 10
773.6803930031133
 20
490.4804726305201
 30
0.0
 10
773.6830982298706
 20
490.4434742091806
 30
0.0
 10
773.6843223534794
 20
490.4267323072577
 30
0.0
  0
ELLIPSE
  5
2AD
330
1F
100
AcDbEntity
  8
0
  6
Continuous
 62
     7
370
    15
100
AcDbEllipse
 10
644.3669493161
 20
452.488457306
 30
0.0
 11
131.9357836339894
 21
0.0
 31
0.0
210
0.0
220
0.0
230
1.0
 40
0.6377033523
 41
0.0831342570088339
 42
0.1216311638766159
  0
ELLIPSE
  5
2AE
330
1F
100
AcDbEntity
  8
0
  6
Continuous
 62
     7
370
    15
100
AcDbEllipse
 10
644.3669493161
 20
465.6302571641
 30
0.0
 11
131.092906427495
 21
0.0
 31
0.0
210
0.0
220
0.0
230
1.0
 40
0.414387424
 41
6.235022318299456
 42
6.273177622993373
  0
ELLIPSE
  5
2AF
330
1F
100
AcDbEntity
  8
0
  6
Continuous
 62
     7
370
    15
100
AcDbEllipse
 10
644.3669493161
 20
470.9692123792
 30
0.0
 11
130.7197269482225
 21
0.0
 31
0.0
210
0.0
220
0.0
230
1.0
 40
0.414387424
 41
6.245713014413584
 42
6.273066359423454
  0
ELLIPSE
  5
2B0
330
1F
100
AcDbEntity
  8
0
  6
Continuous
 62
     7
370
    15
100
AcDbEllipse
 10
644.3669493161
 20
470.1323778196
 30
0.0
 11
130.7782195694579
 21
0.0
 31
0.0
210
0.0
220
0.0
230
1.0
 40
0.414387424
 41
0.0680831477790831
 42
0.0955082157428511
  0
ELLIPSE
  5
2B1
330
1F
100
AcDbEntity
  8
0
  6
Continuous
 62
     7
370
    15
100
AcDbEllipse
 10
644.3669493161
 20
475.4713330348
 30
0.0
 11
130.4050400901856
 21
0.0
 31
0.0
210
0.0
220
0.0
230
1.0
 40
0.414387424
 41
0.0681952025908381
 42
0.0858606442410971
  0
ELLIPSE
  5
2B2
330
1F
100
AcDbEntity
  8
0
  6
Continuous
 62
     7
370
    15
100
AcDbEllipse
 10
644.3669493161
 20
487.315315585
 30
0.0
 11
129.577175636841
 21
0.0
 31
0.0
210
0.0
220
0.0
230
1.0
 40
0.414387424
 41
6.254992819111944
 42
6.27272172183619
  0
SPLINE
  5
2B3
330
1F
100
AcDbEntity
  8
0
  6
Continuous
 62
     7
370
    15
100
AcDbSpline
210
0.0
220
0.0
230
1.0
 70
     8
 71
     3
 72
     8
 73
     4
 74
     0
 42
0.00000001
 43
0.00000001
 12
1.0
 22
0.0
 32
0.0
 13
1.0
 23
0.0
 33
0.0
 40
0.0
 40
0.0
 40
0.0
 40
0.0
 40
1.0
 40
1.0
 40
1.0
 40
1.0
 10
774.2735761432467
 20
480.2716881074873
 30
0.0
 10
774.2785747959123
 20
480.200323514983
 30
0.0
 10
774.2859394679372
 20
480.1326822694432
 30
0.0
 10
774.2916083783659
 20
480.1053897916353
 30
0.0
  0
SPLINE
  5
2B4
330
1F
100
AcDbEntity
  8
0
  6
Continuous
 62
     7
370
    15
100
AcDbSpline
210
0.0
220
0.0
230
1.0
 70
     8
 71
     3
 72
     8
 73
     4
 74
     0
 42
0.00000001
 43
0.00000001
 12
1.0
 22
0.0
 32
0.0
 13
1.0
 23
0.0
 33
0.0
 40
0.0
 40
0.0
 40
0.0
 40
0.0
 40
1.0
 40
1.0
 40
1.0
 40
1.0
 10
773.8926333325911
 20
485.801716176467
 30
0.0
 10
773.8907764293737
 20
485.7744297069693
 30
0.0
 10
773.8928937102393
 20
485.7065753087456
 30
0.0
 10
773.8978779020607
 20
485.635417860615
 30
0.0
  0
LWPOLYLINE
  5
2B5
330
1F
100
AcDbEntity
  8
0
  6
Continuous
 62
     7
370
    15
100
AcDbPolyline
 90
        3
 70
   128
 43
0.0
 10
773.8978708945
 20
485.6354203876
 10
774.2259795629
 20
480.9512999709
 10
774.2735738717
 20
480.2716878112
  0
SPLINE
  5
2B6
330
1F
100
AcDbEntity
  8
0
  6
Continuous
 62
     7
370
    15
100
AcDbSpline
210
0.0
220
0.0
230
1.0
 70
     8
 71
     3
 72
    10
 73
     6
 74
     0
 42
0.00000001
 43
0.00000001
 12
1.0
 22
0.0
 32
0.0
 13
1.0
 23
0.0
 33
0.0
 40
0.0
 40
0.0
 40
0.0
 40
0.0
 40
0.5
 40
0.5
 40
1.0
 40
1.0
 40
1.0
 40
1.0
 10
775.3078387624588
 20
463.0148983951343
 30
0.0
 10
775.3048953903328
 20
462.9895936294516
 30
0.0
 10
775.305715623069
 20
462.929083810871
 30
0.0
 10
775.3139787194763
 20
462.7988525485501
 30
0.0
 10
775.3212169366994
 20
462.7321631382115
 30
0.0
 10
775.3279973087616
 20
462.6967896190359
 30
0.0
  0
SPLINE
  5
2B7
330
1F
100
AcDbEntity
  8
0
  6
Continuous
 62
     7
370
    15
100
AcDbSpline
210
0.0
220
0.0
230
1.0
 70
     8
 71
     3
 72
     9
 73
     5
 74
     0
 42
0.00000001
 43
0.00000001
 12
1.0
 22
0.0
 32
0.0
 13
1.0
 23
0.0
 33
0.0
 40
0.0
 40
0.0
 40
0.0
 40
0.0
 40
0.4316223246384202
 40
1.0
 40
1.0
 40
1.0
 40
1.0
 10
775.6026978455753
 20
455.6362164075995
 30
0.0
 10
775.5967823766237
 20
455.5355124596712
 30
0.0
 10
775.5830771797094
 20
455.3021974938324
 30
0.0
 10
775.5612887249381
 20
455.1138650931748
 30
0.0
 10
775.5489046536655
 20
455.0068211610937
 30
0.0
  0
SPLINE
  5
2B8
330
1F
100
AcDbEntity
  8
0
  6
Continuous
 62
     7
370
    15
100
AcDbSpline
210
0.0
220
0.0
230
1.0
 70
     8
 71
     3
 72
     8
 73
     4
 74
     0
 42
0.00000001
 43
0.00000001
 12
1.0
 22
0.0
 32
0.0
 13
1.0
 23
0.0
 33
0.0
 40
0.0
 40
0.0
 40
0.0
 40
0.0
 40
1.0
 40
1.0
 40
1.0
 40
1.0
 10
775.5489062092666
 20
455.0068183843444
 30
0.0
 10
775.5450199840237
 20
454.9761924145514
 30
0.0
 10
775.5454625043429
 20
454.9132040604067
 30
0.0
 10
775.5500726037158
 20
454.8476358411112
 30
0.0
  0
LWPOLYLINE
  5
2B9
330
1F
100
AcDbEntity
  8
0
  6
Continuous
 62
     7
370
    15
100
AcDbPolyline
 90
        3
 70
   128
 43
0.0
 10
775.5500669442
 20
454.8476395066
 10
775.5876923763
 20
454.3125388082
 10
775.6227399074
 20
453.8141210433
  0
LINE
  5
2BA
330
1F
100
AcDbEntity
  8
0
  6
Continuous
 62
     7
370
    15
100
AcDbLine
 10
774.850069996
 20
453.6341187413
 30
0.0
 11
775.6164069139
 21
453.6341187413
 31
0.0
  0
SPLINE
  5
2BB
330
1F
100
AcDbEntity
  8
0
  6
Continuous
 62
     7
370
    15
100
AcDbSpline
210
0.0
220
0.0
230
1.0
 70
     8
 71
     3
 72
    10
 73
     6
 74
     0
 42
0.00000001
 43
0.00000001
 12
1.0
 22
0.0
 32
0.0
 13
1.0
 23
0.0
 33
0.0
 40
0.0
 40
0.0
 40
0.0
 40
0.0
 40
0.5
 40
0.5
 40
1.0
 40
1.0
 40
1.0
 40
1.0
 10
775.6227388423679
 20
453.8141201136733
 30
0.0
 10
775.6260779693843
 20
453.7666283110279
 30
0.0
 10
775.6273127801691
 20
453.7200061435551
 30
0.0
 10
775.6249914841899
 20
453.6535724555674
 30
0.0
 10
775.6214383763584
 20
453.6341201136732
 30
0.0
 10
775.6164131012832
 20
453.6341201136732
 30
0.0
  0
LINE
  5
2BC
330
1F
100
AcDbEntity
  8
0
  6
Continuous
 62
     7
370
    15
100
AcDbLine
 10
505.2428836786
 20
535.3517291005
 30
0.0
 11
476.4897818528
 21
535.3517291005
 31
0.0
  0
LINE
  5
2BD
330
1F
100
AcDbEntity
  8
0
  6
Continuous
 62
     7
370
    15
100
AcDbLine
 10
468.2910437547
 20
535.3517291005
 30
0.0
 11
476.4897818528
 21
535.3517291005
 31
0.0
  0
LINE
  5
2BE
330
1F
100
AcDbEntity
  8
0
  6
Continuous
 62
     7
370
    15
100
AcDbLine
 10
468.2910437547
 20
540.3517392333
 30
0.0
 11
468.2910437547
 21
535.3517291005
 31
0.0
  0
LINE
  5
2BF
330
1F
100
AcDbEntity
  8
0
  6
Continuous
 62
     7
370
    15
100
AcDbLine
 10
516.8669517003
 20
540.3517392333
 30
0.0
 11
468.2910437547
 21
540.3517392333
 31
0.0
  0
LINE
  5
2C0
330
1F
100
AcDbEntity
  8
0
  6
Continuous
 62
     7
370
    15
100
AcDbLine
 10
476.4897818528
 20
535.3517291005
 30
0.0
 11
496.6189707481
 21
508.6201188024
 31
0.0
  0
LINE
  5
2C1
330
1F
100
AcDbEntity
  8
0
  6
Continuous
 62
     7
370
    15
100
AcDbLine
 10
497.9463810884
 20
508.6201188024
 30
0.0
 11
496.6189707481
 21
508.6201188024
 31
0.0
  0
LINE
  5
2C2
330
1F
100
AcDbEntity
  8
0
  6
Continuous
 62
     7
370
    15
100
AcDbLine
 10
487.4374265634
 20
542.870124882
 30
0.0
 11
478.5432661735
 21
542.870124882
 31
0.0
  0
LINE
  5
2C3
330
1F
100
AcDbEntity
  8
0
  6
Continuous
 62
     7
370
    15
100
AcDbLine
 10
502.5432552062
 20
542.870124882
 30
0.0
 11
487.4374265634
 21
542.870124882
 31
0.0
  0
LINE
  5
2C4
330
1F
100
AcDbEntity
  8
0
  6
Continuous
 62
     7
370
    15
100
AcDbLine
 10
487.4374265634
 20
540.3701272662
 30
0.0
 11
478.5432661735
 21
540.3701272662
 31
0.0
  0
LINE
  5
2C5
330
1F
100
AcDbEntity
  8
0
  6
Continuous
 62
     7
370
    15
100
AcDbLine
 10
502.5432552062
 20
540.3701272662
 30
0.0
 11
487.4374265634
 21
540.3701272662
 31
0.0
  0
LINE
  5
2C6
330
1F
100
AcDbEntity
  8
0
  6
Continuous
 62
     7
370
    15
100
AcDbLine
 10
479.9473876916
 20
552.8701153453
 30
0.0
 11
479.9473876916
 21
542.870124882
 31
0.0
  0
LINE
  5
2C7
330
1F
100
AcDbEntity
  8
0
  6
Continuous
 62
     7
370
    15
100
AcDbLine
 10
479.9473876916
 20
552.8701153453
 30
0.0
 11
487.7041126453
 21
552.8701153453
 31
0.0
  0
LINE
  5
2C8
330
1F
100
AcDbEntity
  8
0
  6
Continuous
 62
     7
370
    15
100
AcDbLine
 10
487.7041126453
 20
552.8701153453
 30
0.0
 11
487.7041126453
 21
542.870124882
 31
0.0
  0
LINE
  5
2C9
330
1F
100
AcDbEntity
  8
0
  6
Continuous
 62
     7
370
    15
100
AcDbLine
 10
498.2999856435
 20
552.8701153453
 30
0.0
 11
498.2999856435
 21
542.870124882
 31
0.0
  0
LINE
  5
2CA
330
1F
100
AcDbEntity
  8
0
  6
Continuous
 62
     7
370
    15
100
AcDbLine
 10
487.7041126453
 20
552.8701153453
 30
0.0
 11
498.2999856435
 21
552.8701153453
 31
0.0
  0
LINE
  5
2CB
330
1F
100
AcDbEntity
  8
0
  6
Continuous
 62
     7
370
    15
100
AcDbLine
 10
488.4727145396
 20
562.1201154645
 30
0.0
 11
482.5432593785
 21
562.1201154645
 31
0.0
  0
LINE
  5
2CC
330
1F
100
AcDbEntity
  8
0
  6
Continuous
 62
     7
370
    15
100
AcDbLine
 10
498.5432620012
 20
562.1201154645
 30
0.0
 11
488.4727145396
 21
562.1201154645
 31
0.0
  0
LINE
  5
2CD
330
1F
100
AcDbEntity
  8
0
  6
Continuous
 62
     7
370
    15
100
AcDbLine
 10
488.4727145396
 20
561.6201219018
 30
0.0
 11
482.5432593785
 21
561.6201219018
 31
0.0
  0
LINE
  5
2CE
330
1F
100
AcDbEntity
  8
0
  6
Continuous
 62
     7
370
    15
100
AcDbLine
 10
498.5432620012
 20
561.6201219018
 30
0.0
 11
488.4727145396
 21
561.6201219018
 31
0.0
  0
LINE
  5
2CF
330
1F
100
AcDbEntity
  8
0
  6
Continuous
 62
     7
370
    15
100
AcDbLine
 10
501.1391336881
 20
552.8701153453
 30
0.0
 11
501.1391336881
 21
542.870124882
 31
0.0
  0
LINE
  5
2D0
330
1F
100
AcDbEntity
  8
0
  6
Continuous
 62
     7
370
    15
100
AcDbLine
 10
498.2999856435
 20
552.8701153453
 30
0.0
 11
501.1391336881
 21
552.8701153453
 31
0.0
  0
LINE
  5
2D1
330
1F
100
AcDbEntity
  8
0
  6
Continuous
 62
     7
370
    15
100
AcDbLine
 10
488.8609344922
 20
573.6201164182
 30
0.0
 11
484.0432549678
 21
573.6201164182
 31
0.0
  0
LINE
  5
2D2
330
1F
100
AcDbEntity
  8
0
  6
Continuous
 62
     7
370
    15
100
AcDbLine
 10
497.0432664119
 20
573.6201164182
 30
0.0
 11
488.8609344922
 21
573.6201164182
 31
0.0
  0
LINE
  5
2D3
330
1F
100
AcDbEntity
  8
0
  6
Continuous
 62
     7
370
    15
100
AcDbLine
 10
677.8271640502
 20
552.8701153453
 30
0.0
 11
677.8271640502
 21
543.3517304118
 31
0.0
  0
LINE
  5
2D4
330
1F
100
AcDbEntity
  8
0
  6
Continuous
 62
     7
370
    15
100
AcDbLine
 10
688.4230370485
 20
552.8701153453
 30
0.0
 11
688.4230370485
 21
543.3517304118
 31
0.0
  0
LINE
  5
2D5
330
1F
100
AcDbEntity
  8
0
  6
Continuous
 62
     7
370
    15
100
AcDbLine
 10
677.8271640502
 20
552.8701153453
 30
0.0
 11
688.4230370485
 21
552.8701153453
 31
0.0
  0
LINE
  5
2D6
330
1F
100
AcDbEntity
  8
0
  6
Continuous
 62
     7
370
    15
100
AcDbLine
 10
696.1797545515
 20
552.8701153453
 30
0.0
 11
696.1797545515
 21
543.3517304118
 31
0.0
  0
LINE
  5
2D7
330
1F
100
AcDbEntity
  8
0
  6
Continuous
 62
     7
370
    15
100
AcDbLine
 10
688.4230370485
 20
552.8701153453
 30
0.0
 11
696.1797545515
 21
552.8701153453
 31
0.0
  0
LINE
  5
2D8
330
1F
100
AcDbEntity
  8
0
  6
Continuous
 62
     7
370
    15
100
AcDbLine
 10
693.5838828646
 20
561.6201219018
 30
0.0
 11
677.5838839673
 21
561.6201219018
 31
0.0
  0
LINE
  5
2D9
330
1F
100
AcDbEntity
  8
0
  6
Continuous
 62
     7
370
    15
100
AcDbLine
 10
693.5838828646
 20
562.1201154645
 30
0.0
 11
677.5838839673
 21
562.1201154645
 31
0.0
  0
LINE
  5
2DA
330
1F
100
AcDbEntity
  8
0
  6
Continuous
 62
     7
370
    15
100
AcDbLine
 10
674.9880085551
 20
552.8701153453
 30
0.0
 11
674.9880085551
 21
543.3517304118
 31
0.0
  0
LINE
  5
2DB
330
1F
100
AcDbEntity
  8
0
  6
Continuous
 62
     7
370
    15
100
AcDbLine
 10
674.9880085551
 20
552.8701153453
 30
0.0
 11
677.8271640502
 21
552.8701153453
 31
0.0
  0
LINE
  5
2DC
330
1F
100
AcDbEntity
  8
0
  6
Continuous
 62
     7
370
    15
100
AcDbLine
 10
692.08388355
 20
573.6201164182
 30
0.0
 11
679.0838832818
 21
573.6201164182
 31
0.0
  0
LINE
  5
2DD
330
1F
100
AcDbEntity
  8
0
  6
Continuous
 62
     8
370
     0
100
AcDbLine
 10
804.9147422277
 20
396.6201200019
 30
0.0
 11
804.9147422277
 21
403.620120218
 31
0.0
  0
LINE
  5
2DE
330
1F
100
AcDbEntity
  8
0
  6
Continuous
 62
     8
370
     0
100
AcDbLine
 10
792.8903098069
 20
394.6201201398
 30
0.0
 11
792.8903098069
 21
396.6201200019
 31
0.0
  0
LINE
  5
2DF
330
1F
100
AcDbEntity
  8
0
  6
Continuous
 62
     8
370
     0
100
AcDbLine
 10
730.1169480048
 20
394.6201201398
 30
0.0
 11
730.1169480048
 21
396.6201200019
 31
0.0
  0
LINE
  5
2E0
330
1F
100
AcDbEntity
  8
0
  6
Continuous
 62
     8
370
     0
100
AcDbLine
 10
616.3184451722
 20
403.620120218
 30
0.0
 11
616.3184451722
 21
396.6201200019
 31
0.0
  0
LINE
  5
2E1
330
1F
100
AcDbEntity
  8
0
  6
Continuous
 62
     8
370
     0
100
AcDbLine
 10
584.0622591637
 20
396.6201200019
 30
0.0
 11
584.0622591637
 21
403.620120218
 31
0.0
  0
LINE
  5
2E2
330
1F
100
AcDbEntity
  8
0
  6
Continuous
 62
     8
370
     0
100
AcDbLine
 10
558.6169506274
 20
394.6201201398
 30
0.0
 11
558.6169506274
 21
396.6201200019
 31
0.0
  0
LINE
  5
2E3
330
1F
100
AcDbEntity
  8
0
  6
Continuous
 62
     8
370
     0
100
AcDbLine
 10
495.8435888253
 20
394.6201201398
 30
0.0
 11
495.8435888253
 21
396.6201200019
 31
0.0
  0
LINE
  5
2E4
330
1F
100
AcDbEntity
  8
0
  6
Continuous
 62
     8
370
     0
100
AcDbLine
 10
813.5577584468
 20
403.620120218
 30
0.0
 11
813.5577584468
 21
396.6201200019
 31
0.0
  0
LINE
  5
2E5
330
1F
100
AcDbEntity
  8
0
  6
Continuous
 62
     8
370
     0
100
AcDbLine
 10
620.2347329669
 20
510.9892767723
 30
0.0
 11
783.6944605075
 21
510.9892767723
 31
0.0
  0
LINE
  5
2E6
330
1F
100
AcDbEntity
  8
0
  6
Continuous
 62
     8
370
     0
100
AcDbLine
 10
609.1500180625
 20
510.9892767723
 30
0.0
 11
613.4403175526
 21
510.9892767723
 31
0.0
  0
LINE
  5
2E7
330
1F
100
AcDbEntity
  8
0
  6
Continuous
 62
     8
370
     0
100
AcDbLine
 10
784.1650838815
 20
508.0241617616
 30
0.0
 11
609.1500180625
 21
508.0241617616
 31
0.0
  0
LINE
  5
2E8
330
1F
100
AcDbEntity
  8
0
  6
Continuous
 62
     8
370
     0
100
AcDbLine
 10
597.1500160955
 20
508.0241617616
 30
0.0
 11
504.5688147508
 21
508.0241617616
 31
0.0
  0
LINE
  5
2E9
330
1F
100
AcDbEntity
  8
0
  6
Continuous
 62
     8
370
     0
100
AcDbLine
 10
783.7953115665
 20
503.7976634558
 30
0.0
 11
609.1500180625
 21
503.7976634558
 31
0.0
  0
LINE
  5
2EA
330
1F
100
AcDbEntity
  8
0
  6
Continuous
 62
     8
370
     0
100
AcDbLine
 10
597.1500160955
 20
503.7976634558
 30
0.0
 11
504.9385870658
 21
503.7976634558
 31
0.0
  0
LINE
  5
2EB
330
1F
100
AcDbEntity
  8
0
  6
Continuous
 62
     8
370
     0
100
AcDbLine
 10
495.4498107396
 20
510.9892767723
 30
0.0
 11
591.0995001756
 21
510.9892767723
 31
0.0
  0
LINE
  5
2EC
330
1F
100
AcDbEntity
  8
0
  6
Continuous
 62
     8
370
     0
100
AcDbLine
 10
773.9840741121
 20
495.5650624688
 30
0.0
 11
609.1500180625
 21
495.5650624688
 31
0.0
  0
LINE
  5
2ED
330
1F
100
AcDbEntity
  8
0
  6
Continuous
 62
     8
370
     0
100
AcDbLine
 10
597.1500160955
 20
495.5650624688
 30
0.0
 11
514.7498245202
 21
495.5650624688
 31
0.0
  0
LINE
  5
2EE
330
1F
100
AcDbEntity
  8
0
  6
Continuous
 62
     8
370
     0
100
AcDbLine
 10
775.4385317527
 20
445.2187587376
 30
0.0
 11
609.1500180625
 21
445.2187587376
 31
0.0
  0
LINE
  5
2EF
330
1F
100
AcDbEntity
  8
0
  6
Continuous
 62
     8
370
     0
100
AcDbLine
 10
597.1500160955
 20
445.2187587376
 30
0.0
 11
513.2953668796
 21
445.2187587376
 31
0.0
  0
LINE
  5
2F0
330
1F
100
AcDbEntity
  8
0
  6
Continuous
 62
     8
370
     0
100
AcDbLine
 10
770.7123900615
 20
439.8768265601
 30
0.0
 11
609.1500180625
 21
439.8768265601
 31
0.0
  0
LINE
  5
2F1
330
1F
100
AcDbEntity
  8
0
  6
Continuous
 62
     8
370
     0
100
AcDbLine
 10
597.1500160955
 20
439.8768265601
 30
0.0
 11
518.0215085708
 21
439.8768265601
 31
0.0
  0
LINE
  5
2F2
330
1F
100
AcDbEntity
  8
0
  6
Continuous
 62
     8
370
     0
100
AcDbLine
 10
772.2101951801
 20
491.3860616143
 30
0.0
 11
609.1500180625
 21
491.3860616143
 31
0.0
  0
LINE
  5
2F3
330
1F
100
AcDbEntity
  8
0
  6
Continuous
 62
     8
370
     0
100
AcDbLine
 10
597.1500160955
 20
491.3860616143
 30
0.0
 11
516.5237034522
 21
491.3860616143
 31
0.0
  0
LINE
  5
2F4
330
1F
100
AcDbEntity
  8
0
  6
Continuous
 62
     8
370
     0
100
AcDbLine
 10
767.5224910341
 20
541.3517263587
 30
0.0
 11
771.866946932
 21
541.3517263587
 31
0.0
  0
LINE
  5
2F5
330
1F
100
AcDbEntity
  8
0
  6
Continuous
 62
     8
370
     0
100
AcDbLine
 10
516.8669517003
 20
541.3517263587
 30
0.0
 11
591.150015112
 21
541.3517263587
 31
0.0
  0
LINE
  5
2F6
330
1F
100
AcDbEntity
  8
0
  6
Continuous
 62
     8
370
     0
100
AcDbLine
 10
615.1500171833
 20
541.3517263587
 30
0.0
 11
767.5224910341
 21
541.3517263587
 31
0.0
  0
LINE
  5
2F7
330
1F
100
AcDbEntity
  8
0
  6
Continuous
 62
     8
370
     0
100
AcDbLine
 10
769.7099442445
 20
439.8242925163
 30
0.0
 11
609.1500180625
 21
439.8242925163
 31
0.0
  0
LINE
  5
2F8
330
1F
100
AcDbEntity
  8
0
  6
Continuous
 62
     8
370
     0
100
AcDbLine
 10
597.1500160955
 20
439.8242925163
 30
0.0
 11
519.0239543878
 21
439.8242925163
 31
0.0
  0
LINE
  5
2F9
330
1F
100
AcDbEntity
  8
0
  6
Continuous
 62
     8
370
     0
100
AcDbLine
 10
766.8669517003
 20
415.7337006982
 30
0.0
 11
609.1500180625
 21
415.7337006982
 31
0.0
  0
LINE
  5
2FA
330
1F
100
AcDbEntity
  8
0
  6
Continuous
 62
     8
370
     0
100
AcDbLine
 10
597.1500160955
 20
415.7337006982
 30
0.0
 11
521.866946932
 21
415.7337006982
 31
0.0
  0
LINE
  5
2FB
330
1F
100
AcDbEntity
  8
0
  6
Continuous
 62
     8
370
     0
100
AcDbLine
 10
766.8669517003
 20
436.8284028824
 30
0.0
 11
609.1500180625
 21
436.8284028824
 31
0.0
  0
LINE
  5
2FC
330
1F
100
AcDbEntity
  8
0
  6
Continuous
 62
     8
370
     0
100
AcDbLine
 10
597.1500160955
 20
436.8284028824
 30
0.0
 11
521.866946932
 21
436.8284028824
 31
0.0
  0
LINE
  5
2FD
330
1F
100
AcDbEntity
  8
0
  6
Continuous
 62
     8
370
     0
100
AcDbLine
 10
787.6841570102
 20
510.9892767723
 30
0.0
 11
790.0373185836
 21
510.9892767723
 31
0.0
  0
LINE
  5
2FE
330
1F
100
AcDbEntity
  8
0
  6
Continuous
 62
     8
370
     0
100
AcDbLine
 10
810.0363756381
 20
396.6201200019
 30
0.0
 11
810.0363756381
 21
400.1607327591
 31
0.0
  0
LINE
  5
2FF
330
1F
100
AcDbEntity
  8
0
  6
Continuous
 62
     8
370
     0
100
AcDbLine
 10
774.6974821054
 20
455.8162149842
 30
0.0
 11
776.1062974893
 21
455.8162149842
 31
0.0
  0
LINE
  5
300
330
1F
100
AcDbEntity
  8
0
  6
Continuous
 62
     8
370
     0
100
AcDbLine
 10
774.4522536956
 20
459.3231660183
 30
0.0
 11
775.8608902656
 21
459.3231660183
 31
0.0
  0
LINE
  5
301
330
1F
100
AcDbEntity
  8
0
  6
Continuous
 62
     8
370
     0
100
AcDbLine
 10
774.4416440688
 20
459.4749790486
 30
0.0
 11
775.8470768892
 21
459.4749790486
 31
0.0
  0
LINE
  5
302
330
1F
100
AcDbEntity
  8
0
  6
Continuous
 62
     8
370
     0
100
AcDbLine
 10
774.0375990831
 20
465.252911752
 30
0.0
 11
775.4459376298
 21
465.252911752
 31
0.0
  0
LINE
  5
303
330
1F
100
AcDbEntity
  8
0
  6
Continuous
 62
     8
370
     0
100
AcDbLine
 10
773.7923706733
 20
468.7598627861
 30
0.0
 11
775.2005304061
 21
468.7598627861
 31
0.0
  0
LINE
  5
304
330
1F
100
AcDbEntity
  8
0
  6
Continuous
 62
     8
370
     0
100
AcDbLine
 10
774.04923689
 20
465.0866147931
 30
0.0
 11
775.4532839023
 21
465.0866147931
 31
0.0
  0
LINE
  5
305
330
1F
100
AcDbEntity
  8
0
  6
Continuous
 62
     8
370
     0
100
AcDbLine
 10
773.6645783149
 20
470.587393349
 30
0.0
 11
775.0726486407
 21
470.587393349
 31
0.0
  0
LINE
  5
306
330
1F
100
AcDbEntity
  8
0
  6
Continuous
 62
     8
370
     0
100
AcDbLine
 10
773.4502251111
 20
473.6528527792
 30
0.0
 11
774.8581315242
 21
473.6528527792
 31
0.0
  0
LINE
  5
307
330
1F
100
AcDbEntity
  8
0
  6
Continuous
 62
     8
370
     0
100
AcDbLine
 10
773.6762161218
 20
470.4210889395
 30
0.0
 11
775.0799800121
 21
470.4210889395
 31
0.0
  0
LINE
  5
308
330
1F
100
AcDbEntity
  8
0
  6
Continuous
 62
     8
370
     0
100
AcDbLine
 10
773.4385873042
 20
473.8191497381
 30
0.0
 11
774.8421872817
 21
473.8191497381
 31
0.0
  0
LINE
  5
309
330
1F
100
AcDbEntity
  8
0
  6
Continuous
 62
     8
370
     0
100
AcDbLine
 10
773.3224327527
 20
475.4803758915
 30
0.0
 11
774.7302497588
 21
475.4803758915
 31
0.0
  0
LINE
  5
30A
330
1F
100
AcDbEntity
  8
0
  6
Continuous
 62
     8
370
     0
100
AcDbLine
 10
773.077204343
 20
478.9873269256
 30
0.0
 11
774.484827634
 21
478.9873269256
 31
0.0
  0
LINE
  5
30B
330
1F
100
AcDbEntity
  8
0
  6
Continuous
 62
     8
370
     0
100
AcDbLine
 10
773.0655665361
 20
479.1536238845
 30
0.0
 11
774.4688833915
 21
479.1536238845
 31
0.0
  0
LINE
  5
30C
330
1F
100
AcDbEntity
  8
0
  6
Continuous
 62
     8
370
     0
100
AcDbLine
 10
772.5341315232
 20
486.7534843143
 30
0.0
 11
773.9370311462
 21
486.7534843143
 31
0.0
  0
LINE
  5
30D
330
1F
100
AcDbEntity
  8
0
  6
Continuous
 62
     8
370
     0
100
AcDbLine
 10
772.5225086175
 20
486.9197812732
 30
0.0
 11
773.9297295772
 21
486.9197812732
 31
0.0
  0
LINE
  5
30E
330
1F
100
AcDbEntity
  8
0
  6
Continuous
 62
     8
370
     0
100
AcDbLine
 10
772.2772802078
 20
490.4267323073
 30
0.0
 11
773.6843223535
 21
490.4267323073
 31
0.0
  0
LINE
  5
30F
330
1F
100
AcDbEntity
  8
0
  6
Continuous
 62
     8
370
     0
100
AcDbLine
 10
774.2163385116
 20
462.6967889126
 30
0.0
 11
775.327994939
 21
462.6967889126
 31
0.0
  0
LINE
  5
310
330
1F
100
AcDbEntity
  8
0
  6
Continuous
 62
     8
370
     0
100
AcDbLine
 10
774.1941059791
 20
463.0148989018
 30
0.0
 11
775.3078336679
 21
463.0148989018
 31
0.0
  0
LINE
  5
311
330
1F
100
AcDbEntity
  8
0
  6
Continuous
 62
     8
370
     0
100
AcDbLine
 10
772.9990179502
 20
480.1053908523
 30
0.0
 11
774.2916042768
 21
480.1053908523
 31
0.0
  0
LINE
  5
312
330
1F
100
AcDbEntity
  8
0
  6
Continuous
 62
     8
370
     0
100
AcDbLine
 10
772.6006950103
 20
485.8017173465
 30
0.0
 11
773.892640587
 21
485.8017173465
 31
0.0
  0
LINE
  5
313
330
1F
100
AcDbEntity
  8
0
  6
Continuous
 62
     8
370
     0
100
AcDbLine
 10
772.9873950444
 20
480.2716878112
 30
0.0
 11
774.2735738717
 21
480.2716878112
 31
0.0
  0
LINE
  5
314
330
1F
100
AcDbEntity
  8
0
  6
Continuous
 62
     8
370
     0
100
AcDbLine
 10
772.612317916
 20
485.6354203876
 30
0.0
 11
773.8978708945
 21
485.6354203876
 31
0.0
  0
LINE
  5
315
330
1F
100
AcDbEntity
  8
0
  6
Continuous
 62
     8
370
     0
100
AcDbLine
 10
774.7540767156
 20
455.0068211611
 30
0.0
 11
775.5489046537
 21
455.0068211611
 31
0.0
  0
LINE
  5
316
330
1F
100
AcDbEntity
  8
0
  6
Continuous
 62
     8
370
     0
100
AcDbLine
 10
774.765207883
 20
454.8476395066
 30
0.0
 11
775.5500669442
 21
454.8476395066
 31
0.0
  0
LINE
  5
317
330
1F
100
AcDbEntity
  8
0
  6
Continuous
 62
     8
370
     0
100
AcDbLine
 10
774.8374785148
 20
453.8141210433
 30
0.0
 11
775.6227399074
 21
453.8141210433
 31
0.0
  0
LINE
  5
318
330
1F
100
AcDbEntity
  8
0
  6
CENTERX2
 62
     7
370
     0
100
AcDbLine
 10
644.3669493161
 20
564.2484459859
 30
0.0
 11
644.3669493161
 21
374.7365722822
 31
0.0
  0
CIRCLE
  5
319
330
1F
100
AcDbEntity
  8
0
  6
Continuous
 62
     7
370
    15
100
AcDbCircle
 10
-76.5591620241
 20
55.6311272576
 30
0.0
 40
6.499999999999991
  0
CIRCLE
  5
31A
330
1F
100
AcDbEntity
  8
0
  6
Continuous
 62
     7
370
    15
100
AcDbCircle
 10
-271.5997827932
 20
-56.9756276464
 30
0.0
 40
6.500000000000004
  0
CIRCLE
  5
31B
330
1F
100
AcDbEntity
  8
0
  6
Continuous
 62
     7
370
    15
100
AcDbCircle
 10
36.0475928798
 20
-139.4094935116
 30
0.0
 40
6.499999999999996
  0
CIRCLE
  5
31C
330
1F
100
AcDbEntity
  8
0
  6
Continuous
 62
     7
370
    15
100
AcDbCircle
 10
-158.9930278893
 20
-252.0162484155
 30
0.0
 40
6.499999999999977
  0
CIRCLE
  5
31D
330
1F
100
AcDbEntity
  8
0
  6
Continuous
 62
     7
370
    15
100
AcDbCircle
 10
-76.5591620241
 20
55.6311272576
 30
0.0
 40
8.0
  0
CIRCLE
  5
31E
330
1F
100
AcDbEntity
  8
0
  6
Continuous
 62
     7
370
    15
100
AcDbCircle
 10
-271.5997827932
 20
-56.9756276464
 30
0.0
 40
7.999999999999999
  0
CIRCLE
  5
31F
330
1F
100
AcDbEntity
  8
0
  6
Continuous
 62
     7
370
    15
100
AcDbCircle
 10
36.0475928798
 20
-139.4094935116
 30
0.0
 40
8.000000000000005
  0
CIRCLE
  5
320
330
1F
100
AcDbEntity
  8
0
  6
Continuous
 62
     7
370
    15
100
AcDbCircle
 10
-158.9930278893
 20
-252.0162484155
 30
0.0
 40
7.999999999999995
  0
LINE
  5
321
330
1F
100
AcDbEntity
  8
0
  6
Continuous
 62
     7
370
    15
100
AcDbLine
 10
-73.7200072244
 20
45.0352550491
 30
0.0
 11
-65.9632897213
 21
52.7919651016
 31
0.0
  0
LINE
  5
322
330
1F
100
AcDbEntity
  8
0
  6
Continuous
 62
     7
370
    15
100
AcDbLine
 10
-84.3158802226
 20
47.8744030937
 30
0.0
 11
-73.7200072244
 21
45.0352550491
 31
0.0
  0
LINE
  5
323
330
1F
100
AcDbEntity
  8
0
  6
Continuous
 62
     7
370
    15
100
AcDbLine
 10
-87.1550357178
 20
58.4702760919
 30
0.0
 11
-84.3158802226
 21
47.8744030937
 31
0.0
  0
LINE
  5
324
330
1F
100
AcDbEntity
  8
0
  6
Continuous
 62
     7
370
    15
100
AcDbLine
 10
-65.9632897213
 20
52.7919651016
 30
0.0
 11
-68.8024452165
 21
63.3878380998
 31
0.0
  0
LINE
  5
325
330
1F
100
AcDbEntity
  8
0
  6
Continuous
 62
     7
370
    15
100
AcDbLine
 10
-68.8024452165
 20
63.3878380998
 30
0.0
 11
-79.3983182147
 21
66.2270010455
 31
0.0
  0
LINE
  5
326
330
1F
100
AcDbEntity
  8
0
  6
Continuous
 62
     7
370
    15
100
AcDbLine
 10
-79.3983182147
 20
66.2270010455
 30
0.0
 11
-87.1550357178
 21
58.4702760919
 31
0.0
  0
LINE
  5
327
330
1F
100
AcDbEntity
  8
0
  6
Continuous
 62
     7
370
    15
100
AcDbLine
 10
-263.8430586293
 20
-64.7323458449
 30
0.0
 11
-261.0039105848
 21
-54.1364728467
 31
0.0
  0
LINE
  5
328
330
1F
100
AcDbEntity
  8
0
  6
Continuous
 62
     7
370
    15
100
AcDbLine
 10
-274.4389316276
 20
-67.5715013401
 30
0.0
 11
-263.8430586293
 21
-64.7323458449
 31
0.0
  0
LINE
  5
329
330
1F
100
AcDbEntity
  8
0
  6
Continuous
 62
     7
370
    15
100
AcDbLine
 10
-282.1956565812
 20
-59.814783837
 30
0.0
 11
-274.4389316276
 21
-67.5715013401
 31
0.0
  0
LINE
  5
32A
330
1F
100
AcDbEntity
  8
0
  6
Continuous
 62
     7
370
    15
100
AcDbLine
 10
-279.3564936355
 20
-49.2189108388
 30
0.0
 11
-282.1956565812
 21
-59.814783837
 31
0.0
  0
LINE
  5
32B
330
1F
100
AcDbEntity
  8
0
  6
Continuous
 62
     7
370
    15
100
AcDbLine
 10
-261.0039105848
 20
-54.1364728467
 30
0.0
 11
-268.7606206372
 21
-46.3797553436
 31
0.0
  0
LINE
  5
32C
330
1F
100
AcDbEntity
  8
0
  6
Continuous
 62
     7
370
    15
100
AcDbLine
 10
-268.7606206372
 20
-46.3797553436
 30
0.0
 11
-279.3564936355
 21
-49.2189108388
 31
0.0
  0
LINE
  5
32D
330
1F
100
AcDbEntity
  8
0
  6
Continuous
 62
     7
370
    15
100
AcDbLine
 10
25.4517206713
 20
-142.2486483113
 30
0.0
 11
33.2084307238
 21
-150.0053658144
 31
0.0
  0
LINE
  5
32E
330
1F
100
AcDbEntity
  8
0
  6
Continuous
 62
     7
370
    15
100
AcDbLine
 10
43.8043037221
 20
-147.1662103192
 30
0.0
 11
46.6434666678
 21
-136.570337321
 31
0.0
  0
LINE
  5
32F
330
1F
100
AcDbEntity
  8
0
  6
Continuous
 62
     7
370
    15
100
AcDbLine
 10
33.2084307238
 20
-150.0053658144
 30
0.0
 11
43.8043037221
 21
-147.1662103192
 31
0.0
  0
LINE
  5
330
330
1F
100
AcDbEntity
  8
0
  6
Continuous
 62
     7
370
    15
100
AcDbLine
 10
46.6434666678
 20
-136.570337321
 30
0.0
 11
38.8867417142
 21
-128.8136198179
 31
0.0
  0
LINE
  5
331
330
1F
100
AcDbEntity
  8
0
  6
Continuous
 62
     7
370
    15
100
AcDbLine
 10
38.8867417142
 20
-128.8136198179
 30
0.0
 11
28.2908687159
 21
-131.6527753131
 31
0.0
  0
LINE
  5
332
330
1F
100
AcDbEntity
  8
0
  6
Continuous
 62
     7
370
    15
100
AcDbLine
 10
28.2908687159
 20
-131.6527753131
 30
0.0
 11
25.4517206713
 21
-142.2486483113
 31
0.0
  0
LINE
  5
333
330
1F
100
AcDbEntity
  8
0
  6
Continuous
 62
     7
370
    15
100
AcDbLine
 10
-161.832182689
 20
-241.420376207
 30
0.0
 11
-169.5889001921
 21
-249.1770862595
 31
0.0
  0
LINE
  5
334
330
1F
100
AcDbEntity
  8
0
  6
Continuous
 62
     7
370
    15
100
AcDbLine
 10
-151.2363096908
 20
-244.2595242516
 30
0.0
 11
-161.832182689
 21
-241.420376207
 31
0.0
  0
LINE
  5
335
330
1F
100
AcDbEntity
  8
0
  6
Continuous
 62
     7
370
    15
100
AcDbLine
 10
-148.3971541956
 20
-254.8553972499
 30
0.0
 11
-151.2363096908
 21
-244.2595242516
 31
0.0
  0
LINE
  5
336
330
1F
100
AcDbEntity
  8
0
  6
Continuous
 62
     7
370
    15
100
AcDbLine
 10
-156.1538716987
 20
-262.6121222035
 30
0.0
 11
-148.3971541956
 21
-254.8553972499
 31
0.0
  0
LINE
  5
337
330
1F
100
AcDbEntity
  8
0
  6
Continuous
 62
     7
370
    15
100
AcDbLine
 10
-166.7497446969
 20
-259.7729592578
 30
0.0
 11
-156.1538716987
 21
-262.6121222035
 31
0.0
  0
LINE
  5
338
330
1F
100
AcDbEntity
  8
0
  6
Continuous
 62
     7
370
    15
100
AcDbLine
 10
-169.5889001921
 20
-249.1770862595
 30
0.0
 11
-166.7497446969
 21
-259.7729592578
 31
0.0
  0
CIRCLE
  5
339
330
1F
100
AcDbEntity
  8
0
  6
Continuous
 62
     7
370
    15
100
AcDbCircle
 10
-117.7760949567
 20
-98.192560579
 30
0.0
 40
121.0
  0
CIRCLE
  5
33A
330
1F
100
AcDbEntity
  8
0
  6
Continuous
 62
     7
370
    15
100
AcDbCircle
 10
-117.7760949567
 20
-98.192560579
 30
0.0
 40
127.5
  0
CIRCLE
  5
33B
330
1F
100
AcDbEntity
  8
0
  6
Continuous
 62
     7
370
    15
100
AcDbCircle
 10
-76.5591620241
 20
55.6311272576
 30
0.0
 40
11.99999999999999
  0
CIRCLE
  5
33C
330
1F
100
AcDbEntity
  8
0
  6
Continuous
 62
     7
370
    15
100
AcDbCircle
 10
-271.5997827932
 20
-56.9756276464
 30
0.0
 40
12.00000000000001
  0
CIRCLE
  5
33D
330
1F
100
AcDbEntity
  8
0
  6
Continuous
 62
     7
370
    15
100
AcDbCircle
 10
36.0475928798
 20
-139.4094935116
 30
0.0
 40
12.0
  0
CIRCLE
  5
33E
330
1F
100
AcDbEntity
  8
0
  6
Continuous
 62
     7
370
    15
100
AcDbCircle
 10
-158.9930278893
 20
-252.0162484155
 30
0.0
 40
11.99999999999999
  0
LINE
  5
33F
330
1F
100
AcDbEntity
  8
0
  6
Continuous
 62
     7
370
    15
100
AcDbLine
 10
-69.557446076
 20
39.2611593946
 30
0.0
 11
-74.2745241359
 21
21.6567785486
 31
0.0
  0
LINE
  5
340
330
1F
100
AcDbEntity
  8
0
  6
Continuous
 62
     7
370
    15
100
AcDbLine
 10
-90.8078132406
 20
44.9551762088
 30
0.0
 11
-69.557446076
 21
39.2611593946
 31
0.0
  0
LINE
  5
341
330
1F
100
AcDbEntity
  8
0
  6
Continuous
 62
     7
370
    15
100
AcDbLine
 10
-95.5248931632
 20
27.3507953628
 30
0.0
 11
-90.8078132406
 21
44.9551762088
 31
0.0
  0
LINE
  5
342
330
1F
100
AcDbEntity
  8
0
  6
Continuous
 62
     7
370
    15
100
AcDbLine
 10
-56.2514914408
 20
69.6011305793
 30
0.0
 11
-69.5827184454
 21
19.8483140214
 31
0.0
  0
LINE
  5
343
330
1F
100
AcDbEntity
  8
0
  6
Continuous
 62
     7
370
    15
100
AcDbLine
 10
-66.3556372956
 20
63.7675047859
 30
0.0
 11
-66.7020036116
 21
62.4748439535
 31
0.0
  0
LINE
  5
344
330
1F
100
AcDbEntity
  8
0
  6
Continuous
 62
     7
370
    15
100
AcDbLine
 10
-81.3274858728
 20
67.7791954025
 30
0.0
 11
-79.4530837074
 21
67.2769517644
 31
0.0
  0
LINE
  5
345
330
1F
100
AcDbEntity
  8
0
  6
Continuous
 62
     7
370
    15
100
AcDbLine
 10
-68.230039461
 20
64.2697484239
 30
0.0
 11
-66.3556372956
 21
63.7675047859
 31
0.0
  0
LINE
  5
346
330
1F
100
AcDbEntity
  8
0
  6
Continuous
 62
     7
370
    15
100
AcDbLine
 10
-81.6738559142
 20
66.4865345701
 30
0.0
 11
-81.3274858728
 21
67.7791954025
 31
0.0
  0
LINE
  5
347
330
1F
100
AcDbEntity
  8
0
  6
Continuous
 62
     7
370
    15
100
AcDbLine
 10
-87.1611172542
 20
77.8833449825
 30
0.0
 11
-56.2514914408
 21
69.6011305793
 31
0.0
  0
LINE
  5
348
330
1F
100
AcDbEntity
  8
0
  6
Continuous
 62
     7
370
    15
100
AcDbLine
 10
-100.4923442587
 20
28.1305284246
 30
0.0
 11
-87.1611172542
 21
77.8833449825
 31
0.0
  0
LINE
  5
349
330
1F
100
AcDbEntity
  8
0
  6
Continuous
 62
     7
370
    15
100
AcDbLine
 10
-255.2298149303
 20
-49.9739116983
 30
0.0
 11
-237.6254340842
 21
-54.6909897582
 31
0.0
  0
LINE
  5
34A
330
1F
100
AcDbEntity
  8
0
  6
Continuous
 62
     7
370
    15
100
AcDbLine
 10
-260.9238317445
 20
-71.2242788629
 30
0.0
 11
-255.2298149303
 21
-49.9739116983
 31
0.0
  0
LINE
  5
34B
330
1F
100
AcDbEntity
  8
0
  6
Continuous
 62
     7
370
    15
100
AcDbLine
 10
-243.3194508985
 20
-75.9413587854
 30
0.0
 11
-260.9238317445
 21
-71.2242788629
 31
0.0
  0
LINE
  5
34C
330
1F
100
AcDbEntity
  8
0
  6
Continuous
 62
     7
370
    15
100
AcDbLine
 10
-244.0991839603
 20
-80.908809881
 30
0.0
 11
-293.8520005182
 21
-67.5775828765
 31
0.0
  0
LINE
  5
34D
330
1F
100
AcDbEntity
  8
0
  6
Continuous
 62
     7
370
    15
100
AcDbLine
 10
-293.8520005182
 20
-67.5775828765
 30
0.0
 11
-285.569786115
 21
-36.6679570631
 31
0.0
  0
LINE
  5
34E
330
1F
100
AcDbEntity
  8
0
  6
Continuous
 62
     7
370
    15
100
AcDbLine
 10
-285.569786115
 20
-36.6679570631
 30
0.0
 11
-235.8169695571
 21
-49.9991840676
 31
0.0
  0
LINE
  5
34F
330
1F
100
AcDbEntity
  8
0
  6
Continuous
 62
     7
370
    15
100
AcDbLine
 10
-279.7361603215
 20
-46.7721029178
 30
0.0
 11
-278.4434994891
 21
-47.1184692339
 31
0.0
  0
LINE
  5
350
330
1F
100
AcDbEntity
  8
0
  6
Continuous
 62
     7
370
    15
100
AcDbLine
 10
-283.7478509382
 20
-61.7439514951
 30
0.0
 11
-283.2456073001
 21
-59.8695493297
 31
0.0
  0
LINE
  5
351
330
1F
100
AcDbEntity
  8
0
  6
Continuous
 62
     7
370
    15
100
AcDbLine
 10
-280.2384039596
 20
-48.6465050832
 30
0.0
 11
-279.7361603215
 21
-46.7721029178
 31
0.0
  0
LINE
  5
352
330
1F
100
AcDbEntity
  8
0
  6
Continuous
 62
     7
370
    15
100
AcDbLine
 10
-282.4551901057
 20
-62.0903215365
 30
0.0
 11
-283.7478509382
 21
-61.7439514951
 31
0.0
  0
LINE
  5
353
330
1F
100
AcDbEntity
  8
0
  6
Continuous
 62
     7
370
    15
100
AcDbLine
 10
58.2998106047
 20
-128.8075382815
 30
0.0
 11
50.0175962016
 21
-159.7171640948
 31
0.0
  0
LINE
  5
354
330
1F
100
AcDbEntity
  8
0
  6
Continuous
 62
     7
370
    15
100
AcDbLine
 10
50.0175962016
 20
-159.7171640948
 30
0.0
 11
0.2647796437
 21
-146.3859370903
 31
0.0
  0
LINE
  5
355
330
1F
100
AcDbEntity
  8
0
  6
Continuous
 62
     7
370
    15
100
AcDbLine
 10
19.6776250169
 20
-146.4112094597
 30
0.0
 11
2.0732441708
 21
-141.6941313998
 31
0.0
  0
LINE
  5
356
330
1F
100
AcDbEntity
  8
0
  6
Continuous
 62
     7
370
    15
100
AcDbLine
 10
25.3716418311
 20
-125.1608422951
 30
0.0
 11
19.6776250169
 21
-146.4112094597
 31
0.0
  0
LINE
  5
357
330
1F
100
AcDbEntity
  8
0
  6
Continuous
 62
     7
370
    15
100
AcDbLine
 10
7.7672609851
 20
-120.4437623725
 30
0.0
 11
25.3716418311
 21
-125.1608422951
 31
0.0
  0
LINE
  5
358
330
1F
100
AcDbEntity
  8
0
  6
Continuous
 62
     7
370
    15
100
AcDbLine
 10
44.1839704081
 20
-149.6130182401
 30
0.0
 11
42.8913095757
 21
-149.2666519241
 31
0.0
  0
LINE
  5
359
330
1F
100
AcDbEntity
  8
0
  6
Continuous
 62
     7
370
    15
100
AcDbLine
 10
48.1956610247
 20
-134.6411696629
 30
0.0
 11
47.6934173867
 21
-136.5155718283
 31
0.0
  0
LINE
  5
35A
330
1F
100
AcDbEntity
  8
0
  6
Continuous
 62
     7
370
    15
100
AcDbLine
 10
44.6862140462
 20
-147.7386160747
 30
0.0
 11
44.1839704081
 21
-149.6130182401
 31
0.0
  0
LINE
  5
35B
330
1F
100
AcDbEntity
  8
0
  6
Continuous
 62
     7
370
    15
100
AcDbLine
 10
46.9030001923
 20
-134.2947996215
 30
0.0
 11
48.1956610247
 21
-134.6411696629
 31
0.0
  0
LINE
  5
35C
330
1F
100
AcDbEntity
  8
0
  6
Continuous
 62
     7
370
    15
100
AcDbLine
 10
8.5469940469
 20
-115.476311277
 30
0.0
 11
58.2998106047
 21
-128.8075382815
 31
0.0
  0
LINE
  5
35D
330
1F
100
AcDbEntity
  8
0
  6
Continuous
 62
     7
370
    15
100
AcDbLine
 10
-135.0598456547
 20
-224.5156495825
 30
0.0
 11
-148.3910726592
 21
-274.2684661404
 31
0.0
  0
LINE
  5
35E
330
1F
100
AcDbEntity
  8
0
  6
Continuous
 62
     7
370
    15
100
AcDbLine
 10
-148.3910726592
 20
-274.2684661404
 30
0.0
 11
-179.3006984726
 21
-265.9862517373
 31
0.0
  0
LINE
  5
35F
330
1F
100
AcDbEntity
  8
0
  6
Continuous
 62
     7
370
    15
100
AcDbLine
 10
-144.7443766728
 20
-241.3402973668
 30
0.0
 11
-165.9947438374
 21
-235.6462805525
 31
0.0
  0
LINE
  5
360
330
1F
100
AcDbEntity
  8
0
  6
Continuous
 62
     7
370
    15
100
AcDbLine
 10
-140.0272967503
 20
-223.7359165208
 30
0.0
 11
-144.7443766728
 21
-241.3402973668
 31
0.0
  0
LINE
  5
361
330
1F
100
AcDbEntity
  8
0
  6
Continuous
 62
     7
370
    15
100
AcDbLine
 10
-169.1965526179
 20
-260.1526259438
 30
0.0
 11
-168.8501863018
 21
-258.8599651114
 31
0.0
  0
LINE
  5
362
330
1F
100
AcDbEntity
  8
0
  6
Continuous
 62
     7
370
    15
100
AcDbLine
 10
-154.2247040406
 20
-264.1643165604
 30
0.0
 11
-156.099106206
 21
-263.6620729224
 31
0.0
  0
LINE
  5
363
330
1F
100
AcDbEntity
  8
0
  6
Continuous
 62
     7
370
    15
100
AcDbLine
 10
-167.3221504524
 20
-260.6548695819
 30
0.0
 11
-169.1965526179
 21
-260.1526259438
 31
0.0
  0
LINE
  5
364
330
1F
100
AcDbEntity
  8
0
  6
Continuous
 62
     7
370
    15
100
AcDbLine
 10
-153.8783339992
 20
-262.871655728
 30
0.0
 11
-154.2247040406
 21
-264.1643165604
 31
0.0
  0
LINE
  5
365
330
1F
100
AcDbEntity
  8
0
  6
Continuous
 62
     7
370
    15
100
AcDbLine
 10
-179.3006984726
 20
-265.9862517373
 30
0.0
 11
-165.969471468
 21
-216.2334351794
 31
0.0
  0
LINE
  5
366
330
1F
100
AcDbEntity
  8
0
  6
Continuous
 62
     7
370
    15
100
AcDbLine
 10
-165.9947438374
 20
-235.6462805525
 30
0.0
 11
-161.2776657775
 21
-218.0418997065
 31
0.0
  0
ARC
  5
367
330
1F
100
AcDbEntity
  8
0
  6
Continuous
 62
     7
370
    15
100
AcDbCircle
 10
-117.7760949567
 20
-98.192560579
 30
0.0
 40
149.9867192015897
100
AcDbArc
 50
81.123743128
 51
158.876256872
  0
ARC
  5
368
330
1F
100
AcDbEntity
  8
0
  6
Continuous
 62
     7
370
    15
100
AcDbCircle
 10
-117.7760949567
 20
-98.192560579
 30
0.0
 40
149.9867192015897
100
AcDbArc
 50
351.123743128
 51
68.876256872
  0
ARC
  5
369
330
1F
100
AcDbEntity
  8
0
  6
Continuous
 62
     7
370
    15
100
AcDbCircle
 10
-117.7760949567
 20
-98.192560579
 30
0.0
 40
149.9867192015897
100
AcDbArc
 50
171.123743128
 51
248.876256872
  0
ARC
  5
36A
330
1F
100
AcDbEntity
  8
0
  6
Continuous
 62
     7
370
    15
100
AcDbCircle
 10
-117.7760949567
 20
-98.192560579
 30
0.0
 40
149.9867192015897
100
AcDbArc
 50
261.123743128
 51
338.876256872
  0
CIRCLE
  5
36B
330
1F
100
AcDbEntity
  8
0
  6
Continuous
 62
     7
370
    15
100
AcDbCircle
 10
-117.7760949567
 20
-98.192560579
 30
0.0
 40
100.0
  0
SPLINE
  5
36C
330
1F
100
AcDbEntity
  8
0
  6
Continuous
 62
     7
370
    15
100
AcDbSpline
210
0.0
220
0.0
230
1.0
 70
     8
 71
     3
 72
    44
 73
    40
 74
     0
 42
0.00000001
 43
0.00000001
 12
1.0
 22
0.0
 32
0.0
 13
1.0
 23
0.0
 33
0.0
 40
0.0
 40
0.0
 40
0.0
 40
0.0
 40
0.0186486066841643
 40
0.0463709041054694
 40
0.073994685035803
 40
0.1016204536559647
 40
0.129345001115925
 40
0.1570696224380783
 40
0.1846954648602502
 40
0.212319202883656
 40
0.2400416404651751
 40
0.2677639733312197
 40
0.29538767417773
 40
0.3230067661745685
 40
0.3507247872152208
 40
0.3784426631948943
 40
0.4060618540791406
 40
0.4336768499068976
 40
0.4613906213494077
 40
0.4891043380324489
 40
0.5167194961328411
 40
0.5443321766784047
 40
0.5720435431887929
 40
0.5997549225432636
 40
0.6273675687550565
 40
0.6549807229532818
 40
0.6826922188277431
 40
0.7104039207375294
 40
0.7380171057103609
 40
0.7656329917065964
 40
0.7933473594429225
 40
0.821062062143201
 40
0.8486778757169529
 40
0.8762981304972797
 40
0.904017063181274
 40
0.9317360528070915
 40
0.9593562958029739
 40
0.9851363774986192
 40
1.0
 40
1.0
 40
1.0
 40
1.0
 10
-3.922923488925256
 20
-0.5712836043040986
 30
0.0
 10
-3.776299780248835
 20
-0.41007741238272
 30
0.0
 10
-3.411710937244558
 20
-0.0092283305507396
 30
0.0
 10
-2.900831678237667
 20
0.6900880262603881
 30
0.0
 10
-2.386476103396068
 20
1.512337418988569
 30
0.0
 10
-1.947475398062212
 20
2.37788197423594
 30
0.0
 10
-1.581471736178897
 20
3.277697015696732
 30
0.0
 10
-1.291654540354584
 20
4.204958352626783
 30
0.0
 10
-1.080769587964547
 20
5.152136434230361
 30
0.0
 10
-0.952466032634991
 20
6.113983785286117
 30
0.0
 10
-0.9051548453097302
 20
7.084274278002289
 30
0.0
 10
-0.938618652388562
 20
8.055155965829202
 30
0.0
 10
-1.053205391710402
 20
9.018693568362005
 30
0.0
 10
-1.250533935008735
 20
9.968706003568473
 30
0.0
 10
-1.527077305274072
 20
10.89984725587689
 30
0.0
 10
-1.880015932637799
 20
11.80480944674793
 30
0.0
 10
-2.307041686096758
 20
12.67600077333952
 30
0.0
 10
-2.807662006703376
 20
13.50703949352357
 30
0.0
 10
-3.376766103040399
 20
14.29405799364417
 30
0.0
 10
-4.009272767436678
 20
15.03109438414968
 30
0.0
 10
-4.700512510580499
 20
15.71175968396527
 30
0.0
 10
-5.447896353363096
 20
16.33020911342245
 30
0.0
 10
-6.245345184279078
 20
16.88445663697412
 30
0.0
 10
-7.086053381764532
 20
17.37057703015588
 30
0.0
 10
-7.963550747374343
 20
17.78407649444754
 30
0.0
 10
-8.873449804337449
 20
18.12030765387941
 30
0.0
 10
-9.80936781885132
 20
18.37939816383405
 30
0.0
 10
-10.76355409990472
 20
18.55988690906188
 30
0.0
 10
-11.72844640615503
 20
18.65967703035462
 30
0.0
 10
-12.69836807275231
 20
18.67583720374295
 30
0.0
 10
-13.66733714504209
 20
18.61057575619579
 30
0.0
 10
-14.62752980773018
 20
18.46509369766597
 30
0.0
 10
-15.57112344535785
 20
18.23990506135929
 30
0.0
 10
-16.49183862160178
 20
17.93414464935369
 30
0.0
 10
-17.38455480266698
 20
17.55167506067994
 30
0.0
 10
-18.24309143198938
 20
17.09712300588974
 30
0.0
 10
-19.03899674676042
 20
16.58175439006722
 30
0.0
 10
-19.6777163156468
 20
16.10193119253812
 30
0.0
 10
-20.02678803632074
 20
15.77996499458838
 30
0.0
 10
-20.15444545299844
 20
15.66222021420786
 30
0.0
  0
SPLINE
  5
36D
330
1F
100
AcDbEntity
  8
0
  6
Continuous
 62
     7
370
    15
100
AcDbSpline
210
0.0
220
0.0
230
1.0
 70
     8
 71
     3
 72
    44
 73
    40
 74
     0
 42
0.00000001
 43
0.00000001
 12
1.0
 22
0.0
 32
0.0
 13
1.0
 23
0.0
 33
0.0
 40
0.0
 40
0.0
 40
0.0
 40
0.0
 40
0.0186486066841643
 40
0.0463709041054694
 40
0.073994685035803
 40
0.1016204536559647
 40
0.129345001115925
 40
0.1570696224380783
 40
0.1846954648602502
 40
0.212319202883656
 40
0.2400416404651751
 40
0.2677639733312197
 40
0.29538767417773
 40
0.3230067661745685
 40
0.3507247872152208
 40
0.3784426631948943
 40
0.4060618540791406
 40
0.4336768499068976
 40
0.4613906213494077
 40
0.4891043380324489
 40
0.5167194961328411
 40
0.5443321766784047
 40
0.5720435431887929
 40
0.5997549225432636
 40
0.6273675687550565
 40
0.6549807229532818
 40
0.6826922188277431
 40
0.7104039207375294
 40
0.7380171057103609
 40
0.7656329917065964
 40
0.7933473594429225
 40
0.821062062143201
 40
0.8486778757169529
 40
0.8762981304972797
 40
0.904017063181274
 40
0.9317360528070915
 40
0.9593562958029739
 40
0.9851363774986192
 40
1.0
 40
1.0
 40
1.0
 40
1.0
 10
-20.15481798202828
 20
-212.0457320467632
 30
0.0
 10
-19.9936117901069
 20
-212.1923557554396
 30
0.0
 10
-19.59276270827493
 20
-212.5569445984439
 30
0.0
 10
-18.8934463514638
 20
-213.0678238574508
 30
0.0
 10
-18.07119695873562
 20
-213.5821794322924
 30
0.0
 10
-17.20565240348824
 20
-214.0211801376263
 30
0.0
 10
-16.30583736202745
 20
-214.3871837995096
 30
0.0
 10
-15.3785760250974
 20
-214.6770009953339
 30
0.0
 10
-14.43139794349382
 20
-214.8878859477239
 30
0.0
 10
-13.46955059243807
 20
-215.0161895030535
 30
0.0
 10
-12.4992600997219
 20
-215.0635006903787
 30
0.0
 10
-11.52837841189498
 20
-215.0300368832999
 30
0.0
 10
-10.56484080936218
 20
-214.9154501439781
 30
0.0
 10
-9.614828374155712
 20
-214.7181216006797
 30
0.0
 10
-8.683687121847292
 20
-214.4415782304144
 30
0.0
 10
-7.778724930976255
 20
-214.0886396030507
 30
0.0
 10
-6.90753360438466
 20
-213.6616138495917
 30
0.0
 10
-6.076494884200617
 20
-213.1609935289851
 30
0.0
 10
-5.289476384080019
 20
-212.5918894326481
 30
0.0
 10
-4.552439993574506
 20
-211.9593827682518
 30
0.0
 10
-3.87177469375892
 20
-211.268143025108
 30
0.0
 10
-3.253325264301735
 20
-210.5207591823254
 30
0.0
 10
-2.699077740750067
 20
-209.7233103514094
 30
0.0
 10
-2.212957347568309
 20
-208.8826021539239
 30
0.0
 10
-1.799457883276651
 20
-208.0051047883141
 30
0.0
 10
-1.463226723844774
 20
-207.095205731351
 30
0.0
 10
-1.204136213890136
 20
-206.1592877168372
 30
0.0
 10
-1.023647468662306
 20
-205.2051014357837
 30
0.0
 10
-0.9238573473695638
 20
-204.2402091295334
 30
0.0
 10
-0.9076971739812312
 20
-203.2702874629362
 30
0.0
 10
-0.9729586215283942
 20
-202.3013183906463
 30
0.0
 10
-1.118440680058217
 20
-201.3411257279583
 30
0.0
 10
-1.343629316364892
 20
-200.3975320903306
 30
0.0
 10
-1.64938972837049
 20
-199.4768169140867
 30
0.0
 10
-2.031859317044249
 20
-198.5841007330215
 30
0.0
 10
-2.486411371834446
 20
-197.7255641036991
 30
0.0
 10
-3.001779987656966
 20
-196.929658788928
 30
0.0
 10
-3.481603185186061
 20
-196.2909392200417
 30
0.0
 10
-3.803569383135808
 20
-195.9418674993677
 30
0.0
 10
-3.921314163516321
 20
-195.81421008269
 30
0.0
  0
SPLINE
  5
36E
330
1F
100
AcDbEntity
  8
0
  6
Continuous
 62
     7
370
    15
100
AcDbSpline
210
0.0
220
0.0
230
1.0
 70
     8
 71
     3
 72
    41
 73
    37
 74
     0
 42
0.00000001
 43
0.00000001
 12
1.0
 22
0.0
 32
0.0
 13
1.0
 23
0.0
 33
0.0
 40
0.0
 40
0.0
 40
0.0
 40
0.0
 40
0.0044101971235221
 40
0.0346664122806717
 40
0.0650309066771493
 40
0.0953957344536901
 40
0.1256519548827557
 40
0.1559056769881509
 40
0.1862677832956297
 40
0.2166298624409629
 40
0.2468832621899451
 40
0.2771327967108121
 40
0.3074897934541945
 40
0.3378470309751311
 40
0.3680962675992993
 40
0.3983406949091069
 40
0.4286930883705493
 40
0.4590456684507957
 40
0.4892899710493575
 40
0.5195311074773512
 40
0.5498804970034551
 40
0.5802296509392629
 40
0.6104709641489192
 40
0.6407117062840098
 40
0.6710607463133034
 40
0.7014096004057784
 40
0.7316505126430437
 40
0.7618937527438712
 40
0.7922451926985855
 40
0.8225967102622032
 40
0.8528399563383221
 40
0.8830877476822225
 40
0.9134437885865736
 40
0.943800060867947
 40
0.974047662804398
 40
1.0
 40
1.0
 40
1.0
 40
1.0
 10
-33.20689408333138
 20
25.66339531977961
 30
0.0
 10
-33.18944777108199
 20
25.70708130783797
 30
0.0
 10
-33.05231080502896
 20
26.05047558943234
 30
0.0
 10
-32.87002500802644
 20
26.72202435573164
 30
0.0
 10
-32.66620968037705
 20
27.67090191545299
 30
0.0
 10
-32.54956743918348
 20
28.63578648872933
 30
0.0
 10
-32.51219762989457
 20
29.60532008737743
 30
0.0
 10
-32.5592196151572
 20
30.57461146135682
 30
0.0
 10
-32.68732028131452
 20
31.53757544342162
 30
0.0
 10
-32.89498742123587
 20
32.48659854551261
 30
0.0
 10
-33.18114960390648
 20
33.4137926157507
 30
0.0
 10
-33.54626707921256
 20
34.31278679264635
 30
0.0
 10
-33.98591759126035
 20
35.17896365234549
 30
0.0
 10
-34.4959985605042
 20
36.00563707060264
 30
0.0
 10
-35.0728915129965
 20
36.78575111744905
 30
0.0
 10
-35.71495055192124
 20
37.51311589809659
 30
0.0
 10
-36.41644591195241
 20
38.18485672977378
 30
0.0
 10
-37.17131742787319
 20
38.79600943286349
 30
0.0
 10
-37.97380963508325
 20
39.34114127957608
 30
0.0
 10
-38.82033901352397
 20
39.81494103182029
 30
0.0
 10
-39.70454700151774
 20
40.21658674076922
 30
0.0
 10
-40.61905095315764
 20
40.54342518155279
 30
0.0
 10
-41.55666197183433
 20
40.79219708836771
 30
0.0
 10
-42.51223383976796
 20
40.95912763804693
 30
0.0
 10
-43.47950236086656
 20
41.04551036130463
 30
0.0
 10
-44.45059433958491
 20
41.05127485337295
 30
0.0
 10
-45.41768013701204
 20
40.97573377393962
 30
0.0
 10
-46.37464911125305
 20
40.81700088834398
 30
0.0
 10
-47.31603173883503
 20
40.57839947201228
 30
0.0
 10
-48.23431708704589
 20
40.26241889227175
 30
0.0
 10
-49.12198123741715
 20
39.87110196066182
 30
0.0
 10
-49.97245086741204
 20
39.40448332033755
 30
0.0
 10
-50.78223380899156
 20
38.86800755423295
 30
0.0
 10
-51.54294902089222
 20
38.2647251472302
 30
0.0
 10
-52.22223378120358
 20
37.63695068770279
 30
0.0
 10
-52.6155735452777
 20
37.18425193894373
 30
0.0
 10
-52.7972122863038
 20
36.97520205815621
 30
0.0
  0
SPLINE
  5
36F
330
1F
100
AcDbEntity
  8
0
  6
Continuous
 62
     7
370
    15
100
AcDbSpline
210
0.0
220
0.0
230
1.0
 70
     8
 71
     3
 72
    41
 73
    37
 74
     0
 42
0.00000001
 43
0.00000001
 12
1.0
 22
0.0
 32
0.0
 13
1.0
 23
0.0
 33
0.0
 40
0.0
 40
0.0
 40
0.0
 40
0.0
 40
0.0044101971235221
 40
0.0346664122806717
 40
0.0650309066771493
 40
0.0953957344536901
 40
0.1256519548827557
 40
0.1559056769881509
 40
0.1862677832956297
 40
0.2166298624409629
 40
0.2468832621899451
 40
0.2771327967108121
 40
0.3074897934541945
 40
0.3378470309751311
 40
0.3680962675992993
 40
0.3983406949091069
 40
0.4286930883705493
 40
0.4590456684507957
 40
0.4892899710493575
 40
0.5195311074773512
 40
0.5498804970034551
 40
0.5802296509392629
 40
0.6104709641489192
 40
0.6407117062840098
 40
0.6710607463133034
 40
0.7014096004057784
 40
0.7316505126430437
 40
0.7618937527438712
 40
0.7922451926985855
 40
0.8225967102622032
 40
0.8528399563383221
 40
0.8830877476822225
 40
0.9134437885865736
 40
0.943800060867947
 40
0.974047662804398
 40
1.0
 40
1.0
 40
1.0
 40
1.0
 10
-202.3452958300813
 20
-222.0485164777439
 30
0.0
 10
-202.3627421423307
 20
-222.0922024658022
 30
0.0
 10
-202.4998791083837
 20
-222.4355967473966
 30
0.0
 10
-202.6821649053862
 20
-223.1071455136959
 30
0.0
 10
-202.8859802330356
 20
-224.0560230734173
 30
0.0
 10
-203.0026224742292
 20
-225.0209076466936
 30
0.0
 10
-203.0399922835181
 20
-225.9904412453417
 30
0.0
 10
-202.9929702982554
 20
-226.9597326193211
 30
0.0
 10
-202.8648696320981
 20
-227.9226966013859
 30
0.0
 10
-202.6572024921768
 20
-228.8717197034769
 30
0.0
 10
-202.3710403095062
 20
-229.798913773715
 30
0.0
 10
-202.0059228342001
 20
-230.6979079506106
 30
0.0
 10
-201.5662723221523
 20
-231.5640848103098
 30
0.0
 10
-201.0561913529085
 20
-232.3907582285669
 30
0.0
 10
-200.4792984004162
 20
-233.1708722754134
 30
0.0
 10
-199.8372393614914
 20
-233.8982370560609
 30
0.0
 10
-199.1357440014602
 20
-234.5699778877381
 30
0.0
 10
-198.3808724855394
 20
-235.1811305908278
 30
0.0
 10
-197.5783802783294
 20
-235.7262624375404
 30
0.0
 10
-196.7318508998887
 20
-236.2000621897846
 30
0.0
 10
-195.8476429118949
 20
-236.6017078987335
 30
0.0
 10
-194.933138960255
 20
-236.9285463395171
 30
0.0
 10
-193.9955279415783
 20
-237.177318246332
 30
0.0
 10
-193.0399560736447
 20
-237.3442487960112
 30
0.0
 10
-192.0726875525461
 20
-237.4306315192689
 30
0.0
 10
-191.1015955738277
 20
-237.4363960113373
 30
0.0
 10
-190.1345097764006
 20
-237.3608549319039
 30
0.0
 10
-189.1775408021596
 20
-237.2021220463083
 30
0.0
 10
-188.2361581745776
 20
-236.9635206299766
 30
0.0
 10
-187.3178728263667
 20
-236.647540050236
 30
0.0
 10
-186.4302086759955
 20
-236.2562231186261
 30
0.0
 10
-185.5797390460006
 20
-235.7896044783019
 30
0.0
 10
-184.7699561044211
 20
-235.2531287121973
 30
0.0
 10
-184.0092408925204
 20
-234.6498463051945
 30
0.0
 10
-183.3299561322091
 20
-234.0220718456671
 30
0.0
 10
-182.936616368135
 20
-233.569373096908
 30
0.0
 10
-182.7549776271088
 20
-233.3603232161205
 30
0.0
  0
SPLINE
  5
370
330
1F
100
AcDbEntity
  8
0
  6
Continuous
 62
     7
370
    15
100
AcDbSpline
210
0.0
220
0.0
230
1.0
 70
     8
 71
     3
 72
    41
 73
    37
 74
     0
 42
0.00000001
 43
0.00000001
 12
1.0
 22
0.0
 32
0.0
 13
1.0
 23
0.0
 33
0.0
 40
0.0
 40
0.0
 40
0.0
 40
0.0
 40
0.0107625149757188
 40
0.0411361505572121
 40
0.0714018496363936
 40
0.1016662262364145
 40
0.1320389348911339
 40
0.1624115173179062
 40
0.1926761563221898
 40
0.2229366143298565
 40
0.2533053894602971
 40
0.2836740198712663
 40
0.3139345521178999
 40
0.3441901145920783
 40
0.3745536306304853
 40
0.4049173739650734
 40
0.435172861634572
 40
0.4654242352671698
 40
0.4957839141615206
 40
0.526143660042147
 40
0.5563952085399365
 40
0.5866447076816601
 40
0.6170028185046479
 40
0.6473604910209434
 40
0.6776102523167985
 40
0.7078612956022894
 40
0.7382203704777546
 40
0.7685796490755187
 40
0.7988307217569203
 40
0.829085522599007
 40
0.8594487586986383
 40
0.8898117347321344
 40
0.9200665973423955
 40
0.9503260517058191
 40
0.9806942072286937
 40
1.0
 40
1.0
 40
1.0
 40
1.0
 10
-182.7597832515939
 20
36.97338411649056
 30
0.0
 10
-182.8320932880332
 20
37.06252116222247
 30
0.0
 10
-183.1084744640389
 20
37.40321801065654
 30
0.0
 10
-183.6511397584705
 20
37.93992103626604
 30
0.0
 10
-184.3821795128612
 20
38.57703536928295
 30
0.0
 10
-185.1694339190363
 20
39.14487787059726
 30
0.0
 10
-186.0013858375194
 20
39.64631607546912
 30
0.0
 10
-186.8724230596133
 20
40.07663010697665
 30
0.0
 10
-187.7753354719932
 20
40.43211003260436
 30
0.0
 10
-188.705570069357
 20
40.70825510172227
 30
0.0
 10
-189.6567009858862
 20
40.90572132903647
 30
0.0
 10
-190.6209673580178
 20
41.02346887899083
 30
0.0
 10
-191.5905772970843
 20
41.05996480904983
 30
0.0
 10
-192.5596749229734
 20
41.01260778948157
 30
0.0
 10
-193.5224354365492
 20
40.88408212550706
 30
0.0
 10
-194.4712015834479
 20
40.67603158933078
 30
0.0
 10
-195.3981217908676
 20
40.38954679727411
 30
0.0
 10
-196.2968208787529
 20
40.02414288852086
 30
0.0
 10
-197.1626739377582
 20
39.58423404212025
 30
0.0
 10
-197.9890049842687
 20
39.07393781990662
 30
0.0
 10
-198.768774489317
 20
38.49685741273232
 30
0.0
 10
-199.4958197059459
 20
37.85465422815953
 30
0.0
 10
-200.1672352989736
 20
37.15302390841299
 30
0.0
 10
-200.7780587100688
 20
36.39806229241885
 30
0.0
 10
-201.3228873115768
 20
35.59549009079122
 30
0.0
 10
-201.7963956352557
 20
34.74887551843797
 30
0.0
 10
-202.1977843373098
 20
33.86458257578207
 30
0.0
 10
-202.5243286482428
 20
32.95001677363673
 30
0.0
 10
-202.7728337254106
 20
32.01233551568581
 30
0.0
 10
-202.9394866105
 20
31.05668606278708
 30
0.0
 10
-203.025620670026
 20
30.08929745440964
 30
0.0
 10
-203.0309076351877
 20
29.11819519902387
 30
0.0
 10
-202.9557359963062
 20
28.15080476978868
 30
0.0
 10
-202.7941905074863
 20
27.19463972577896
 30
0.0
 10
-202.5924616131893
 20
26.3647637083842
 30
0.0
 10
-202.4128781620747
 20
25.86628569237125
 30
0.0
 10
-202.343083007644
 20
25.67255208333323
 30
0.0
  0
SPLINE
  5
371
330
1F
100
AcDbEntity
  8
0
  6
Continuous
 62
     7
370
    15
100
AcDbSpline
210
0.0
220
0.0
230
1.0
 70
     8
 71
     3
 72
    41
 73
    37
 74
     0
 42
0.00000001
 43
0.00000001
 12
1.0
 22
0.0
 32
0.0
 13
1.0
 23
0.0
 33
0.0
 40
0.0
 40
0.0
 40
0.0
 40
0.0
 40
0.0044101971235221
 40
0.0346664122806717
 40
0.0650309066771493
 40
0.0953957344536901
 40
0.1256519548827557
 40
0.1559056769881509
 40
0.1862677832956297
 40
0.2166298624409629
 40
0.2468832621899451
 40
0.2771327967108121
 40
0.3074897934541945
 40
0.3378470309751311
 40
0.3680962675992993
 40
0.3983406949091069
 40
0.4286930883705493
 40
0.4590456684507957
 40
0.4892899710493575
 40
0.5195311074773512
 40
0.5498804970034551
 40
0.5802296509392629
 40
0.6104709641489192
 40
0.6407117062840098
 40
0.6710607463133034
 40
0.7014096004057784
 40
0.7316505126430437
 40
0.7618937527438712
 40
0.7922451926985855
 40
0.8225967102622032
 40
0.8528399563383221
 40
0.8830877476822225
 40
0.9134437885865736
 40
0.943800060867947
 40
0.974047662804398
 40
1.0
 40
1.0
 40
1.0
 40
1.0
 10
6.079860942055426
 20
-182.7617614523571
 30
0.0
 10
6.123546930113785
 20
-182.7792077646065
 30
0.0
 10
6.466941211708155
 20
-182.9163447306595
 30
0.0
 10
7.138489978007451
 20
-183.098630527662
 30
0.0
 10
8.087367537728818
 20
-183.3024458553114
 30
0.0
 10
9.05225211100516
 20
-183.419088096505
 30
0.0
 10
10.02178570965326
 20
-183.4564579057939
 30
0.0
 10
10.99107708363264
 20
-183.4094359205313
 30
0.0
 10
11.95404106569745
 20
-183.2813352543739
 30
0.0
 10
12.90306416778844
 20
-183.0736681144526
 30
0.0
 10
13.83025823802653
 20
-182.787505931782
 30
0.0
 10
14.72925241492218
 20
-182.4223884564759
 30
0.0
 10
15.59542927462132
 20
-181.9827379444281
 30
0.0
 10
16.42210269287847
 20
-181.4726569751843
 30
0.0
 10
17.20221673972489
 20
-180.895764022692
 30
0.0
 10
17.92958152037241
 20
-180.2537049837672
 30
0.0
 10
18.60132235204961
 20
-179.552209623736
 30
0.0
 10
19.21247505513931
 20
-178.7973381078153
 30
0.0
 10
19.75760690185191
 20
-177.9948459006052
 30
0.0
 10
20.23140665409612
 20
-177.1483165221645
 30
0.0
 10
20.63305236304505
 20
-176.2641085341707
 30
0.0
 10
20.95989080382862
 20
-175.3496045825308
 30
0.0
 10
21.20866271064353
 20
-174.4119935638541
 30
0.0
 10
21.37559326032276
 20
-173.4564216959205
 30
0.0
 10
21.46197598358046
 20
-172.4891531748219
 30
0.0
 10
21.46774047564878
 20
-171.5180611961036
 30
0.0
 10
21.39219939621545
 20
-170.5509753986764
 30
0.0
 10
21.2334665106198
 20
-169.5940064244354
 30
0.0
 10
20.99486509428811
 20
-168.6526237968534
 30
0.0
 10
20.67888451454758
 20
-167.7343384486425
 30
0.0
 10
20.28756758293765
 20
-166.8466742982713
 30
0.0
 10
19.82094894261338
 20
-165.9962046682764
 30
0.0
 10
19.28447317650878
 20
-165.1864217266969
 30
0.0
 10
18.68119076950603
 20
-164.4257065147962
 30
0.0
 10
18.05341630997862
 20
-163.7464217544849
 30
0.0
 10
17.60071756121956
 20
-163.3530819904108
 30
0.0
 10
17.39166768043204
 20
-163.1714432493847
 30
0.0
  0
ARC
  5
372
330
1F
100
AcDbEntity
  8
0
  6
Continuous
 62
     7
370
    15
100
AcDbCircle
 10
-117.7760949567
 20
-98.192560579
 30
0.0
 40
171.5
100
AcDbArc
 50
80.3531636112
 51
90.0
  0
ARC
  5
373
330
1F
100
AcDbEntity
  8
0
  6
Continuous
 62
     7
370
    15
100
AcDbCircle
 10
-117.7760949567
 20
-98.192560579
 30
0.0
 40
171.5
100
AcDbArc
 50
350.3531636112
 51
69.6468363888
  0
ARC
  5
374
330
1F
100
AcDbEntity
  8
0
  6
Continuous
 62
     7
370
    15
100
AcDbCircle
 10
-117.7760949567
 20
-98.192560579
 30
0.0
 40
171.5000000000001
100
AcDbArc
 50
260.3531636112
 51
339.6468363888
  0
ARC
  5
375
330
1F
100
AcDbEntity
  8
0
  6
Continuous
 62
     7
370
    15
100
AcDbCircle
 10
-117.7760949567
 20
-98.192560579
 30
0.0
 40
171.5000000000001
100
AcDbArc
 50
170.3531636112
 51
249.6468363888
  0
ARC
  5
376
330
1F
100
AcDbEntity
  8
0
  6
Continuous
 62
     7
370
    15
100
AcDbCircle
 10
-117.7760949567
 20
-98.192560579
 30
0.0
 40
171.5
100
AcDbArc
 50
90.0
 51
159.6468363888
  0
SPLINE
  5
377
330
1F
100
AcDbEntity
  8
0
  6
Continuous
 62
     7
370
    15
100
AcDbSpline
210
0.0
220
0.0
230
1.0
 70
     8
 71
     3
 72
    44
 73
    40
 74
     0
 42
0.00000001
 43
0.00000001
 12
1.0
 22
0.0
 32
0.0
 13
1.0
 23
0.0
 33
0.0
 40
0.0
 40
0.0
 40
0.0
 40
0.0
 40
0.0130464027503138
 40
0.0409929435510512
 40
0.068840386338494
 40
0.0966914860175161
 40
0.1246421392458339
 40
0.1525926111534512
 40
0.1804436270010143
 40
0.2082918320271973
 40
0.2362397305615983
 40
0.2641874607832202
 40
0.2920358665841429
 40
0.3198788318839723
 40
0.3478210584882876
 40
0.3757635803119445
 40
0.4036063954385073
 40
0.4314442147790056
 40
0.4593815471026225
 40
0.4873188445504531
 40
0.5151566387463358
 40
0.5429915467815235
 40
0.5709258929033433
 40
0.5988602530272484
 40
0.6266952287343865
 40
0.6545304999183471
 40
0.6824650811232541
 40
0.7103997508864834
 40
0.7382350809677618
 40
0.7660738178610079
 40
0.7940121203514529
 40
0.821950227162451
 40
0.8497886869080228
 40
0.877633065439856
 40
0.9055762897117557
 40
0.9335197725441523
 40
0.9613640881940515
 40
0.9884619141874614
 40
1.0
 40
1.0
 40
1.0
 40
1.0
 10
-107.2779381856425
 20
-247.8015749708813
 30
0.0
 10
-107.284186821226
 20
-247.939847133412
 30
0.0
 10
-107.3038205831638
 20
-248.3743104151136
 30
0.0
 10
-107.4157832761622
 20
-249.0975249209518
 30
0.0
 10
-107.6097230740333
 20
-249.9637539084928
 30
0.0
 10
-107.8818173154619
 20
-250.8095389000689
 30
0.0
 10
-108.2231496394514
 20
-251.6306444873726
 30
0.0
 10
-108.6318147666611
 20
-252.4205276787518
 30
0.0
 10
-109.1046237340306
 20
-253.1725300261866
 30
0.0
 10
-109.6406088551907
 20
-253.8808864842212
 30
0.0
 10
-110.2347215091669
 20
-254.5425650373205
 30
0.0
 10
-110.8817672916634
 20
-255.152604988097
 30
0.0
 10
-111.5768409817697
 20
-255.7056282375073
 30
0.0
 10
-112.3170248998991
 20
-256.1965563280887
 30
0.0
 10
-113.0965971204233
 20
-256.6241533268426
 30
0.0
 10
-113.9089807091837
 20
-256.9855671718148
 30
0.0
 10
-114.7478241549442
 20
-257.2772503112941
 30
0.0
 10
-115.6086617657208
 20
-257.4954421977752
 30
0.0
 10
-116.4856922693331
 20
-257.640890113669
 30
0.0
 10
-117.3717757461047
 20
-257.7129983788864
 30
0.0
 10
-118.2597564031812
 20
-257.7105765726234
 30
0.0
 10
-119.144183828248
 20
-257.6315553686057
 30
0.0
 10
-120.0198304585657
 20
-257.4785427557393
 30
0.0
 10
-120.8797427222072
 20
-257.2533465361571
 30
0.0
 10
-121.7168150880404
 20
-256.9572135594361
 30
0.0
 10
-122.5252039645864
 20
-256.5899538822486
 30
0.0
 10
-123.300850661228
 20
-256.1557833389388
 30
0.0
 10
-124.0377529303724
 20
-255.658702925535
 30
0.0
 10
-124.7296581821175
 20
-255.1022373022632
 30
0.0
 10
-125.370980960723
 20
-254.4881214397868
 30
0.0
 10
-125.9592618233592
 20
-253.8216617812381
 30
0.0
 10
-126.4901711408976
 20
-253.108671693948
 30
0.0
 10
-126.9589592379048
 20
-252.3545181860273
 30
0.0
 10
-127.360995161285
 20
-251.5626753992745
 30
0.0
 10
-127.695355385912
 20
-250.7389556363807
 30
0.0
 10
-127.9613451887131
 20
-249.8903702771245
 30
0.0
 10
-128.1488909608211
 20
-249.0310069987339
 30
0.0
 10
-128.2532310010118
 20
-248.3320209044575
 30
0.0
 10
-128.2704798762072
 20
-247.9225014418249
 30
0.0
 10
-128.2756310165031
 20
-247.8002040640514
 30
0.0
  0
SPLINE
  5
378
330
1F
100
AcDbEntity
  8
0
  6
Continuous
 62
     7
370
    15
100
AcDbSpline
210
0.0
220
0.0
230
1.0
 70
     8
 71
     3
 72
    44
 73
    40
 74
     0
 42
0.00000001
 43
0.00000001
 12
1.0
 22
0.0
 32
0.0
 13
1.0
 23
0.0
 33
0.0
 40
0.0
 40
0.0
 40
0.0
 40
0.0
 40
0.0130464027503138
 40
0.0409929435510512
 40
0.068840386338494
 40
0.0966914860175161
 40
0.1246421392458339
 40
0.1525926111534512
 40
0.1804436270010143
 40
0.2082918320271973
 40
0.2362397305615983
 40
0.2641874607832202
 40
0.2920358665841429
 40
0.3198788318839723
 40
0.3478210584882876
 40
0.3757635803119445
 40
0.4036063954385073
 40
0.4314442147790056
 40
0.4593815471026225
 40
0.4873188445504531
 40
0.5151566387463358
 40
0.5429915467815235
 40
0.5709258929033433
 40
0.5988602530272484
 40
0.6266952287343865
 40
0.6545304999183471
 40
0.6824650811232541
 40
0.7103997508864834
 40
0.7382350809677618
 40
0.7660738178610079
 40
0.7940121203514529
 40
0.821950227162451
 40
0.8497886869080228
 40
0.877633065439856
 40
0.9055762897117557
 40
0.9335197725441523
 40
0.9613640881940515
 40
0.9884619141874614
 40
1.0
 40
1.0
 40
1.0
 40
1.0
 10
-267.3851093486055
 20
-108.6907173500459
 30
0.0
 10
-267.5233815111362
 20
-108.6844687144625
 30
0.0
 10
-267.9578447928378
 20
-108.6648349525246
 30
0.0
 10
-268.681059298676
 20
-108.5528722595263
 30
0.0
 10
-269.547288286217
 20
-108.3589324616552
 30
0.0
 10
-270.3930732777931
 20
-108.0868382202266
 30
0.0
 10
-271.2141788650968
 20
-107.745505896237
 30
0.0
 10
-272.004062056476
 20
-107.3368407690274
 30
0.0
 10
-272.7560644039108
 20
-106.8640318016579
 30
0.0
 10
-273.4644208619454
 20
-106.3280466804977
 30
0.0
 10
-274.1260994150447
 20
-105.7339340265216
 30
0.0
 10
-274.7361393658211
 20
-105.0868882440251
 30
0.0
 10
-275.2891626152315
 20
-104.3918145539188
 30
0.0
 10
-275.7800907058129
 20
-103.6516306357894
 30
0.0
 10
-276.2076877045668
 20
-102.8720584152652
 30
0.0
 10
-276.569101549539
 20
-102.0596748265047
 30
0.0
 10
-276.8607846890183
 20
-101.2208313807443
 30
0.0
 10
-277.0789765754993
 20
-100.3599937699677
 30
0.0
 10
-277.2244244913932
 20
-99.4829632663554
 30
0.0
 10
-277.2965327566106
 20
-98.59687978958378
 30
0.0
 10
-277.2941109503476
 20
-97.7088991325073
 30
0.0
 10
-277.2150897463299
 20
-96.82447170744044
 30
0.0
 10
-277.0620771334636
 20
-95.94882507712278
 30
0.0
 10
-276.8368809138813
 20
-95.0889128134813
 30
0.0
 10
-276.5407479371603
 20
-94.25184044764805
 30
0.0
 10
-276.1734882599727
 20
-93.44345157110205
 30
0.0
 10
-275.7393177166629
 20
-92.66780487446043
 30
0.0
 10
-275.2422373032591
 20
-91.93090260531609
 30
0.0
 10
-274.6857716799873
 20
-91.238997353571
 30
0.0
 10
-274.071655817511
 20
-90.59767457496547
 30
0.0
 10
-273.4051961589623
 20
-90.00939371232923
 30
0.0
 10
-272.6922060716722
 20
-89.47848439479083
 30
0.0
 10
-271.9380525637515
 20
-89.00969629778362
 30
0.0
 10
-271.1462097769986
 20
-88.60766037440345
 30
0.0
 10
-270.3224900141048
 20
-88.27330014977647
 30
0.0
 10
-269.4739046548486
 20
-88.0073103469754
 30
0.0
 10
-268.6145413764581
 20
-87.8197645748673
 30
0.0
 10
-267.9155552821816
 20
-87.71542453467667
 30
0.0
 10
-267.5060358195491
 20
-87.69817565948128
 30
0.0
 10
-267.3837384417756
 20
-87.69302451918533
 30
0.0
  0
SPLINE
  5
379
330
1F
100
AcDbEntity
  8
0
  6
Continuous
 62
     7
370
    15
100
AcDbSpline
210
0.0
220
0.0
230
1.0
 70
     8
 71
     3
 72
    44
 73
    40
 74
     0
 42
0.00000001
 43
0.00000001
 12
1.0
 22
0.0
 32
0.0
 13
1.0
 23
0.0
 33
0.0
 40
0.0
 40
0.0
 40
0.0
 40
0.0
 40
0.0130464027503138
 40
0.0409929435510512
 40
0.068840386338494
 40
0.0966914860175161
 40
0.1246421392458339
 40
0.1525926111534512
 40
0.1804436270010143
 40
0.2082918320271973
 40
0.2362397305615983
 40
0.2641874607832202
 40
0.2920358665841429
 40
0.3198788318839723
 40
0.3478210584882876
 40
0.3757635803119445
 40
0.4036063954385073
 40
0.4314442147790056
 40
0.4593815471026225
 40
0.4873188445504531
 40
0.5151566387463358
 40
0.5429915467815235
 40
0.5709258929033433
 40
0.5988602530272484
 40
0.6266952287343865
 40
0.6545304999183471
 40
0.6824650811232541
 40
0.7103997508864834
 40
0.7382350809677618
 40
0.7660738178610079
 40
0.7940121203514529
 40
0.821950227162451
 40
0.8497886869080228
 40
0.877633065439856
 40
0.9055762897117557
 40
0.9335197725441523
 40
0.9613640881940515
 40
0.9884619141874614
 40
1.0
 40
1.0
 40
1.0
 40
1.0
 10
-128.2742517277701
 20
51.41645381291696
 30
0.0
 10
-128.2680030921866
 20
51.55472597544766
 30
0.0
 10
-128.2483693302488
 20
51.98918925714926
 30
0.0
 10
-128.1364066372505
 20
52.7124037629875
 30
0.0
 10
-127.9424668393794
 20
53.57863275052848
 30
0.0
 10
-127.6703725979508
 20
54.4244177421046
 30
0.0
 10
-127.3290402739612
 20
55.24552332940835
 30
0.0
 10
-126.9203751467516
 20
56.03540652078748
 30
0.0
 10
-126.4475661793821
 20
56.78740886822226
 30
0.0
 10
-125.911581058222
 20
57.49576532625697
 30
0.0
 10
-125.3174684042458
 20
58.1574438793562
 30
0.0
 10
-124.6704226217493
 20
58.76748383013267
 30
0.0
 10
-123.975348931643
 20
59.32050707954301
 30
0.0
 10
-123.2351650135136
 20
59.81143517012438
 30
0.0
 10
-122.4555927929894
 20
60.23903216887835
 30
0.0
 10
-121.6432092042289
 20
60.60044601385051
 30
0.0
 10
-120.8043657584684
 20
60.89212915332984
 30
0.0
 10
-119.9435281476919
 20
61.11032103981084
 30
0.0
 10
-119.0664976440796
 20
61.25576895570472
 30
0.0
 10
-118.180414167308
 20
61.32787722092215
 30
0.0
 10
-117.2924335102315
 20
61.32545541465911
 30
0.0
 10
-116.4080060851646
 20
61.24643421064147
 30
0.0
 10
-115.532359454847
 20
61.09342159777506
 30
0.0
 10
-114.6724471912055
 20
60.86822537819281
 30
0.0
 10
-113.8353748253722
 20
60.57209240147182
 30
0.0
 10
-113.0269859488262
 20
60.20483272428423
 30
0.0
 10
-112.2513392521846
 20
59.77066218097443
 30
0.0
 10
-111.5144369830403
 20
59.27358176757067
 30
0.0
 10
-110.8225317312952
 20
58.71711614429889
 30
0.0
 10
-110.1812089526896
 20
58.10300028182252
 30
0.0
 10
-109.5929280900534
 20
57.43654062327383
 30
0.0
 10
-109.062018772515
 20
56.72355053598368
 30
0.0
 10
-108.5932306755078
 20
55.96939702806303
 30
0.0
 10
-108.1911947521276
 20
55.17755424131013
 30
0.0
 10
-107.8568345275007
 20
54.35383447841635
 30
0.0
 10
-107.5908447246996
 20
53.50524911916018
 30
0.0
 10
-107.4032989525915
 20
52.64588584076962
 30
0.0
 10
-107.2989589124009
 20
51.94689974649317
 30
0.0
 10
-107.2817100372055
 20
51.53738028386065
 30
0.0
 10
-107.2765588969095
 20
51.41508290608712
 30
0.0
  0
SPLINE
  5
37A
330
1F
100
AcDbEntity
  8
0
  6
Continuous
 62
     7
370
    15
100
AcDbSpline
210
0.0
220
0.0
230
1.0
 70
     8
 71
     3
 72
    44
 73
    40
 74
     0
 42
0.00000001
 43
0.00000001
 12
1.0
 22
0.0
 32
0.0
 13
1.0
 23
0.0
 33
0.0
 40
0.0
 40
0.0
 40
0.0
 40
0.0
 40
0.0130464027503138
 40
0.0409929435510512
 40
0.068840386338494
 40
0.0966914860175161
 40
0.1246421392458339
 40
0.1525926111534512
 40
0.1804436270010143
 40
0.2082918320271973
 40
0.2362397305615983
 40
0.2641874607832202
 40
0.2920358665841429
 40
0.3198788318839723
 40
0.3478210584882876
 40
0.3757635803119445
 40
0.4036063954385073
 40
0.4314442147790056
 40
0.4593815471026225
 40
0.4873188445504531
 40
0.5151566387463358
 40
0.5429915467815235
 40
0.5709258929033433
 40
0.5988602530272484
 40
0.6266952287343865
 40
0.6545304999183471
 40
0.6824650811232541
 40
0.7103997508864834
 40
0.7382350809677618
 40
0.7660738178610079
 40
0.7940121203514529
 40
0.821950227162451
 40
0.8497886869080228
 40
0.877633065439856
 40
0.9055762897117557
 40
0.9335197725441523
 40
0.9613640881940515
 40
0.9884619141874614
 40
1.0
 40
1.0
 40
1.0
 40
1.0
 10
31.83291943519279
 20
-87.69440380791833
 30
0.0
 10
31.97119159772349
 20
-87.70065244350182
 30
0.0
 10
32.40565487942509
 20
-87.72028620543966
 30
0.0
 10
33.12886938526333
 20
-87.83224889843798
 30
0.0
 10
33.99509837280431
 20
-88.02618869630909
 30
0.0
 10
34.84088336438043
 20
-88.29828293773768
 30
0.0
 10
35.66198895168418
 20
-88.63961526172723
 30
0.0
 10
36.45187214306331
 20
-89.04828038893686
 30
0.0
 10
37.20387449049809
 20
-89.52108935630638
 30
0.0
 10
37.9122309485328
 20
-90.05707447746653
 30
0.0
 10
38.57390950163203
 20
-90.65118713144267
 30
0.0
 10
39.1839494524085
 20
-91.2982329139392
 30
0.0
 10
39.73697270181884
 20
-91.99330660404549
 30
0.0
 10
40.22790079240021
 20
-92.73349052217488
 30
0.0
 10
40.65549779115418
 20
-93.51306274269908
 30
0.0
 10
41.01691163612634
 20
-94.32544633145956
 30
0.0
 10
41.30859477560567
 20
-95.16428977722002
 30
0.0
 10
41.52678666208667
 20
-96.02512738799656
 30
0.0
 10
41.67223457798055
 20
-96.90215789160887
 30
0.0
 10
41.74434284319798
 20
-97.78824136838051
 30
0.0
 10
41.74192103693494
 20
-98.67622202545698
 30
0.0
 10
41.6628998329173
 20
-99.56064945052384
 30
0.0
 10
41.50988722005089
 20
-100.4362960808415
 30
0.0
 10
41.28469100046864
 20
-101.296208344483
 30
0.0
 10
40.98855802374765
 20
-102.1332807103162
 30
0.0
 10
40.62129834656006
 20
-102.9416695868622
 30
0.0
 10
40.18712780325026
 20
-103.7173162835038
 30
0.0
 10
39.6900473898465
 20
-104.4542185526482
 30
0.0
 10
39.13358176657472
 20
-105.1461238043933
 30
0.0
 10
38.51946590409835
 20
-105.7874465829988
 30
0.0
 10
37.85300624554966
 20
-106.3757274456351
 30
0.0
 10
37.14001615825951
 20
-106.9066367631735
 30
0.0
 10
36.38586265033886
 20
-107.3754248601807
 30
0.0
 10
35.59401986358596
 20
-107.7774607835608
 30
0.0
 10
34.77030010069218
 20
-108.1118210081878
 30
0.0
 10
33.92171474143601
 20
-108.3778108109889
 30
0.0
 10
33.06235146304545
 20
-108.565356583097
 30
0.0
 10
32.363365368769
 20
-108.6696966232876
 30
0.0
 10
31.95384590613648
 20
-108.686945498483
 30
0.0
 10
31.83154852836295
 20
-108.6920966387789
 30
0.0
  0
SPLINE
  5
37B
330
1F
100
AcDbEntity
  8
0
  6
Continuous
 62
     7
370
    15
100
AcDbSpline
210
0.0
220
0.0
230
1.0
 70
     8
 71
     3
 72
    41
 73
    37
 74
     0
 42
0.00000001
 43
0.00000001
 12
1.0
 22
0.0
 32
0.0
 13
1.0
 23
0.0
 33
0.0
 40
0.0
 40
0.0
 40
0.0
 40
0.0
 40
0.0107625149757188
 40
0.0411361505572121
 40
0.0714018496363936
 40
0.1016662262364145
 40
0.1320389348911339
 40
0.1624115173179062
 40
0.1926761563221898
 40
0.2229366143298565
 40
0.2533053894602971
 40
0.2836740198712663
 40
0.3139345521178999
 40
0.3441901145920783
 40
0.3745536306304853
 40
0.4049173739650734
 40
0.435172861634572
 40
0.4654242352671698
 40
0.4957839141615206
 40
0.526143660042147
 40
0.5563952085399365
 40
0.5866447076816601
 40
0.6170028185046479
 40
0.6473604910209434
 40
0.6776102523167985
 40
0.7078612956022894
 40
0.7382203704777546
 40
0.7685796490755187
 40
0.7988307217569203
 40
0.829085522599007
 40
0.8594487586986383
 40
0.8898117347321344
 40
0.9200665973423955
 40
0.9503260517058191
 40
0.9806942072286937
 40
1.0
 40
1.0
 40
1.0
 40
1.0
 10
-52.79240666181878
 20
-233.3585052744549
 30
0.0
 10
-52.7200966253794
 20
-233.4476423201868
 30
0.0
 10
-52.44371544937376
 20
-233.7883391686208
 30
0.0
 10
-51.90105015494213
 20
-234.3250421942303
 30
0.0
 10
-51.17001040055143
 20
-234.9621565272473
 30
0.0
 10
-50.38275599437635
 20
-235.5299990285615
 30
0.0
 10
-49.55080407589323
 20
-236.0314372334334
 30
0.0
 10
-48.67976685379931
 20
-236.4617512649409
 30
0.0
 10
-47.77685444141947
 20
-236.8172311905687
 30
0.0
 10
-46.8466198440557
 20
-237.0933762596866
 30
0.0
 10
-45.89548892752646
 20
-237.2908424870008
 30
0.0
 10
-44.93122255539485
 20
-237.4085900369551
 30
0.0
 10
-43.96161261632835
 20
-237.4450859670141
 30
0.0
 10
-42.9925149904392
 20
-237.3977289474459
 30
0.0
 10
-42.02975447686344
 20
-237.2692032834714
 30
0.0
 10
-41.08098832996475
 20
-237.0611527472951
 30
0.0
 10
-40.15406812254508
 20
-236.7746679552384
 30
0.0
 10
-39.25536903465974
 20
-236.4092640464852
 30
0.0
 10
-38.38951597565449
 20
-235.9693552000846
 30
0.0
 10
-37.56318492914399
 20
-235.4590589778709
 30
0.0
 10
-36.78341542409564
 20
-234.8819785706966
 30
0.0
 10
-36.05637020746674
 20
-234.2397753861238
 30
0.0
 10
-35.38495461443907
 20
-233.5381450663773
 30
0.0
 10
-34.7741312033439
 20
-232.7831834503831
 30
0.0
 10
-34.22930260183585
 20
-231.9806112487555
 30
0.0
 10
-33.75579427815688
 20
-231.1339966764023
 30
0.0
 10
-33.35440557610286
 20
-230.2497037337464
 30
0.0
 10
-33.02786126516984
 20
-229.3351379316011
 30
0.0
 10
-32.77935618800203
 20
-228.3974566736501
 30
0.0
 10
-32.61270330291268
 20
-227.4418072207514
 30
0.0
 10
-32.52656924338663
 20
-226.4744186123739
 30
0.0
 10
-32.52128227822499
 20
-225.5033163569882
 30
0.0
 10
-32.59645391710647
 20
-224.535925927753
 30
0.0
 10
-32.75799940592634
 20
-223.5797608837433
 30
0.0
 10
-32.95972830022334
 20
-222.7498848663485
 30
0.0
 10
-33.13931175133796
 20
-222.2514068503355
 30
0.0
 10
-33.20910690576867
 20
-222.0576732412975
 30
0.0
  0
SPLINE
  5
37C
330
1F
100
AcDbEntity
  8
0
  6
Continuous
 62
     7
370
    15
100
AcDbSpline
210
0.0
220
0.0
230
1.0
 70
     8
 71
     3
 72
    41
 73
    37
 74
     0
 42
0.00000001
 43
0.00000001
 12
1.0
 22
0.0
 32
0.0
 13
1.0
 23
0.0
 33
0.0
 40
0.0
 40
0.0
 40
0.0
 40
0.0
 40
0.0107625149757188
 40
0.0411361505572121
 40
0.0714018496363936
 40
0.1016662262364145
 40
0.1320389348911339
 40
0.1624115173179062
 40
0.1926761563221898
 40
0.2229366143298565
 40
0.2533053894602971
 40
0.2836740198712663
 40
0.3139345521178999
 40
0.3441901145920783
 40
0.3745536306304853
 40
0.4049173739650734
 40
0.435172861634572
 40
0.4654242352671698
 40
0.4957839141615206
 40
0.526143660042147
 40
0.5563952085399365
 40
0.5866447076816601
 40
0.6170028185046479
 40
0.6473604910209434
 40
0.6776102523167985
 40
0.7078612956022894
 40
0.7382203704777546
 40
0.7685796490755187
 40
0.7988307217569203
 40
0.829085522599007
 40
0.8594487586986383
 40
0.8898117347321344
 40
0.9200665973423955
 40
0.9503260517058191
 40
0.9806942072286937
 40
1.0
 40
1.0
 40
1.0
 40
1.0
 10
-252.942039652179
 20
-163.1762488738697
 30
0.0
 10
-253.031176697911
 20
-163.2485589103091
 30
0.0
 10
-253.3718735463451
 20
-163.5249400863147
 30
0.0
 10
-253.9085765719545
 20
-164.0676053807463
 30
0.0
 10
-254.5456909049714
 20
-164.798645135137
 30
0.0
 10
-255.1135334062857
 20
-165.5858995413121
 30
0.0
 10
-255.6149716111576
 20
-166.4178514597952
 30
0.0
 10
-256.0452856426651
 20
-167.2888886818891
 30
0.0
 10
-256.4007655682929
 20
-168.191801094269
 30
0.0
 10
-256.6769106374107
 20
-169.1220356916328
 30
0.0
 10
-256.8743768647249
 20
-170.073166608162
 30
0.0
 10
-256.9921244146793
 20
-171.0374329802936
 30
0.0
 10
-257.0286203447383
 20
-172.0070429193601
 30
0.0
 10
-256.98126332517
 20
-172.9761405452493
 30
0.0
 10
-256.8527376611955
 20
-173.938901058825
 30
0.0
 10
-256.6446871250192
 20
-174.8876672057237
 30
0.0
 10
-256.3582023329626
 20
-175.8145874131434
 30
0.0
 10
-255.9927984242093
 20
-176.7132865010287
 30
0.0
 10
-255.5528895778087
 20
-177.579139560034
 30
0.0
 10
-255.0425933555951
 20
-178.4054706065445
 30
0.0
 10
-254.4655129484208
 20
-179.1852401115928
 30
0.0
 10
-253.823309763848
 20
-179.9122853282217
 30
0.0
 10
-253.1216794441015
 20
-180.5837009212494
 30
0.0
 10
-252.3667178281073
 20
-181.1945243323446
 30
0.0
 10
-251.5641456264797
 20
-181.7393529338526
 30
0.0
 10
-250.7175310541264
 20
-182.2128612575316
 30
0.0
 10
-249.8332381114705
 20
-182.6142499595856
 30
0.0
 10
-248.9186723093252
 20
-182.9407942705186
 30
0.0
 10
-247.9809910513743
 20
-183.1892993476864
 30
0.0
 10
-247.0253415984756
 20
-183.3559522327758
 30
0.0
 10
-246.0579529900981
 20
-183.4420862923018
 30
0.0
 10
-245.0868507347123
 20
-183.4473732574635
 30
0.0
 10
-244.1194603054772
 20
-183.372201618582
 30
0.0
 10
-243.1632952614674
 20
-183.2106561297621
 30
0.0
 10
-242.3334192440726
 20
-183.0089272354651
 30
0.0
 10
-241.8349412280597
 20
-182.8293437843505
 30
0.0
 10
-241.6412076190217
 20
-182.7595486299198
 30
0.0
  0
SPLINE
  5
37D
330
1F
100
AcDbEntity
  8
0
  6
Continuous
 62
     7
370
    15
100
AcDbSpline
210
0.0
220
0.0
230
1.0
 70
     8
 71
     3
 72
    41
 73
    37
 74
     0
 42
0.00000001
 43
0.00000001
 12
1.0
 22
0.0
 32
0.0
 13
1.0
 23
0.0
 33
0.0
 40
0.0
 40
0.0
 40
0.0
 40
0.0
 40
0.0107625149757188
 40
0.0411361505572121
 40
0.0714018496363936
 40
0.1016662262364145
 40
0.1320389348911339
 40
0.1624115173179062
 40
0.1926761563221898
 40
0.2229366143298565
 40
0.2533053894602971
 40
0.2836740198712663
 40
0.3139345521178999
 40
0.3441901145920783
 40
0.3745536306304853
 40
0.4049173739650734
 40
0.435172861634572
 40
0.4654242352671698
 40
0.4957839141615206
 40
0.526143660042147
 40
0.5563952085399365
 40
0.5866447076816601
 40
0.6170028185046479
 40
0.6473604910209434
 40
0.6776102523167985
 40
0.7078612956022894
 40
0.7382203704777546
 40
0.7685796490755187
 40
0.7988307217569203
 40
0.829085522599007
 40
0.8594487586986383
 40
0.8898117347321344
 40
0.9200665973423955
 40
0.9503260517058191
 40
0.9806942072286937
 40
1.0
 40
1.0
 40
1.0
 40
1.0
 10
17.38984973876639
 20
-33.2088722840946
 30
0.0
 10
17.4789867844983
 20
-33.13656224765521
 30
0.0
 10
17.81968363293237
 20
-32.86018107164958
 30
0.0
 10
18.35638665854186
 20
-32.31751577721795
 30
0.0
 10
18.99350099155878
 20
-31.58647602282724
 30
0.0
 10
19.56134349287309
 20
-30.79922161665216
 30
0.0
 10
20.06278169774495
 20
-29.96726969816904
 30
0.0
 10
20.49309572925248
 20
-29.09623247607512
 30
0.0
 10
20.84857565488019
 20
-28.19332006369528
 30
0.0
 10
21.1247207239981
 20
-27.26308546633151
 30
0.0
 10
21.3221869513123
 20
-26.31195454980227
 30
0.0
 10
21.43993450126666
 20
-25.34768817767066
 30
0.0
 10
21.47643043132566
 20
-24.37807823860416
 30
0.0
 10
21.4290734117574
 20
-23.40898061271501
 30
0.0
 10
21.30054774778289
 20
-22.44622009913925
 30
0.0
 10
21.09249721160661
 20
-21.49745395224056
 30
0.0
 10
20.80601241954994
 20
-20.5705337448209
 30
0.0
 10
20.44060851079668
 20
-19.67183465693556
 30
0.0
 10
20.00069966439608
 20
-18.8059815979303
 30
0.0
 10
19.49040344218245
 20
-17.9796505514198
 30
0.0
 10
18.91332303500814
 20
-17.19988104637145
 30
0.0
 10
18.27111985043536
 20
-16.47283582974256
 30
0.0
 10
17.56948953068882
 20
-15.80142023671488
 30
0.0
 10
16.81452791469468
 20
-15.19059682561971
 30
0.0
 10
16.01195571306705
 20
-14.64576822411166
 30
0.0
 10
15.1653411407138
 20
-14.17225990043269
 30
0.0
 10
14.28104819805789
 20
-13.77087119837868
 30
0.0
 10
13.36648239591257
 20
-13.44432688744565
 30
0.0
 10
12.42880113796163
 20
-13.19582181027784
 30
0.0
 10
11.47315168506291
 20
-13.0291689251885
 30
0.0
 10
10.50576307668547
 20
-12.94303486566245
 30
0.0
 10
9.534660821299695
 20
-12.93774790050081
 30
0.0
 10
8.567270392064508
 20
-13.01291953938229
 30
0.0
 10
7.611105348054786
 20
-13.17446502820216
 30
0.0
 10
6.781229330660013
 20
-13.37619392249916
 30
0.0
 10
6.282751314647061
 20
-13.55577737361377
 30
0.0
 10
6.089017705609045
 20
-13.62557252804449
 30
0.0
  0
SPLINE
  5
37E
330
1F
100
AcDbEntity
  8
0
  6
Continuous
 62
     7
370
    15
100
AcDbSpline
210
0.0
220
0.0
230
1.0
 70
     8
 71
     3
 72
    41
 73
    37
 74
     0
 42
0.00000001
 43
0.00000001
 12
1.0
 22
0.0
 32
0.0
 13
1.0
 23
0.0
 33
0.0
 40
0.0
 40
0.0
 40
0.0
 40
0.0
 40
0.0044101971235221
 40
0.0346664122806717
 40
0.0650309066771493
 40
0.0953957344536901
 40
0.1256519548827557
 40
0.1559056769881509
 40
0.1862677832956297
 40
0.2166298624409629
 40
0.2468832621899451
 40
0.2771327967108121
 40
0.3074897934541945
 40
0.3378470309751311
 40
0.3680962675992993
 40
0.3983406949091069
 40
0.4286930883705493
 40
0.4590456684507957
 40
0.4892899710493575
 40
0.5195311074773512
 40
0.5498804970034551
 40
0.5802296509392629
 40
0.6104709641489192
 40
0.6407117062840098
 40
0.6710607463133034
 40
0.7014096004057784
 40
0.7316505126430437
 40
0.7618937527438712
 40
0.7922451926985855
 40
0.8225967102622032
 40
0.8528399563383221
 40
0.8830877476822225
 40
0.9134437885865736
 40
0.943800060867947
 40
0.974047662804398
 40
1.0
 40
1.0
 40
1.0
 40
1.0
 10
-241.6320508554681
 20
-13.6233597056072
 30
0.0
 10
-241.6757368435264
 20
-13.6059133933578
 30
0.0
 10
-242.0191311251208
 20
-13.46877642730478
 30
0.0
 10
-242.6906798914201
 20
-13.28649063030225
 30
0.0
 10
-243.6395574511415
 20
-13.08267530265286
 30
0.0
 10
-244.6044420244178
 20
-12.9660330614593
 30
0.0
 10
-245.5739756230659
 20
-12.92866325217039
 30
0.0
 10
-246.5432669970453
 20
-12.97568523743302
 30
0.0
 10
-247.5062309791101
 20
-13.10378590359033
 30
0.0
 10
-248.4552540812011
 20
-13.31145304351168
 30
0.0
 10
-249.3824481514392
 20
-13.59761522618229
 30
0.0
 10
-250.2814423283348
 20
-13.96273270148837
 30
0.0
 10
-251.147619188034
 20
-14.40238321353617
 30
0.0
 10
-251.9742926062911
 20
-14.91246418278001
 30
0.0
 10
-252.7544066531375
 20
-15.48935713527232
 30
0.0
 10
-253.481771433785
 20
-16.13141617419706
 30
0.0
 10
-254.1535122654622
 20
-16.83291153422822
 30
0.0
 10
-254.764664968552
 20
-17.58778305014901
 30
0.0
 10
-255.3097968152645
 20
-18.39027525735906
 30
0.0
 10
-255.7835965675088
 20
-19.23680463579979
 30
0.0
 10
-256.1852422764576
 20
-20.12101262379355
 30
0.0
 10
-256.5120807172413
 20
-21.03551657543345
 30
0.0
 10
-256.7608526240562
 20
-21.97312759411015
 30
0.0
 10
-256.9277831737355
 20
-22.92869946204377
 30
0.0
 10
-257.0141658969931
 20
-23.89596798314238
 30
0.0
 10
-257.0199303890615
 20
-24.86705996186073
 30
0.0
 10
-256.9443893096281
 20
-25.83414575928786
 30
0.0
 10
-256.7856564240324
 20
-26.79111473352887
 30
0.0
 10
-256.5470550077007
 20
-27.73249736111084
 30
0.0
 10
-256.2310744279602
 20
-28.65078270932171
 30
0.0
 10
-255.8397574963503
 20
-29.53844685969296
 30
0.0
 10
-255.373138856026
 20
-30.38891648968785
 30
0.0
 10
-254.8366630899214
 20
-31.19869943126738
 30
0.0
 10
-254.2333806829187
 20
-31.95941464316804
 30
0.0
 10
-253.6056062233912
 20
-32.63869940347939
 30
0.0
 10
-253.1529074746322
 20
-33.03203916755351
 30
0.0
 10
-252.9438575938447
 20
-33.21367790857961
 30
0.0
  0
SPLINE
  5
37F
330
1F
100
AcDbEntity
  8
0
  6
Continuous
 62
     7
370
    15
100
AcDbSpline
210
0.0
220
0.0
230
1.0
 70
     8
 71
     3
 72
    44
 73
    40
 74
     0
 42
0.00000001
 43
0.00000001
 12
1.0
 22
0.0
 32
0.0
 13
1.0
 23
0.0
 33
0.0
 40
0.0
 40
0.0
 40
0.0
 40
0.0
 40
0.0186486066841643
 40
0.0463709041054694
 40
0.073994685035803
 40
0.1016204536559647
 40
0.129345001115925
 40
0.1570696224380783
 40
0.1846954648602502
 40
0.212319202883656
 40
0.2400416404651751
 40
0.2677639733312197
 40
0.29538767417773
 40
0.3230067661745685
 40
0.3507247872152208
 40
0.3784426631948943
 40
0.4060618540791406
 40
0.4336768499068976
 40
0.4613906213494077
 40
0.4891043380324489
 40
0.5167194961328411
 40
0.5443321766784047
 40
0.5720435431887929
 40
0.5997549225432636
 40
0.6273675687550565
 40
0.6549807229532818
 40
0.6826922188277431
 40
0.7104039207375294
 40
0.7380171057103609
 40
0.7656329917065964
 40
0.7933473594429225
 40
0.821062062143201
 40
0.8486778757169529
 40
0.8762981304972797
 40
0.904017063181274
 40
0.9317360528070915
 40
0.9593562958029739
 40
0.9851363774986192
 40
1.0
 40
1.0
 40
1.0
 40
1.0
 10
-215.3973719313844
 20
15.66061088879893
 30
0.0
 10
-215.5585781233058
 20
15.80723459747535
 30
0.0
 10
-215.9594272051377
 20
16.17182344047963
 30
0.0
 10
-216.6587435619489
 20
16.68270269948652
 30
0.0
 10
-217.480992954677
 20
17.19705827432812
 30
0.0
 10
-218.3465375099244
 20
17.63605897966197
 30
0.0
 10
-219.2463525513852
 20
18.00206264154529
 30
0.0
 10
-220.1736138883152
 20
18.2918798373696
 30
0.0
 10
-221.1207919699188
 20
18.50276478975964
 30
0.0
 10
-222.0826393209746
 20
18.63106834508919
 30
0.0
 10
-223.0529298136907
 20
18.67837953241445
 30
0.0
 10
-224.0238115015177
 20
18.64491572533562
 30
0.0
 10
-224.9873491040505
 20
18.53032898601378
 30
0.0
 10
-225.9373615392569
 20
18.33300044271545
 30
0.0
 10
-226.8685027915653
 20
18.05645707245011
 30
0.0
 10
-227.7734649824364
 20
17.70351844508638
 30
0.0
 10
-228.644656309028
 20
17.27649269162742
 30
0.0
 10
-229.475695029212
 20
16.77587237102081
 30
0.0
 10
-230.2627135293326
 20
16.20676827468379
 30
0.0
 10
-230.9997499198381
 20
15.57426161028751
 30
0.0
 10
-231.6804152196537
 20
14.88302186714369
 30
0.0
 10
-232.2988646491109
 20
14.13563802436109
 30
0.0
 10
-232.8531121726626
 20
13.33818919344511
 30
0.0
 10
-233.3392325658443
 20
12.49748099595965
 30
0.0
 10
-233.752732030136
 20
11.61998363034984
 30
0.0
 10
-234.0889631895679
 20
10.71008457338674
 30
0.0
 10
-234.3480536995225
 20
9.774166558872865
 30
0.0
 10
-234.5285424447503
 20
8.819980277819466
 30
0.0
 10
-234.6283325660431
 20
7.855087971569155
 30
0.0
 10
-234.6444927394314
 20
6.885166304971879
 30
0.0
 10
-234.5792312918842
 20
5.916197232682094
 30
0.0
 10
-234.4337492333544
 20
4.95600456999401
 30
0.0
 10
-234.2085605970478
 20
4.012410932366331
 30
0.0
 10
-233.9028001850422
 20
3.091695756122406
 30
0.0
 10
-233.5203305963684
 20
2.1989795750572
 30
0.0
 10
-233.0657785415782
 20
1.340442945734807
 30
0.0
 10
-232.5504099257557
 20
0.5445376309637651
 30
0.0
 10
-232.0705867282266
 20
-0.0941819379226133
 30
0.0
 10
-231.7486205302768
 20
-0.4432536585965569
 30
0.0
 10
-231.6308757498963
 20
-0.5709110752742524
 30
0.0
  0
SPLINE
  5
380
330
1F
100
AcDbEntity
  8
0
  6
Continuous
 62
     7
370
    15
100
AcDbSpline
210
0.0
220
0.0
230
1.0
 70
     8
 71
     3
 72
    44
 73
    40
 74
     0
 42
0.00000001
 43
0.00000001
 12
1.0
 22
0.0
 32
0.0
 13
1.0
 23
0.0
 33
0.0
 40
0.0
 40
0.0
 40
0.0
 40
0.0
 40
0.0186486066841643
 40
0.0463709041054694
 40
0.073994685035803
 40
0.1016204536559647
 40
0.129345001115925
 40
0.1570696224380783
 40
0.1846954648602502
 40
0.212319202883656
 40
0.2400416404651751
 40
0.2677639733312197
 40
0.29538767417773
 40
0.3230067661745685
 40
0.3507247872152208
 40
0.3784426631948943
 40
0.4060618540791406
 40
0.4336768499068976
 40
0.4613906213494077
 40
0.4891043380324489
 40
0.5167194961328411
 40
0.5443321766784047
 40
0.5720435431887929
 40
0.5997549225432636
 40
0.6273675687550565
 40
0.6549807229532818
 40
0.6826922188277431
 40
0.7104039207375294
 40
0.7380171057103609
 40
0.7656329917065964
 40
0.7933473594429225
 40
0.821062062143201
 40
0.8486778757169529
 40
0.8762981304972797
 40
0.904017063181274
 40
0.9317360528070915
 40
0.9593562958029739
 40
0.9851363774986192
 40
1.0
 40
1.0
 40
1.0
 40
1.0
 10
-231.6292664244874
 20
-195.8138375536602
 30
0.0
 10
-231.7758901331638
 20
-195.9750437455816
 30
0.0
 10
-232.1404789761681
 20
-196.3758928274135
 30
0.0
 10
-232.651358235175
 20
-197.0752091842247
 30
0.0
 10
-233.1657138100166
 20
-197.8974585769529
 30
0.0
 10
-233.6047145153504
 20
-198.7630031322002
 30
0.0
 10
-233.9707181772337
 20
-199.662818173661
 30
0.0
 10
-234.2605353730581
 20
-200.590079510591
 30
0.0
 10
-234.4714203254481
 20
-201.5372575921947
 30
0.0
 10
-234.5997238807776
 20
-202.4991049432504
 30
0.0
 10
-234.6470350681029
 20
-203.4693954359666
 30
0.0
 10
-234.6135712610241
 20
-204.4402771237935
 30
0.0
 10
-234.4989845217023
 20
-205.4038147263263
 30
0.0
 10
-234.3016559784039
 20
-206.3538271615328
 30
0.0
 10
-234.0251126081386
 20
-207.2849684138412
 30
0.0
 10
-233.6721739807748
 20
-208.1899306047122
 30
0.0
 10
-233.2451482273159
 20
-209.0611219313038
 30
0.0
 10
-232.7445279067093
 20
-209.8921606514879
 30
0.0
 10
-232.1754238103723
 20
-210.6791791516085
 30
0.0
 10
-231.542917145976
 20
-211.4162155421139
 30
0.0
 10
-230.8516774028321
 20
-212.0968808419295
 30
0.0
 10
-230.1042935600495
 20
-212.7153302713867
 30
0.0
 10
-229.3068447291336
 20
-213.2695777949384
 30
0.0
 10
-228.4661365316481
 20
-213.7556981881202
 30
0.0
 10
-227.5886391660383
 20
-214.1691976524118
 30
0.0
 10
-226.6787401090752
 20
-214.5054288118437
 30
0.0
 10
-225.7428220945613
 20
-214.7645193217983
 30
0.0
 10
-224.7886358135079
 20
-214.9450080670262
 30
0.0
 10
-223.8237435072576
 20
-215.0447981883189
 30
0.0
 10
-222.8538218406603
 20
-215.0609583617072
 30
0.0
 10
-221.8848527683706
 20
-214.9956969141601
 30
0.0
 10
-220.9246601056824
 20
-214.8502148556302
 30
0.0
 10
-219.9810664680548
 20
-214.6250262193236
 30
0.0
 10
-219.0603512918109
 20
-214.319265807318
 30
0.0
 10
-218.1676351107457
 20
-213.9367962186442
 30
0.0
 10
-217.3090984814233
 20
-213.482244163854
 30
0.0
 10
-216.5131931666522
 20
-212.9668755480315
 30
0.0
 10
-215.8744735977658
 20
-212.4870523505024
 30
0.0
 10
-215.5254018770919
 20
-212.1650861525526
 30
0.0
 10
-215.3977444604142
 20
-212.0473413721721
 30
0.0
  0
CIRCLE
  5
381
330
1F
100
AcDbEntity
  8
0
  6
Continuous
 62
     8
370
     0
100
AcDbCircle
 10
-117.7760949567
 20
-98.192560579
 30
0.0
 40
125.5
  0
INSERT
  5
38D
330
1F
100
AcDbEntity
  8
0
  6
Continuous
 62
     7
370
     0
100
AcDbBlockReference
  2
SW_CENTERMARKSYMBOL_0
 10
-117.7760949567
 20
-98.192560579
 30
0.0
  0
ENDSEC
  0
SECTION
  2
OBJECTS
  0
DICTIONARY
  5
C
330
0
100
AcDbDictionary
281
     1
  3
ACAD_GROUP
350
D
  3
ACAD_LAYOUT
350
1A
  3
ACAD_MLINESTYLE
350
17
  3
ACAD_PLOTSETTINGS
350
19
  3
ACAD_PLOTSTYLENAME
350
E
  0
DICTIONARY
  5
D
102
{ACAD_REACTORS
330
C
102
}
330
C
100
AcDbDictionary
281
     1
  0
DICTIONARY
  5
1A
102
{ACAD_REACTORS
330
C
102
}
330
C
100
AcDbDictionary
281
     1
  3
Layout1
350
1E
  3
Layout2
350
26
  3
Model
350
22
  0
DICTIONARY
  5
17
102
{ACAD_REACTORS
330
C
102
}
330
C
100
AcDbDictionary
281
     1
  3
Standard
350
18
  0
DICTIONARY
  5
19
102
{ACAD_REACTORS
330
C
102
}
330
C
100
AcDbDictionary
281
     1
  0
ACDBDICTIONARYWDFLT
  5
E
102
{ACAD_REACTORS
330
C
102
}
330
C
100
AcDbDictionary
281
     1
  3
Normal
350
F
100
AcDbDictionaryWithDefault
340
F
  0
LAYOUT
  5
1E
102
{ACAD_REACTORS
330
1A
102
}
330
1A
100
AcDbPlotSettings
  1

  2
none_device
  4

  6

 40
0.0
 41
0.0
 42
0.0
 43
0.0
 44
0.0
 45
0.0
 46
0.0
 47
0.0
 48
0.0
 49
0.0
140
0.0
141
0.0
142
1.0
143
1.0
 70
   688
 72
     0
 73
     0
 74
     5
  7

 75
    16
147
1.0
148
0.0
149
0.0
100
AcDbLayout
  1
Layout1
 70
     1
 71
     1
 10
0.0
 20
0.0
 11
420.0
 21
297.0
 12
0.0
 22
0.0
 32
0.0
 14
1.0000000000E+20
 24
1.0000000000E+20
 34
1.0000000000E+20
 15
-1.0000000000E+20
 25
-1.0000000000E+20
 35
-1.0000000000E+20
146
0.0
 13
0.0
 23
0.0
 33
0.0
 16
1.0
 26
0.0
 36
0.0
 17
0.0
 27
1.0
 37
0.0
 76
     0
330
1B
  0
LAYOUT
  5
26
102
{ACAD_REACTORS
330
1A
102
}
330
1A
100
AcDbPlotSettings
  1

  2
none_device
  4

  6

 40
0.0
 41
0.0
 42
0.0
 43
0.0
 44
0.0
 45
0.0
 46
0.0
 47
0.0
 48
0.0
 49
0.0
140
0.0
141
0.0
142
1.0
143
1.0
 70
   688
 72
     0
 73
     0
 74
     5
  7

 75
    16
147
1.0
148
0.0
149
0.0
100
AcDbLayout
  1
Layout2
 70
     1
 71
     2
 10
0.0
 20
0.0
 11
0.0
 21
0.0
 12
0.0
 22
0.0
 32
0.0
 14
0.0
 24
0.0
 34
0.0
 15
0.0
 25
0.0
 35
0.0
146
0.0
 13
0.0
 23
0.0
 33
0.0
 16
1.0
 26
0.0
 36
0.0
 17
0.0
 27
1.0
 37
0.0
 76
     0
330
23
  0
LAYOUT
  5
22
102
{ACAD_REACTORS
330
1A
102
}
330
1A
100
AcDbPlotSettings
  1

  2
none_device
  4

  6

 40
0.0
 41
0.0
 42
0.0
 43
0.0
 44
0.0
 45
0.0
 46
0.0
 47
0.0
 48
0.0
 49
0.0
140
0.0
141
0.0
142
1.0
143
1.0
 70
  1712
 72
     0
 73
     0
 74
     0
  7

 75
     0
147
1.0
148
0.0
149
0.0
100
AcDbLayout
  1
Model
 70
     1
 71
     0
 10
0.0
 20
0.0
 11
431.8
 21
279.4
 12
0.0
 22
0.0
 32
0.0
 14
0.0
 24
0.0
 34
0.0
 15
431.8
 25
279.4
 35
0.0
146
0.0
 13
0.0
 23
0.0
 33
0.0
 16
1.0
 26
0.0
 36
0.0
 17
0.0
 27
1.0
 37
0.0
 76
     0
330
1F
331
29
  0
MLINESTYLE
  5
18
102
{ACAD_REACTORS
330
17
102
}
330
17
100
AcDbMlineStyle
  2
Standard
 70
     0
  3

 62
   256
 51
90.0
 52
90.0
 71
     2
 49
0.5
 62
   256
  6
BYLAYER
 49
-0.5
 62
   256
  6
BYLAYER
  0
ACDBPLACEHOLDER
  5
F
102
{ACAD_REACTORS
330
E
102
}
330
E
  0
ENDSEC
  0
EOF
