  0
SECTION
  2
HEADER
  9
$ACADVER
  1
AC1009
  9
$DWGCODEPAGE
  3
ansi_1252
  9
$INSBASE
 10
0.0
 20
0.0
 30
0.0
  9
$EXTMIN
 10
0.0
 20
0.0
 30
0.0
  9
$EXTMAX
 10
594.0
 20
420.0
 30
0.0
  9
$LIMMIN
 10
0.0
 20
0.0
  9
$LIMMAX
 10
594.0
 20
420.0
  9
$ORTHOMODE
 70
     0
  9
$REGENMODE
 70
     1
  9
$FILLMODE
 70
     1
  9
$QTEXTMODE
 70
     0
  9
$MIRRTEXT
 70
     1
  9
$DRAGMODE
 70
     2
  9
$LTSCALE
 40
1.0
  9
$OSMODE
 70
    37
  9
$ATTMODE
 70
     1
  9
$TEXTSIZE
 40
3.5
  9
$TRACEWID
 40
1.0
  9
$TEXTSTYLE
  7
STANDARD
  9
$CLAYER
  8
0
  9
$CELTYPE
  6
BYLAYER
  9
$CECOLOR
 62
   256
  9
$DIMSCALE
 40
1.0
  9
$DIMASZ
 40
3.302
  9
$DIMEXO
 40
1.0
  9
$DIMDLI
 40
3.75
  9
$DIMRND
 40
0.0
  9
$DIMDLE
 40
0.0
  9
$DIMEXE
 40
1.0
  9
$DIMTP
 40
0.0
  9
$DIMTM
 40
0.0
  9
$DIMTXT
 40
3.5
  9
$DIMCEN
 40
2.5
  9
$DIMTSZ
 40
0.0
  9
$DIMTOL
 70
     0
  9
$DIMLIM
 70
     0
  9
$DIMTIH
 70
     1
  9
$DIMTOH
 70
     1
  9
$DIMSE1
 70
     0
  9
$DIMSE2
 70
     0
  9
$DIMTAD
 70
     1
  9
$DIMZIN
 70
     0
  9
$DIMBLK
  1

  9
$DIMASO
 70
     1
  9
$DIMSHO
 70
     1
  9
$DIMPOST
  1

  9
$DIMAPOST
  1

  9
$DIMALT
 70
     0
  9
$DIMALTD
 70
     3
  9
$DIMALTF
 40
0.0393700787
  9
$DIMLFAC
 40
1.0
  9
$DIMTOFL
 70
     1
  9
$DIMTVP
 40
0.0
  9
$DIMTIX
 70
     0
  9
$DIMSOXD
 70
     0
  9
$DIMSAH
 70
     0
  9
$DIMBLK1
  1

  9
$DIMBLK2
  1

  9
$DIMSTYLE
  2
ISO-25
  9
$DIMCLRD
 70
     0
  9
$DIMCLRE
 70
     0
  9
$DIMCLRT
 70
     0
  9
$DIMTFAC
 40
1.0
  9
$DIMGAP
 40
1.524
  9
$LUNITS
 70
     2
  9
$LUPREC
 70
     2
  9
$SKETCHINC
 40
1.0
  9
$FILLETRAD
 40
10.0
  9
$AUNITS
 70
     0
  9
$AUPREC
 70
     2
  9
$MENU
  1
.
  9
$ELEVATION
 40
0.0
  9
$PELEVATION
 40
0.0
  9
$THICKNESS
 40
0.0
  9
$LIMCHECK
 70
     0
  9
$CHAMFERA
 40
10.0
  9
$CHAMFERB
 40
10.0
  9
$SKPOLY
 70
     0
  9
$TDCREATE
 40
2457816.358178114
  9
$TDUPDATE
 40
2457816.358179201
  9
$TDINDWG
 40
0.0000000116
  9
$TDUSRTIMER
 40
0.0000000116
  9
$USRTIMER
 70
     1
  9
$ANGBASE
 50
0.0
  9
$ANGDIR
 70
     0
  9
$PDMODE
 70
     0
  9
$PDSIZE
 40
-1.0
  9
$PLINEWID
 40
0.0
  9
$COORDS
 70
     1
  9
$SPLFRAME
 70
     0
  9
$SPLINETYPE
 70
     6
  9
$SPLINESEGS
 70
     8
  9
$ATTDIA
 70
     0
  9
$ATTREQ
 70
     1
  9
$HANDLING
 70
     1
  9
$HANDSEED
  5
650
  9
$SURFTAB1
 70
     6
  9
$SURFTAB2
 70
     6
  9
$SURFTYPE
 70
     6
  9
$SURFU
 70
     6
  9
$SURFV
 70
     6
  9
$UCSNAME
  2

  9
$UCSORG
 10
0.0
 20
0.0
 30
0.0
  9
$UCSXDIR
 10
1.0
 20
0.0
 30
0.0
  9
$UCSYDIR
 10
0.0
 20
1.0
 30
0.0
  9
$PUCSNAME
  2

  9
$PUCSORG
 10
0.0
 20
0.0
 30
0.0
  9
$PUCSXDIR
 10
1.0
 20
0.0
 30
0.0
  9
$PUCSYDIR
 10
0.0
 20
1.0
 30
0.0
  9
$USERI1
 70
     0
  9
$USERI2
 70
     0
  9
$USERI3
 70
     0
  9
$USERI4
 70
     0
  9
$USERI5
 70
     0
  9
$USERR1
 40
0.0
  9
$USERR2
 40
0.0
  9
$USERR3
 40
0.0
  9
$USERR4
 40
0.0
  9
$USERR5
 40
0.0
  9
$WORLDVIEW
 70
     1
  9
$SHADEDGE
 70
     3
  9
$SHADEDIF
 70
    70
  9
$TILEMODE
 70
     1
  9
$MAXACTVP
 70
    64
  9
$PLIMCHECK
 70
     0
  9
$PEXTMIN
 10
1.0000000000E+20
 20
1.0000000000E+20
 30
1.0000000000E+20
  9
$PEXTMAX
 10
-1.0000000000E+20
 20
-1.0000000000E+20
 30
-1.0000000000E+20
  9
$PLIMMIN
 10
0.0
 20
0.0
  9
$PLIMMAX
 10
420.0
 20
297.0
  9
$UNITMODE
 70
     0
  9
$VISRETAIN
 70
     1
  9
$PLINEGEN
 70
     0
  9
$PSLTSCALE
 70
     1
  0
ENDSEC
  0
SECTION
  2
TABLES
  0
TABLE
  2
VPORT
 70
     1
  0
VPORT
  2
*ACTIVE
 70
     0
 10
0.0
 20
0.0
 11
1.0
 21
1.0
 12
297.0
 22
210.0
 13
0.0
 23
0.0
 14
10.0
 24
10.0
 15
10.0
 25
10.0
 16
0.0
 26
0.0
 36
1.0
 17
0.0
 27
0.0
 37
0.0
 40
420.0
 41
1.4142857143
 42
50.0
 43
0.0
 44
0.0
 50
0.0
 51
0.0
 71
     0
 72
  2000
 73
     1
 74
     3
 75
     0
 76
     0
 77
     0
 78
     0
  0
ENDTAB
  0
TABLE
  2
LTYPE
 70
     6
  0
LTYPE
  2
CONTINUOUS
 70
     0
  3
Solid line
 72
    65
 73
     0
 40
0.0
  0
LTYPE
  2
HIDDEN
 70
     0
  3
Hidden __ __ __ __ __ __ __ __ __ __ __ __ __ __
 72
    65
 73
     2
 40
1.905
 49
1.27
 49
-0.635
  0
LTYPE
  2
PHANTOM
 70
     0
  3
Phantom ______  __  __  ______  __  __  ______
 72
    65
 73
     6
 40
12.7
 49
6.35
 49
-1.27
 49
1.27
 49
-1.27
 49
1.27
 49
-1.27
  0
LTYPE
  2
CENTER
 70
     0
  3
Center ____ _ ____ _ ____ _ ____ _ ____ _ ____
 72
    65
 73
     4
 40
10.16
 49
6.35
 49
-1.27
 49
1.27
 49
-1.27
  0
LTYPE
  2
CENTERX2
 70
     0
  3
Center (2x) ________  __  ________  __  _____
 72
    65
 73
     4
 40
20.32
 49
12.7
 49
-2.54
 49
2.54
 49
-2.54
  0
LTYPE
  2
DOT2
 70
     0
  3
Dot (.5x) ........................................
 72
    65
 73
     2
 40
0.635
 49
0.0
 49
-0.635
  0
ENDTAB
  0
TABLE
  2
LAYER
 70
     3
  0
LAYER
  2
0
 70
     0
 62
     7
  6
CONTINUOUS
  0
LAYER
  2
FORMAT
 70
     0
 62
     7
  6
CONTINUOUS
  0
LAYER
  2
PROTOTYPE
 70
     0
 62
    -7
  6
CONTINUOUS
  0
ENDTAB
  0
TABLE
  2
STYLE
 70
     1
  0
STYLE
  2
STANDARD
 70
     0
 40
0.0
 41
1.0
 50
0.0
 71
     0
 42
3.5
  3
txt
  4

  0
ENDTAB
  0
TABLE
  2
VIEW
 70
     0
  0
ENDTAB
  0
TABLE
  2
UCS
 70
     0
  0
ENDTAB
  0
TABLE
  2
APPID
 70
     1
  0
APPID
  2
ACAD
 70
     0
  0
ENDTAB
  0
TABLE
  2
DIMSTYLE
 70
     1
  0
DIMSTYLE
  2
ISO-25
 70
     0
  3

  4

  5

  6

  7

 40
1.0
 41
2.5
 42
0.625
 43
3.75
 44
1.25
 45
0.0
 46
0.0
 47
0.0
 48
0.0
140
2.5
141
2.5
142
0.0
143
0.0393700787
144
1.0
145
0.0
146
1.0
147
0.625
 71
     0
 72
     0
 73
     0
 74
     0
 75
     0
 76
     0
 77
     1
 78
     8
170
     0
171
     3
172
     1
173
     0
174
     0
175
     0
176
     0
177
     0
178
     0
  0
ENDTAB
  0
ENDSEC
  0
SECTION
  2
BLOCKS
  0
BLOCK
  8
0
  2
$MODEL_SPACE
 70
     0
 10
0.0
 20
0.0
 30
0.0
  3
$MODEL_SPACE
  1

  0
ENDBLK
  5
21
  8
0
  0
BLOCK
 67
     1
  8
0
  2
$PAPER_SPACE
 70
     0
 10
0.0
 20
0.0
 30
0.0
  3
$PAPER_SPACE
  1

  0
ENDBLK
  5
1D
 67
     1
  8
0
  0
BLOCK
  8
0
  2
SW_CENTERMARKSYMBOL_0
 70
     0
 10
0.0
 20
0.0
 30
0.0
  3
SW_CENTERMARKSYMBOL_0
  1

  0
LINE
  5
2E0
  8
FORMAT
 62
     0
 10
0.0
 20
0.0
 30
0.0
 11
0.0
 21
2.5
 31
0.0
  0
LINE
  5
2E1
  8
FORMAT
 62
     0
 10
0.0
 20
0.0
 30
0.0
 11
-2.5
 21
0.0
 31
0.0
  0
LINE
  5
2E2
  8
FORMAT
 62
     0
 10
0.0
 20
0.0
 30
0.0
 11
0.0
 21
-2.5
 31
0.0
  0
LINE
  5
2E3
  8
FORMAT
 62
     0
 10
0.0
 20
0.0
 30
0.0
 11
2.5
 21
0.0
 31
0.0
  0
LINE
  5
2E4
  8
FORMAT
 62
     0
 10
0.0
 20
5.0
 30
0.0
 11
0.0
 21
314.3738738835
 31
0.0
  0
LINE
  5
2E5
  8
FORMAT
 62
     0
 10
-5.0
 20
0.0
 30
0.0
 11
-103.7109631763
 21
0.0
 31
0.0
  0
LINE
  5
2E6
  8
FORMAT
 62
     0
 10
0.0
 20
-5.0
 30
0.0
 11
0.0
 21
-102.6417309296
 31
0.0
  0
LINE
  5
2E7
  8
FORMAT
 62
     0
 10
5.0
 20
0.0
 30
0.0
 11
104.3284817169
 21
0.0
 31
0.0
  0
ENDBLK
  5
2DF
  8
0
  0
ENDSEC
  0
SECTION
  2
ENTITIES
  0
LINE
  5
46
  8
0
  6
CONTINUOUS
 62
     7
 10
168.7692133856
 20
355.2720000058
 30
0.0
 11
182.769211955
 21
355.2720000058
 31
0.0
  0
LINE
  5
47
  8
0
  6
CONTINUOUS
 62
     7
 10
182.769211955
 20
546.2719996482
 30
0.0
 11
158.7692154717
 21
546.2719996482
 31
0.0
  0
LINE
  5
48
  8
0
  6
CONTINUOUS
 62
     7
 10
3.7692142796
 20
546.2719996482
 30
0.0
 11
-20.2307822037
 21
546.2719996482
 31
0.0
  0
LINE
  5
49
  8
0
  6
CONTINUOUS
 62
     7
 10
-20.2307822037
 20
355.2720000058
 30
0.0
 11
-6.2307836342
 21
355.2720000058
 31
0.0
  0
LINE
  5
4A
  8
0
  6
CONTINUOUS
 62
     7
 10
107.2692154121
 20
615.8719931751
 30
0.0
 11
107.2692154121
 21
607.6206837803
 31
0.0
  0
LINE
  5
4B
  8
0
  6
CONTINUOUS
 62
     7
 10
55.2692143392
 20
607.6195065886
 30
0.0
 11
55.2692143392
 21
615.8719931751
 31
0.0
  0
POLYLINE
  5
4C
  8
0
  6
CONTINUOUS
 62
     7
 66
     1
 10
0.0
 20
0.0
 30
0.0
  0
VERTEX
  5
39A
  8
0
  6
CONTINUOUS
 62
     7
 10
125.7119355869
 20
615.8719931751
 30
0.0
  0
VERTEX
  5
39B
  8
0
  6
CONTINUOUS
 62
     7
 10
124.6471395862
 20
620.6052725226
 30
0.0
  0
VERTEX
  5
39C
  8
0
  6
CONTINUOUS
 62
     7
 10
121.6834848892
 20
627.7750258356
 30
0.0
  0
VERTEX
  5
39D
  8
0
  6
CONTINUOUS
 62
     7
 10
119.297961719
 20
632.3821966559
 30
0.0
  0
VERTEX
  5
39E
  8
0
  6
CONTINUOUS
 62
     7
 10
117.5515530777
 20
637.2372780949
 30
0.0
  0
VERTEX
  5
39F
  8
0
  6
CONTINUOUS
 62
     7
 10
116.5381511819
 20
642.2938828379
 30
0.0
  0
VERTEX
  5
3A0
  8
0
  6
CONTINUOUS
 62
     7
 10
116.2692150247
 20
647.4693690449
 30
0.0
  0
VERTEX
  5
3A1
  8
0
  6
CONTINUOUS
 62
     7
 10
116.2692150247
 20
652.6706789643
 30
0.0
  0
VERTEX
  5
3A2
  8
0
  6
CONTINUOUS
 62
     7
 10
116.2692150247
 20
657.8720037848
 30
0.0
  0
SEQEND
  5
64F
  8
0
  6
CONTINUOUS
 62
     7
  0
POLYLINE
  5
4D
  8
0
  6
CONTINUOUS
 62
     7
 66
     1
 10
0.0
 20
0.0
 30
0.0
  0
VERTEX
  5
3A3
  8
0
  6
CONTINUOUS
 62
     7
 10
46.2692147267
 20
657.8720037848
 30
0.0
  0
VERTEX
  5
3A4
  8
0
  6
CONTINUOUS
 62
     7
 10
46.2692147267
 20
652.6706789643
 30
0.0
  0
VERTEX
  5
3A5
  8
0
  6
CONTINUOUS
 62
     7
 10
46.2692147267
 20
647.4693690449
 30
0.0
  0
VERTEX
  5
3A6
  8
0
  6
CONTINUOUS
 62
     7
 10
46.0002785694
 20
642.2938828379
 30
0.0
  0
VERTEX
  5
3A7
  8
0
  6
CONTINUOUS
 62
     7
 10
44.9868766737
 20
637.2372780949
 30
0.0
  0
VERTEX
  5
3A8
  8
0
  6
CONTINUOUS
 62
     7
 10
43.2404680323
 20
632.3821966559
 30
0.0
  0
VERTEX
  5
3A9
  8
0
  6
CONTINUOUS
 62
     7
 10
40.8549448621
 20
627.7750258356
 30
0.0
  0
VERTEX
  5
3AA
  8
0
  6
CONTINUOUS
 62
     7
 10
37.8912901652
 20
620.6052725226
 30
0.0
  0
VERTEX
  5
3AB
  8
0
  6
CONTINUOUS
 62
     7
 10
36.8264941644
 20
615.8719931751
 30
0.0
  0
SEQEND
  5
64E
  8
0
  6
CONTINUOUS
 62
     7
  0
LINE
  5
4E
  8
0
  6
CONTINUOUS
 62
     7
 10
23.7692138326
 20
585.8720068842
 30
0.0
 11
24.6441019845
 21
575.8720015198
 31
0.0
  0
LINE
  5
4F
  8
0
  6
CONTINUOUS
 62
     7
 10
137.8943277669
 20
575.8720015198
 30
0.0
 11
138.7692159188
 21
585.8720068842
 31
0.0
  0
LINE
  5
50
  8
0
  6
CONTINUOUS
 62
     7
 10
24.6441019845
 20
575.8720015198
 30
0.0
 11
34.3721499812
 21
573.2653786451
 31
0.0
  0
LINE
  5
51
  8
0
  6
CONTINUOUS
 62
     7
 10
128.1662797701
 20
573.2653786451
 30
0.0
 11
137.8943277669
 21
575.8720015198
 31
0.0
  0
LINE
  5
52
  8
0
  6
CONTINUOUS
 62
     7
 10
24.0834457946
 20
597.8720014006
 30
0.0
 11
23.7692138326
 21
585.8720068842
 31
0.0
  0
LINE
  5
53
  8
0
  6
CONTINUOUS
 62
     7
 10
138.7692159188
 20
585.8720068842
 30
0.0
 11
138.4549839568
 21
597.8720014006
 31
0.0
  0
LINE
  5
54
  8
0
  6
CONTINUOUS
 62
     7
 10
95.2692153078
 20
676.3720040232
 30
0.0
 11
93.7692150619
 21
677.8719996125
 31
0.0
  0
LINE
  5
55
  8
0
  6
CONTINUOUS
 62
     7
 10
68.7692146894
 20
677.8719996125
 30
0.0
 11
67.2692144435
 21
676.3720040232
 31
0.0
  0
LINE
  5
56
  8
0
  6
CONTINUOUS
 62
     7
 10
34.769213773
 20
568.7269245297
 30
0.0
 11
34.769213773
 21
546.2719996482
 31
0.0
  0
LINE
  5
57
  8
0
  6
CONTINUOUS
 62
     7
 10
127.7692159784
 20
546.2719996482
 30
0.0
 11
127.7692159784
 21
568.7269245297
 31
0.0
  0
LINE
  5
58
  8
0
  6
CONTINUOUS
 62
     7
 10
127.2692149651
 20
705.1720147043
 30
0.0
 11
106.5907413286
 21
712.6983528048
 31
0.0
  0
LINE
  5
59
  8
0
  6
CONTINUOUS
 62
     7
 10
55.9476884228
 20
712.6983528048
 30
0.0
 11
35.2692147863
 21
705.1720147043
 31
0.0
  0
LINE
  5
5A
  8
0
  6
CONTINUOUS
 62
     7
 10
35.2692147863
 20
705.1720147043
 30
0.0
 11
35.2692147863
 21
701.7719869524
 31
0.0
  0
LINE
  5
5B
  8
0
  6
CONTINUOUS
 62
     7
 10
127.2692149651
 20
701.7719869524
 30
0.0
 11
127.2692149651
 21
705.1720147043
 31
0.0
  0
LINE
  5
5C
  8
0
  6
CONTINUOUS
 62
     7
 10
95.2692153078
 20
696.8719934136
 30
0.0
 11
95.2692153078
 21
701.7719869524
 31
0.0
  0
LINE
  5
5D
  8
0
  6
CONTINUOUS
 62
     7
 10
67.2692144435
 20
701.7719869524
 30
0.0
 11
67.2692144435
 21
696.8719934136
 31
0.0
  0
LINE
  5
5E
  8
0
  6
CONTINUOUS
 62
     7
 10
168.7692133856
 20
369.5220400602
 30
0.0
 11
158.7692154717
 21
369.5220400602
 31
0.0
  0
LINE
  5
5F
  8
0
  6
CONTINUOUS
 62
     7
 10
182.769211955
 20
450.771999827
 30
0.0
 11
182.769211955
 21
546.2719996482
 31
0.0
  0
LINE
  5
60
  8
0
  6
CONTINUOUS
 62
     7
 10
182.769211955
 20
355.2720000058
 30
0.0
 11
182.769211955
 21
450.771999827
 31
0.0
  0
LINE
  5
61
  8
0
  6
CONTINUOUS
 62
     7
 10
158.7692154717
 20
546.1659182817
 30
0.0
 11
158.7692154717
 21
369.5220400602
 31
0.0
  0
LINE
  5
62
  8
0
  6
CONTINUOUS
 62
     7
 10
-6.2307836342
 20
369.5220400602
 30
0.0
 11
3.7692142796
 21
369.5220400602
 31
0.0
  0
LINE
  5
63
  8
0
  6
CONTINUOUS
 62
     7
 10
-20.2307822037
 20
450.771999827
 30
0.0
 11
-20.2307822037
 21
546.2719996482
 31
0.0
  0
LINE
  5
64
  8
0
  6
CONTINUOUS
 62
     7
 10
-20.2307822037
 20
355.2720000058
 30
0.0
 11
-20.2307822037
 21
450.771999827
 31
0.0
  0
LINE
  5
65
  8
0
  6
CONTINUOUS
 62
     7
 10
3.7692142796
 20
546.1659182817
 30
0.0
 11
3.7692142796
 21
369.5220400602
 31
0.0
  0
LINE
  5
66
  8
0
  6
CONTINUOUS
 62
     7
 10
39.7774679732
 20
597.8720014006
 30
0.0
 11
44.6055969369
 21
597.8720014006
 31
0.0
  0
LINE
  5
67
  8
0
  6
CONTINUOUS
 62
     7
 10
117.9328328144
 20
597.8720014006
 30
0.0
 11
44.6055969369
 21
597.8720014006
 31
0.0
  0
LINE
  5
68
  8
0
  6
CONTINUOUS
 62
     7
 10
122.7609617781
 20
597.8720014006
 30
0.0
 11
117.9328328144
 21
597.8720014006
 31
0.0
  0
LINE
  5
69
  8
0
  6
CONTINUOUS
 62
     7
 10
123.1528697681
 20
575.8720015198
 30
0.0
 11
39.3855599832
 21
575.8720015198
 31
0.0
  0
LINE
  5
6A
  8
0
  6
CONTINUOUS
 62
     7
 10
81.2692148757
 20
585.8720068842
 30
0.0
 11
39.1622958851
 21
585.8720068842
 31
0.0
  0
LINE
  5
6B
  8
0
  6
CONTINUOUS
 62
     7
 10
123.3761338663
 20
585.8720068842
 30
0.0
 11
81.2692148757
 21
585.8720068842
 31
0.0
  0
POLYLINE
  5
6C
  8
0
  6
CONTINUOUS
 62
     7
 66
     1
 10
0.0
 20
0.0
 30
0.0
  0
VERTEX
  5
3AC
  8
0
  6
CONTINUOUS
 62
     7
 10
112.9432721209
 20
572.9397659212
 30
0.0
  0
VERTEX
  5
3AD
  8
0
  6
CONTINUOUS
 62
     7
 10
112.4175144505
 20
572.9639132529
 30
0.0
  0
VERTEX
  5
3AE
  8
0
  6
CONTINUOUS
 62
     7
 10
110.4970546585
 20
573.0127965122
 30
0.0
  0
SEQEND
  5
64D
  8
0
  6
CONTINUOUS
 62
     7
  0
POLYLINE
  5
6D
  8
0
  6
CONTINUOUS
 62
     7
 66
     1
 10
0.0
 20
0.0
 30
0.0
  0
VERTEX
  5
3AF
  8
0
  6
CONTINUOUS
 62
     7
 10
110.4970546585
 20
573.0127965122
 30
0.0
  0
VERTEX
  5
3B0
  8
0
  6
CONTINUOUS
 62
     7
 10
103.3217227232
 20
573.0762978107
 30
0.0
  0
VERTEX
  5
3B1
  8
0
  6
CONTINUOUS
 62
     7
 10
96.0752805841
 20
573.1218879133
 30
0.0
  0
VERTEX
  5
3B2
  8
0
  6
CONTINUOUS
 62
     7
 10
88.6844219786
 20
573.1497009307
 30
0.0
  0
VERTEX
  5
3B3
  8
0
  6
CONTINUOUS
 62
     7
 10
81.2690148757
 20
573.1589843541
 30
0.0
  0
VERTEX
  5
3B4
  8
0
  6
CONTINUOUS
 62
     7
 10
73.9503032674
 20
573.1499393493
 30
0.0
  0
VERTEX
  5
3B5
  8
0
  6
CONTINUOUS
 62
     7
 10
66.6551934701
 20
573.1228415877
 30
0.0
  0
VERTEX
  5
3B6
  8
0
  6
CONTINUOUS
 62
     7
 10
59.311942212
 20
573.0770130664
 30
0.0
  0
VERTEX
  5
3B7
  8
0
  6
CONTINUOUS
 62
     7
 10
52.0413750928
 20
573.0127965122
 30
0.0
  0
SEQEND
  5
64C
  8
0
  6
CONTINUOUS
 62
     7
  0
POLYLINE
  5
6E
  8
0
  6
CONTINUOUS
 62
     7
 66
     1
 10
0.0
 20
0.0
 30
0.0
  0
VERTEX
  5
3B8
  8
0
  6
CONTINUOUS
 62
     7
 10
49.5951576304
 20
572.9397659212
 30
0.0
  0
VERTEX
  5
3B9
  8
0
  6
CONTINUOUS
 62
     7
 10
50.1209153008
 20
572.9639132529
 30
0.0
  0
VERTEX
  5
3BA
  8
0
  6
CONTINUOUS
 62
     7
 10
52.0413750928
 20
573.0127965122
 30
0.0
  0
SEQEND
  5
64B
  8
0
  6
CONTINUOUS
 62
     7
  0
POLYLINE
  5
6F
  8
0
  6
CONTINUOUS
 62
     7
 66
     1
 10
0.0
 20
0.0
 30
0.0
  0
VERTEX
  5
3BB
  8
0
  6
CONTINUOUS
 62
     7
 10
49.5951576304
 20
572.9397659212
 30
0.0
  0
VERTEX
  5
3BC
  8
0
  6
CONTINUOUS
 62
     7
 10
48.3475765359
 20
573.589940837
 30
0.0
  0
VERTEX
  5
3BD
  8
0
  6
CONTINUOUS
 62
     7
 10
46.2895361852
 20
574.1813381225
 30
0.0
  0
VERTEX
  5
3BE
  8
0
  6
CONTINUOUS
 62
     7
 10
43.7756804895
 20
574.5909188896
 30
0.0
  0
VERTEX
  5
3BF
  8
0
  6
CONTINUOUS
 62
     7
 10
41.1418108415
 20
574.7832630783
 30
0.0
  0
VERTEX
  5
3C0
  8
0
  6
CONTINUOUS
 62
     7
 10
40.409150548
 20
574.7972478181
 30
0.0
  0
SEQEND
  5
64A
  8
0
  6
CONTINUOUS
 62
     7
  0
POLYLINE
  5
70
  8
0
  6
CONTINUOUS
 62
     7
 66
     1
 10
0.0
 20
0.0
 30
0.0
  0
VERTEX
  5
3C1
  8
0
  6
CONTINUOUS
 62
     7
 10
112.9432721209
 20
572.9397659212
 30
0.0
  0
VERTEX
  5
3C2
  8
0
  6
CONTINUOUS
 62
     7
 10
114.1908532154
 20
573.589940837
 30
0.0
  0
VERTEX
  5
3C3
  8
0
  6
CONTINUOUS
 62
     7
 10
116.2488935661
 20
574.1813381225
 30
0.0
  0
VERTEX
  5
3C4
  8
0
  6
CONTINUOUS
 62
     7
 10
118.7627492618
 20
574.5909188896
 30
0.0
  0
VERTEX
  5
3C5
  8
0
  6
CONTINUOUS
 62
     7
 10
121.3966189098
 20
574.7832630783
 30
0.0
  0
VERTEX
  5
3C6
  8
0
  6
CONTINUOUS
 62
     7
 10
122.1292792034
 20
574.7972478181
 30
0.0
  0
SEQEND
  5
649
  8
0
  6
CONTINUOUS
 62
     7
  0
ARC
  5
71
  8
0
  6
CONTINUOUS
 62
     7
 10
460.6979541268
 20
596.4485740414
 30
0.0
 40
365.0519925762281
 50
177.2901400046
 51
179.7765891203
  0
ARC
  5
72
  8
0
  6
CONTINUOUS
 62
     7
 10
-284.8268570081
 20
596.610444728
 30
0.0
 40
351.7164069650962
 50
0.2055122437
 51
2.7508773804
  0
LINE
  5
73
  8
0
  6
CONTINUOUS
 62
     7
 10
66.4842501428
 20
616.7812769324
 30
0.0
 11
66.4842501428
 21
613.4905193955
 31
0.0
  0
POLYLINE
  5
74
  8
0
  6
CONTINUOUS
 62
     7
 66
     1
 10
0.0
 20
0.0
 30
0.0
  0
VERTEX
  5
3C7
  8
0
  6
CONTINUOUS
 62
     7
 10
96.0541796085
 20
616.5297751337
 30
0.0
  0
VERTEX
  5
3C8
  8
0
  6
CONTINUOUS
 62
     7
 10
95.6966020313
 20
621.720356217
 30
0.0
  0
VERTEX
  5
3C9
  8
0
  6
CONTINUOUS
 62
     7
 10
94.7552602884
 20
627.0475213438
 30
0.0
  0
VERTEX
  5
3CA
  8
0
  6
CONTINUOUS
 62
     7
 10
93.9970901382
 20
629.8887704521
 30
0.0
  0
VERTEX
  5
3CB
  8
0
  6
CONTINUOUS
 62
     7
 10
92.9507762339
 20
632.6653485209
 30
0.0
  0
VERTEX
  5
3CC
  8
0
  6
CONTINUOUS
 62
     7
 10
91.9178938639
 20
634.6033786446
 30
0.0
  0
VERTEX
  5
3CD
  8
0
  6
CONTINUOUS
 62
     7
 10
90.5778892484
 20
636.3917564064
 30
0.0
  0
VERTEX
  5
3CE
  8
0
  6
CONTINUOUS
 62
     7
 10
88.972152691
 20
637.8579412609
 30
0.0
  0
VERTEX
  5
3CF
  8
0
  6
CONTINUOUS
 62
     7
 10
87.0263232064
 20
639.0114699513
 30
0.0
  0
VERTEX
  5
3D0
  8
0
  6
CONTINUOUS
 62
     7
 10
83.4056667664
 20
640.0503342062
 30
0.0
  0
VERTEX
  5
3D1
  8
0
  6
CONTINUOUS
 62
     7
 10
79.2697516881
 20
640.069079867
 30
0.0
  0
VERTEX
  5
3D2
  8
0
  6
CONTINUOUS
 62
     7
 10
77.0893185545
 20
639.6104072243
 30
0.0
  0
VERTEX
  5
3D3
  8
0
  6
CONTINUOUS
 62
     7
 10
74.9711166282
 20
638.7532030255
 30
0.0
  0
VERTEX
  5
3D4
  8
0
  6
CONTINUOUS
 62
     7
 10
73.2844406885
 20
637.6584445149
 30
0.0
  0
VERTEX
  5
3D5
  8
0
  6
CONTINUOUS
 62
     7
 10
71.779793143
 20
636.2142090708
 30
0.0
  0
VERTEX
  5
3D6
  8
0
  6
CONTINUOUS
 62
     7
 10
70.4574221891
 20
634.3746905237
 30
0.0
  0
VERTEX
  5
3D7
  8
0
  6
CONTINUOUS
 62
     7
 10
69.3978369382
 20
632.2818671376
 30
0.0
  0
VERTEX
  5
3D8
  8
0
  6
CONTINUOUS
 62
     7
 10
68.4400741157
 20
629.6184782892
 30
0.0
  0
VERTEX
  5
3D9
  8
0
  6
CONTINUOUS
 62
     7
 10
67.7300375101
 20
626.8716280371
 30
0.0
  0
VERTEX
  5
3DA
  8
0
  6
CONTINUOUS
 62
     7
 10
66.766120508
 20
621.1344872624
 30
0.0
  0
VERTEX
  5
3DB
  8
0
  6
CONTINUOUS
 62
     7
 10
66.4842501428
 20
616.7812769324
 30
0.0
  0
SEQEND
  5
648
  8
0
  6
CONTINUOUS
 62
     7
  0
LINE
  5
75
  8
0
  6
CONTINUOUS
 62
     7
 10
96.0541796085
 20
616.5297751337
 30
0.0
 11
96.0541796085
 21
613.7076293141
 31
0.0
  0
LINE
  5
76
  8
0
  6
CONTINUOUS
 62
     7
 10
117.9328328144
 20
615.8719931751
 30
0.0
 11
117.9328328144
 21
597.8720014006
 31
0.0
  0
LINE
  5
77
  8
0
  6
CONTINUOUS
 62
     7
 10
117.9328328144
 20
615.8719931751
 30
0.0
 11
122.7609617781
 21
615.8719931751
 31
0.0
  0
LINE
  5
78
  8
0
  6
CONTINUOUS
 62
     7
 10
39.7774679732
 20
615.8719931751
 30
0.0
 11
44.6055969369
 21
615.8719931751
 31
0.0
  0
LINE
  5
79
  8
0
  6
CONTINUOUS
 62
     7
 10
44.6055969369
 20
615.8719931751
 30
0.0
 11
44.6055969369
 21
597.8720014006
 31
0.0
  0
LINE
  5
7A
  8
0
  6
CONTINUOUS
 62
     7
 10
107.2692154121
 20
615.8719931751
 30
0.0
 11
117.9328328144
 21
615.8719931751
 31
0.0
  0
POLYLINE
  5
7B
  8
0
  6
CONTINUOUS
 62
     7
 66
     1
 10
0.0
 20
0.0
 30
0.0
  0
VERTEX
  5
3DC
  8
0
  6
CONTINUOUS
 62
     7
 10
107.5468221825
 20
597.8720014006
 30
0.0
  0
VERTEX
  5
3DD
  8
0
  6
CONTINUOUS
 62
     7
 10
107.309906758
 20
604.5420293719
 30
0.0
  0
VERTEX
  5
3DE
  8
0
  6
CONTINUOUS
 62
     7
 10
107.2697313648
 20
607.6206837803
 30
0.0
  0
SEQEND
  5
647
  8
0
  6
CONTINUOUS
 62
     7
  0
ARC
  5
7C
  8
0
  6
CONTINUOUS
 62
     7
 10
-101.5741718456
 20
607.1479223426
 30
0.0
 40
156.8416532274904
 50
356.6094374415
 51
0.1722745657
  0
LINE
  5
7D
  8
0
  6
CONTINUOUS
 62
     7
 10
44.6055969369
 20
615.8719931751
 30
0.0
 11
55.2692143392
 21
615.8719931751
 31
0.0
  0
LINE
  5
7E
  8
0
  6
CONTINUOUS
 62
     7
 10
131.9424724352
 20
575.8720015198
 30
0.0
 11
123.1528697681
 21
575.8720015198
 31
0.0
  0
LINE
  5
7F
  8
0
  6
CONTINUOUS
 62
     7
 10
132.7999523055
 20
585.8720068842
 30
0.0
 11
123.3761338663
 21
585.8720068842
 31
0.0
  0
LINE
  5
80
  8
0
  6
CONTINUOUS
 62
     7
 10
30.5959573161
 20
575.8720015198
 30
0.0
 11
39.3855599832
 21
575.8720015198
 31
0.0
  0
LINE
  5
81
  8
0
  6
CONTINUOUS
 62
     7
 10
29.7384774458
 20
585.8720068842
 30
0.0
 11
39.1622958851
 21
585.8720068842
 31
0.0
  0
POLYLINE
  5
82
  8
0
  6
CONTINUOUS
 62
     7
 66
     1
 10
0.0
 20
0.0
 30
0.0
  0
VERTEX
  5
3DF
  8
0
  6
CONTINUOUS
 62
     7
 10
40.409150548
 20
574.7972478181
 30
0.0
  0
VERTEX
  5
3E0
  8
0
  6
CONTINUOUS
 62
     7
 10
39.8110887182
 20
574.8013158351
 30
0.0
  0
VERTEX
  5
3E1
  8
0
  6
CONTINUOUS
 62
     7
 10
37.4187333655
 20
574.8168875486
 30
0.0
  0
VERTEX
  5
3E2
  8
0
  6
CONTINUOUS
 62
     7
 10
35.5726918351
 20
574.8277281433
 30
0.0
  0
VERTEX
  5
3E3
  8
0
  6
CONTINUOUS
 62
     7
 10
34.4810923707
 20
574.8326976806
 30
0.0
  0
VERTEX
  5
3E4
  8
0
  6
CONTINUOUS
 62
     7
 10
34.396811403
 20
574.8328913957
 30
0.0
  0
SEQEND
  5
646
  8
0
  6
CONTINUOUS
 62
     7
  0
POLYLINE
  5
83
  8
0
  6
CONTINUOUS
 62
     7
 66
     1
 10
0.0
 20
0.0
 30
0.0
  0
VERTEX
  5
3E5
  8
0
  6
CONTINUOUS
 62
     7
 10
122.1292792034
 20
574.7972478181
 30
0.0
  0
VERTEX
  5
3E6
  8
0
  6
CONTINUOUS
 62
     7
 10
122.7273410332
 20
574.8013158351
 30
0.0
  0
VERTEX
  5
3E7
  8
0
  6
CONTINUOUS
 62
     7
 10
125.1196963858
 20
574.8168875486
 30
0.0
  0
VERTEX
  5
3E8
  8
0
  6
CONTINUOUS
 62
     7
 10
126.9657379162
 20
574.8277281433
 30
0.0
  0
VERTEX
  5
3E9
  8
0
  6
CONTINUOUS
 62
     7
 10
128.0573373806
 20
574.8326976806
 30
0.0
  0
VERTEX
  5
3EA
  8
0
  6
CONTINUOUS
 62
     7
 10
128.1416183483
 20
574.8328913957
 30
0.0
  0
SEQEND
  5
645
  8
0
  6
CONTINUOUS
 62
     7
  0
LINE
  5
84
  8
0
  6
CONTINUOUS
 62
     7
 10
39.7774679732
 20
597.8720014006
 30
0.0
 11
31.2225511443
 21
597.8720014006
 31
0.0
  0
LINE
  5
85
  8
0
  6
CONTINUOUS
 62
     7
 10
131.315878607
 20
597.8720014006
 30
0.0
 11
122.7609617781
 21
597.8720014006
 31
0.0
  0
LINE
  5
86
  8
0
  6
CONTINUOUS
 62
     7
 10
31.2225511443
 20
615.8719931751
 30
0.0
 11
39.7774679732
 21
615.8719931751
 31
0.0
  0
LINE
  5
87
  8
0
  6
CONTINUOUS
 62
     7
 10
122.7609617781
 20
615.8719931751
 30
0.0
 11
131.315878607
 21
615.8719931751
 31
0.0
  0
LINE
  5
88
  8
0
  6
CONTINUOUS
 62
     7
 10
76.1776971777
 20
543.0520002753
 30
0.0
 11
63.7863790762
 21
543.0520002753
 31
0.0
  0
ARC
  5
89
  8
0
  6
CONTINUOUS
 62
     7
 10
76.1782763681
 20
542.8701534544
 30
0.0
 40
0.1818477432055738
 50
22.8889013726
 51
90.1824890464
  0
LINE
  5
8A
  8
0
  6
CONTINUOUS
 62
     7
 10
81.1009829049
 20
531.5900345355
 30
0.0
 11
76.345805559
 21
542.9408823162
 31
0.0
  0
ARC
  5
8B
  8
0
  6
CONTINUOUS
 62
     7
 10
81.2692148757
 20
531.6615940617
 30
0.0
 40
0.182818931653857
 50
203.0430687422
 51
336.9569312578
  0
LINE
  5
8C
  8
0
  6
CONTINUOUS
 62
     7
 10
86.1926241924
 20
542.9408823162
 30
0.0
 11
81.4374468464
 21
531.5900345355
 31
0.0
  0
ARC
  5
8D
  8
0
  6
CONTINUOUS
 62
     7
 10
86.3601902159
 20
542.870097731
 30
0.0
 40
0.1819033527832837
 50
89.8291683068
 51
157.0994412742
  0
LINE
  5
8E
  8
0
  6
CONTINUOUS
 62
     7
 10
99.7259831202
 20
543.0520002753
 30
0.0
 11
86.3607325737
 21
543.0520002753
 31
0.0
  0
ARC
  5
8F
  8
0
  6
CONTINUOUS
 62
     7
 10
99.7263366409
 20
542.8721096652
 30
0.0
 40
0.1798909574598418
 50
359.9656123459
 51
90.1125974297
  0
LINE
  5
90
  8
0
  6
CONTINUOUS
 62
     7
 10
99.906227566
 20
539.6319975168
 30
0.0
 11
99.906227566
 21
542.8720016986
 31
0.0
  0
ARC
  5
91
  8
0
  6
CONTINUOUS
 62
     7
 10
99.7263523764
 20
539.6318737932
 30
0.0
 40
0.1798752320920729
 50
269.8823804711
 51
0.0394097533
  0
LINE
  5
92
  8
0
  6
CONTINUOUS
 62
     7
 10
99.7259831202
 20
539.4519989401
 30
0.0
 11
88.7912670296
 21
539.4519989401
 31
0.0
  0
ARC
  5
93
  8
0
  6
CONTINUOUS
 62
     7
 10
88.7907226053
 20
539.2703255325
 30
0.0
 40
0.1816742233616715
 50
89.8283011082
 51
157.1473547109
  0
LINE
  5
94
  8
0
  6
CONTINUOUS
 62
     7
 10
82.9879490339
 20
525.8831133157
 30
0.0
 11
88.6233085912
 21
539.3408809811
 31
0.0
  0
ARC
  5
95
  8
0
  6
CONTINUOUS
 62
     7
 10
82.8203191628
 20
525.9540061685
 30
0.0
 40
0.1820043138697693
 50
269.814620133
 51
337.0758659108
  0
LINE
  5
96
  8
0
  6
CONTINUOUS
 62
     7
 10
82.8197302908
 20
525.7720028073
 30
0.0
 11
79.7186994605
 21
525.7720028073
 31
0.0
  0
ARC
  5
97
  8
0
  6
CONTINUOUS
 62
     7
 10
79.7180847857
 20
525.9539671035
 30
0.0
 40
0.1819653344489279
 50
202.9159697321
 51
270.1935442242
  0
LINE
  5
98
  8
0
  6
CONTINUOUS
 62
     7
 10
73.9151211601
 20
539.3408809811
 30
0.0
 11
79.5504807175
 21
525.8831133157
 31
0.0
  0
ARC
  5
99
  8
0
  6
CONTINUOUS
 62
     7
 10
73.7476706316
 20
539.2702703396
 30
0.0
 40
0.1817293102454198
 50
22.8642097059
 51
90.160134475
  0
LINE
  5
9A
  8
0
  6
CONTINUOUS
 62
     7
 10
73.7471627217
 20
539.4519989401
 30
0.0
 11
63.7863790762
 21
539.4519989401
 31
0.0
  0
ARC
  5
9B
  8
0
  6
CONTINUOUS
 62
     7
 10
63.7859354997
 20
539.6319892528
 30
0.0
 40
0.1799908592566369
 50
179.9973693634
 51
270.1412021111
  0
LINE
  5
9C
  8
0
  6
CONTINUOUS
 62
     7
 10
63.6059446406
 20
542.8720016986
 30
0.0
 11
63.6059446406
 21
539.6319975168
 31
0.0
  0
ARC
  5
9D
  8
0
  6
CONTINUOUS
 62
     7
 10
63.7859168543
 20
542.8720286531
 30
0.0
 40
0.1799722157222529
 50
89.8528473231
 51
180.0085812024
  0
LINE
  5
9E
  8
0
  6
CONTINUOUS
 62
     7
 10
76.4023964439
 20
542.9408823162
 30
0.0
 11
76.345805559
 21
542.9408823162
 31
0.0
  0
LINE
  5
9F
  8
0
  6
CONTINUOUS
 62
     7
 10
81.1029166071
 20
531.5900345355
 30
0.0
 11
76.4023964439
 21
542.9408823162
 31
0.0
  0
LINE
  5
A0
  8
0
  6
CONTINUOUS
 62
     7
 10
81.1029166071
 20
531.5900345355
 30
0.0
 11
81.1009829049
 21
531.5900345355
 31
0.0
  0
ARC
  5
A1
  8
0
  6
CONTINUOUS
 62
     7
 10
81.2692148757
 20
531.6593201193
 30
0.0
 40
0.1801543955904591
 50
202.6182909523
 51
337.3817090477
  0
LINE
  5
A2
  8
0
  6
CONTINUOUS
 62
     7
 10
81.4355131443
 20
531.5900345355
 30
0.0
 11
81.4374468464
 21
531.5900345355
 31
0.0
  0
LINE
  5
A3
  8
0
  6
CONTINUOUS
 62
     7
 10
86.1360333074
 20
542.9408823162
 30
0.0
 11
81.4355131443
 21
531.5900345355
 31
0.0
  0
LINE
  5
A4
  8
0
  6
CONTINUOUS
 62
     7
 10
86.1360333074
 20
542.9408823162
 30
0.0
 11
86.1926241924
 21
542.9408823162
 31
0.0
  0
LINE
  5
A5
  8
0
  6
CONTINUOUS
 62
     7
 10
72.8509025794
 20
538.123590222
 30
0.0
 11
63.7863790762
 21
538.123590222
 31
0.0
  0
ARC
  5
A6
  8
0
  6
CONTINUOUS
 62
     7
 10
72.8514096855
 20
537.9419656452
 30
0.0
 40
0.1816252847099077
 50
22.8424356444
 51
90.159972632
  0
LINE
  5
A7
  8
0
  6
CONTINUOUS
 62
     7
 10
78.0384494138
 20
526.0208820015
 30
0.0
 11
73.0187911686
 21
538.012472263
 31
0.0
  0
ARC
  5
A8
  8
0
  6
CONTINUOUS
 62
     7
 10
77.8718045052
 20
525.9522288607
 30
0.0
 40
0.1802325699985704
 50
269.5127744404
 51
22.3903202822
  0
LINE
  5
A9
  8
0
  6
CONTINUOUS
 62
     7
 10
77.8702718817
 20
525.7720028073
 30
0.0
 11
74.3254390691
 21
525.7720028073
 31
0.0
  0
ARC
  5
AA
  8
0
  6
CONTINUOUS
 62
     7
 10
74.3248855756
 20
525.9537121427
 30
0.0
 40
0.1817101784206716
 50
202.8627105947
 51
270.1745245769
  0
LINE
  5
AB
  8
0
  6
CONTINUOUS
 62
     7
 10
73.1962509599
 20
528.1808798224
 30
0.0
 11
74.1574508284
 21
525.8831133157
 31
0.0
  0
ARC
  5
AC
  8
0
  6
CONTINUOUS
 62
     7
 10
73.0288400052
 20
528.1103287369
 30
0.0
 40
0.1816697096452939
 50
22.8517519662
 51
90.1550445065
  0
LINE
  5
AD
  8
0
  6
CONTINUOUS
 62
     7
 10
73.0283484009
 20
528.2919977814
 30
0.0
 11
67.6217619475
 21
528.2919977814
 31
0.0
  0
ARC
  5
AE
  8
0
  6
CONTINUOUS
 62
     7
 10
67.6213905114
 20
528.1110568041
 30
0.0
 40
0.180941358552077
 50
89.8823832284
 51
157.3011482374
  0
LINE
  5
AF
  8
0
  6
CONTINUOUS
 62
     7
 10
66.4974255633
 20
525.8831133157
 30
0.0
 11
67.4544638169
 21
528.1808798224
 31
0.0
  0
ARC
  5
B0
  8
0
  6
CONTINUOUS
 62
     7
 10
66.3305739162
 20
525.9528359967
 30
0.0
 40
0.1808334160969442
 50
269.9092890689
 51
337.3213012938
  0
LINE
  5
B1
  8
0
  6
CONTINUOUS
 62
     7
 10
66.3302876201
 20
525.7720028073
 30
0.0
 11
62.8118338209
 21
525.7720028073
 31
0.0
  0
ARC
  5
B2
  8
0
  6
CONTINUOUS
 62
     7
 10
62.8116414498
 20
525.952024071
 30
0.0
 40
0.1800213665580576
 50
157.5114588042
 51
270.0612263873
  0
LINE
  5
B3
  8
0
  6
CONTINUOUS
 62
     7
 10
66.0746451613
 20
534.274702242
 30
0.0
 11
62.6453096193
 21
526.0208820015
 31
0.0
  0
ARC
  5
B4
  8
0
  6
CONTINUOUS
 62
     7
 10
65.9081996576
 20
534.3434902882
 30
0.0
 40
0.1800996974031207
 50
337.545833103
 51
90.2001413504
  0
LINE
  5
B5
  8
0
  6
CONTINUOUS
 62
     7
 10
65.907570548
 20
534.5235888869
 30
0.0
 11
63.7863790762
 21
534.5235888869
 31
0.0
  0
ARC
  5
B6
  8
0
  6
CONTINUOUS
 62
     7
 10
63.7859324349
 20
534.7035761273
 30
0.0
 40
0.1799877946495703
 50
179.9963913421
 51
270.1421801324
  0
LINE
  5
B7
  8
0
  6
CONTINUOUS
 62
     7
 10
63.6059446406
 20
537.9435841948
 30
0.0
 11
63.6059446406
 21
534.7035874635
 31
0.0
  0
ARC
  5
B8
  8
0
  6
CONTINUOUS
 62
     7
 10
63.7859210875
 20
537.9436143553
 30
0.0
 40
0.1799764494190045
 50
89.854198431
 51
180.0096016508
  0
ARC
  5
B9
  8
0
  6
CONTINUOUS
 62
     7
 10
71.4864709179
 20
531.802550335
 30
0.0
 40
0.180553954484354
 50
269.7958824371
 51
22.2387994292
  0
LINE
  5
BA
  8
0
  6
CONTINUOUS
 62
     7
 10
71.6535942775
 20
531.8708841711
 30
0.0
 11
70.4903379228
 21
534.6554790646
 31
0.0
  0
ARC
  5
BB
  8
0
  6
CONTINUOUS
 62
     7
 10
70.3226989281
 20
534.5843275544
 30
0.0
 40
0.1821136182998742
 50
22.9979666083
 51
157.0020333917
  0
LINE
  5
BC
  8
0
  6
CONTINUOUS
 62
     7
 10
70.1550599333
 20
534.6554790646
 30
0.0
 11
68.9929295477
 21
531.8708841711
 31
0.0
  0
ARC
  5
BD
  8
0
  6
CONTINUOUS
 62
     7
 10
69.1598295762
 20
531.8024005884
 30
0.0
 40
0.1804040481900546
 50
157.6903347438
 51
270.1894386613
  0
LINE
  5
BE
  8
0
  6
CONTINUOUS
 62
     7
 10
71.4858276915
 20
531.6219975263
 30
0.0
 11
69.1604260501
 21
531.6219975263
 31
0.0
  0
POLYLINE
  5
BF
  8
0
  6
CONTINUOUS
 62
     7
 66
     1
 10
0.0
 20
0.0
 30
0.0
  0
VERTEX
  5
3EB
  8
0
  6
CONTINUOUS
 62
     7
 10
94.8741259199
 20
531.1252002627
 30
0.0
  0
VERTEX
  5
3EC
  8
0
  6
CONTINUOUS
 62
     7
 10
96.9956172776
 20
532.4565966636
 30
0.0
  0
VERTEX
  5
3ED
  8
0
  6
CONTINUOUS
 62
     7
 10
98.5307740193
 20
534.4276179582
 30
0.0
  0
SEQEND
  5
644
  8
0
  6
CONTINUOUS
 62
     7
  0
ARC
  5
C0
  8
0
  6
CONTINUOUS
 62
     7
 10
94.9408095929
 20
530.9587901768
 30
0.0
 40
0.1792736147249729
 50
111.8369111521
 51
212.7161796142
  0
LINE
  5
C1
  8
0
  6
CONTINUOUS
 62
     7
 10
97.8711629432
 20
526.0487173706
 30
0.0
 11
94.7899762687
 21
530.8618967444
 31
0.0
  0
ARC
  5
C2
  8
0
  6
CONTINUOUS
 62
     7
 10
97.7193558614
 20
525.9520006619
 30
0.0
 40
0.1799986439898043
 50
269.8303147899
 51
32.501323934
  0
LINE
  5
C3
  8
0
  6
CONTINUOUS
 62
     7
 10
97.7188227844
 20
525.7720028073
 30
0.0
 11
94.1937463504
 21
525.7720028073
 31
0.0
  0
ARC
  5
C4
  8
0
  6
CONTINUOUS
 62
     7
 10
94.1936850719
 20
525.9537574473
 30
0.0
 40
0.1817546503373215
 50
212.805274472
 51
270.0193172322
  0
LINE
  5
C5
  8
0
  6
CONTINUOUS
 62
     7
 10
90.7936431613
 20
530.9125159889
 30
0.0
 11
94.0409172472
 21
525.8552853972
 31
0.0
  0
ARC
  5
C6
  8
0
  6
CONTINUOUS
 62
     7
 10
90.6405229613
 20
530.8136046432
 30
0.0
 40
0.1822889189290527
 50
32.8613238594
 51
157.0486583916
  0
LINE
  5
C7
  8
0
  6
CONTINUOUS
 62
     7
 10
88.380978923
 20
525.8831133157
 30
0.0
 11
90.4726646986
 21
530.8846880704
 31
0.0
  0
ARC
  5
C8
  8
0
  6
CONTINUOUS
 62
     7
 10
88.2135184899
 20
525.9537509772
 30
0.0
 40
0.1817489363436425
 50
269.8336100626
 51
337.1291547659
  0
LINE
  5
C9
  8
0
  6
CONTINUOUS
 62
     7
 10
88.2129906823
 20
525.7720028073
 30
0.0
 11
84.6681578696
 21
525.7720028073
 31
0.0
  0
ARC
  5
CA
  8
0
  6
CONTINUOUS
 62
     7
 10
84.6666255503
 20
525.9522290663
 30
0.0
 40
0.1802327729564653
 50
157.6097769709
 51
270.4871283065
  0
LINE
  5
CB
  8
0
  6
CONTINUOUS
 62
     7
 10
89.5196385827
 20
538.012472263
 30
0.0
 11
84.4999803376
 21
526.0208820015
 31
0.0
  0
ARC
  5
CC
  8
0
  6
CONTINUOUS
 62
     7
 10
89.6870532652
 20
537.9419154843
 30
0.0
 40
0.1816753558456904
 50
89.8505417105
 51
157.1470500131
  0
LINE
  5
CD
  8
0
  6
CONTINUOUS
 62
     7
 10
93.2243205753
 20
538.123590222
 30
0.0
 11
89.6875271719
 21
538.123590222
 31
0.0
  0
ARC
  5
CE
  8
0
  6
CONTINUOUS
 62
     7
 10
93.2253054197
 20
537.9434360643
 30
0.0
 40
0.180156849546593
 50
337.5724614682
 51
90.3132143353
  0
LINE
  5
CF
  8
0
  6
CONTINUOUS
 62
     7
 10
91.8080369156
 20
534.0806742221
 30
0.0
 11
93.3918357041
 21
537.8747035772
 31
0.0
  0
ARC
  5
D0
  8
0
  6
CONTINUOUS
 62
     7
 10
91.9745061471
 20
534.0119376222
 30
0.0
 40
0.180101985501776
 50
157.5638419772
 51
268.0815233582
  0
ARC
  5
D1
  8
0
  6
CONTINUOUS
 62
     7
 10
92.1437504116
 20
537.7979742406
 30
0.0
 40
3.969908340762567
 50
267.4696719924
 51
2.0048274044
  0
ARC
  5
D2
  8
0
  6
CONTINUOUS
 62
     7
 10
96.2907160509
 20
537.9439666769
 30
0.0
 40
0.1796281292437819
 50
89.5906649631
 51
182.2685749526
  0
LINE
  5
D3
  8
0
  6
CONTINUOUS
 62
     7
 10
99.7259831202
 20
538.123590222
 30
0.0
 11
96.2919993472
 21
538.123590222
 31
0.0
  0
ARC
  5
D4
  8
0
  6
CONTINUOUS
 62
     7
 10
99.7263293223
 20
537.9436922789
 30
0.0
 40
0.1798982761765172
 50
359.9655762852
 51
90.1102619295
  0
LINE
  5
D5
  8
0
  6
CONTINUOUS
 62
     7
 10
99.906227566
 20
534.7035874635
 30
0.0
 11
99.906227566
 21
537.9435841948
 31
0.0
  0
ARC
  5
D6
  8
0
  6
CONTINUOUS
 62
     7
 10
99.726359727
 20
534.7034563794
 30
0.0
 40
0.179867886789069
 50
269.8800342016
 51
0.0417560228
  0
LINE
  5
D7
  8
0
  6
CONTINUOUS
 62
     7
 10
99.7259831202
 20
534.5235888869
 30
0.0
 11
98.6903784942
 21
534.5235888869
 31
0.0
  0
ARC
  5
D8
  8
0
  6
CONTINUOUS
 62
     7
 10
98.6904320587
 20
534.3427992128
 30
0.0
 40
0.1807896819723366
 50
90.0169756321
 51
152.0204103185
  0
LINE
  5
D9
  8
0
  6
CONTINUOUS
 62
     7
 10
78.0755847373
 20
526.0208820015
 30
0.0
 11
78.0384494138
 21
526.0208820015
 31
0.0
  0
ARC
  5
DA
  8
0
  6
CONTINUOUS
 62
     7
 10
77.908743924
 20
525.9523641168
 30
0.0
 40
0.1803622950715775
 50
270.1894085807
 51
22.326887182
  0
LINE
  5
DB
  8
0
  6
CONTINUOUS
 62
     7
 10
77.9093401652
 20
525.7720028073
 30
0.0
 11
77.8702718817
 21
525.7720028073
 31
0.0
  0
LINE
  5
DC
  8
0
  6
CONTINUOUS
 62
     7
 10
73.1136230898
 20
538.012472263
 30
0.0
 11
73.0187911686
 21
538.012472263
 31
0.0
  0
LINE
  5
DD
  8
0
  6
CONTINUOUS
 62
     7
 10
78.0755847373
 20
526.0208820015
 30
0.0
 11
73.1136230898
 21
538.012472263
 31
0.0
  0
LINE
  5
DE
  8
0
  6
CONTINUOUS
 62
     7
 10
84.4628450141
 20
526.0208820015
 30
0.0
 11
84.4999803376
 21
526.0208820015
 31
0.0
  0
LINE
  5
DF
  8
0
  6
CONTINUOUS
 62
     7
 10
89.4248066616
 20
538.012472263
 30
0.0
 11
84.4628450141
 21
526.0208820015
 31
0.0
  0
LINE
  5
E0
  8
0
  6
CONTINUOUS
 62
     7
 10
89.4248066616
 20
538.012472263
 30
0.0
 11
89.5196385827
 21
538.012472263
 31
0.0
  0
LINE
  5
E1
  8
0
  6
CONTINUOUS
 62
     7
 10
84.6290895861
 20
525.7720028073
 30
0.0
 11
84.6681578696
 21
525.7720028073
 31
0.0
  0
ARC
  5
E2
  8
0
  6
CONTINUOUS
 62
     7
 10
84.6295111517
 20
525.9522474382
 30
0.0
 40
0.1802451239720955
 50
157.6177103754
 51
269.8659938619
  0
LINE
  5
E3
  8
0
  6
CONTINUOUS
 62
     7
 10
128.1416183483
 20
574.8328913957
 30
0.0
 11
128.299686141
 21
574.7902442724
 31
0.0
  0
LINE
  5
E4
  8
0
  6
CONTINUOUS
 62
     7
 10
126.6445545625
 20
555.8719982415
 30
0.0
 11
128.299686141
 21
574.7902442724
 31
0.0
  0
LINE
  5
E5
  8
0
  6
CONTINUOUS
 62
     7
 10
126.6445545625
 20
555.8719982415
 30
0.0
 11
114.3034761917
 21
555.8719982415
 31
0.0
  0
POLYLINE
  5
E6
  8
0
  6
CONTINUOUS
 62
     7
 66
     1
 10
0.0
 20
0.0
 30
0.0
  0
VERTEX
  5
3EE
  8
0
  6
CONTINUOUS
 62
     7
 10
112.9432721209
 20
572.9397659212
 30
0.0
  0
VERTEX
  5
3EF
  8
0
  6
CONTINUOUS
 62
     7
 10
113.9402082336
 20
560.4891453892
 30
0.0
  0
VERTEX
  5
3F0
  8
0
  6
CONTINUOUS
 62
     7
 10
114.3034761917
 20
555.8719982415
 30
0.0
  0
SEQEND
  5
643
  8
0
  6
CONTINUOUS
 62
     7
  0
LINE
  5
E7
  8
0
  6
CONTINUOUS
 62
     7
 10
35.8938751888
 20
555.8719982415
 30
0.0
 11
48.2349535596
 21
555.8719982415
 31
0.0
  0
LINE
  5
E8
  8
0
  6
CONTINUOUS
 62
     7
 10
35.8938751888
 20
555.8719982415
 30
0.0
 11
34.2387436104
 21
574.7902442724
 31
0.0
  0
LINE
  5
E9
  8
0
  6
CONTINUOUS
 62
     7
 10
34.396811403
 20
574.8328913957
 30
0.0
 11
34.2387436104
 21
574.7902442724
 31
0.0
  0
POLYLINE
  5
EA
  8
0
  6
CONTINUOUS
 62
     7
 66
     1
 10
0.0
 20
0.0
 30
0.0
  0
VERTEX
  5
3F1
  8
0
  6
CONTINUOUS
 62
     7
 10
49.5951576304
 20
572.9397659212
 30
0.0
  0
VERTEX
  5
3F2
  8
0
  6
CONTINUOUS
 62
     7
 10
48.5982215178
 20
560.4891453892
 30
0.0
  0
VERTEX
  5
3F3
  8
0
  6
CONTINUOUS
 62
     7
 10
48.2349535596
 20
555.8719982415
 30
0.0
  0
SEQEND
  5
642
  8
0
  6
CONTINUOUS
 62
     7
  0
ARC
  5
EB
  8
0
  6
CONTINUOUS
 62
     7
 10
86.3028054288
 20
542.8712923764
 30
0.0
 40
0.1807088824425702
 50
90.1890431512
 51
157.3504124946
  0
LINE
  5
EC
  8
0
  6
CONTINUOUS
 62
     7
 10
86.3022091944
 20
543.0520002753
 30
0.0
 11
86.3607325737
 21
543.0520002753
 31
0.0
  0
LINE
  5
ED
  8
0
  6
CONTINUOUS
 62
     7
 10
76.2362205569
 20
543.0520002753
 30
0.0
 11
76.1776971777
 21
543.0520002753
 31
0.0
  0
ARC
  5
EE
  8
0
  6
CONTINUOUS
 62
     7
 10
76.235642489
 20
542.8713195442
 30
0.0
 40
0.1806816558228733
 50
22.6438552223
 51
89.8166891319
  0
LINE
  5
EF
  8
0
  6
CONTINUOUS
 62
     7
 10
72.9476642009
 20
538.123590222
 30
0.0
 11
72.8509025794
 21
538.123590222
 31
0.0
  0
ARC
  5
F0
  8
0
  6
CONTINUOUS
 62
     7
 10
72.9470194896
 20
537.9431353922
 30
0.0
 40
0.1804559814495851
 50
22.5960385492
 51
89.7953001161
  0
ARC
  5
F1
  8
0
  6
CONTINUOUS
 62
     7
 10
89.5914470437
 20
537.943080457
 30
0.0
 40
0.1805110514301509
 50
90.216312419
 51
157.3923489158
  0
LINE
  5
F2
  8
0
  6
CONTINUOUS
 62
     7
 10
89.5907655504
 20
538.123590222
 30
0.0
 11
89.6875271719
 21
538.123590222
 31
0.0
  0
LINE
  5
F3
  8
0
  6
CONTINUOUS
 62
     7
 10
90.684167124
 20
530.9125159889
 30
0.0
 11
90.7936431613
 21
530.9125159889
 31
0.0
  0
LINE
  5
F4
  8
0
  6
CONTINUOUS
 62
     7
 10
93.8941156637
 20
525.8552853972
 30
0.0
 11
94.0409172472
 21
525.8552853972
 31
0.0
  0
LINE
  5
F5
  8
0
  6
CONTINUOUS
 62
     7
 10
90.684167124
 20
530.9125159889
 30
0.0
 11
93.8941156637
 21
525.8552853972
 31
0.0
  0
ARC
  5
F6
  8
0
  6
CONTINUOUS
 62
     7
 10
91.9970477864
 20
537.7758926692
 30
0.0
 40
3.946866738512934
 50
267.7994375538
 51
2.3373214568
  0
LINE
  5
F7
  8
0
  6
CONTINUOUS
 62
     7
 10
95.9406308976
 20
537.9368563205
 30
0.0
 11
96.1112287041
 21
537.9368563205
 31
0.0
  0
LINE
  5
F8
  8
0
  6
CONTINUOUS
 62
     7
 10
70.2828085196
 20
534.6554790646
 30
0.0
 11
70.1550599333
 21
534.6554790646
 31
0.0
  0
LINE
  5
F9
  8
0
  6
CONTINUOUS
 62
     7
 10
69.134037025
 20
531.8708841711
 30
0.0
 11
68.9929295477
 21
531.8708841711
 31
0.0
  0
LINE
  5
FA
  8
0
  6
CONTINUOUS
 62
     7
 10
70.2828085196
 20
534.6554790646
 30
0.0
 11
69.134037025
 21
531.8708841711
 31
0.0
  0
LINE
  5
FB
  8
0
  6
CONTINUOUS
 62
     7
 10
94.0451892239
 20
525.7720028073
 30
0.0
 11
94.1937463504
 21
525.7720028073
 31
0.0
  0
ARC
  5
FC
  8
0
  6
CONTINUOUS
 62
     7
 10
94.0458971015
 20
525.9519509428
 30
0.0
 40
0.1799495278318816
 50
212.4919722607
 51
269.7746117565
  0
LINE
  5
FD
  8
0
  6
CONTINUOUS
 62
     7
 10
67.6132543158
 20
528.1808798224
 30
0.0
 11
67.4544638169
 21
528.1808798224
 31
0.0
  0
LINE
  5
FE
  8
0
  6
CONTINUOUS
 62
     7
 10
66.6672159132
 20
525.8831133157
 30
0.0
 11
67.6132543158
 21
528.1808798224
 31
0.0
  0
LINE
  5
FF
  8
0
  6
CONTINUOUS
 62
     7
 10
66.6672159132
 20
525.8831133157
 30
0.0
 11
66.4974255633
 21
525.8831133157
 31
0.0
  0
ARC
  5
100
  8
0
  6
CONTINUOUS
 62
     7
 10
66.5011306845
 20
525.951684704
 30
0.0
 40
0.1796839962191006
 50
270.2769725603
 51
337.565802986
  0
LINE
  5
101
  8
0
  6
CONTINUOUS
 62
     7
 10
66.5019992885
 20
525.7720028073
 30
0.0
 11
66.3302876201
 21
525.7720028073
 31
0.0
  0
ARC
  5
102
  8
0
  6
CONTINUOUS
 62
     7
 10
96.1194657406
 20
537.9445883633
 30
0.0
 40
0.1790019150121023
 50
90.0454458485
 51
182.475679101
  0
LINE
  5
103
  8
0
  6
CONTINUOUS
 62
     7
 10
96.11932376
 20
538.123590222
 30
0.0
 11
96.2919993472
 21
538.123590222
 31
0.0
  0
LINE
  5
104
  8
0
  6
CONTINUOUS
 62
     7
 10
108.9407866966
 20
450.1909913285
 30
0.0
 11
110.4970546585
 21
457.1966759883
 31
0.0
  0
ARC
  5
105
  8
0
  6
CONTINUOUS
 62
     7
 10
81.2692148757
 20
344.8688998754
 30
0.0
 40
108.8965510706649
 50
75.2792162603
 51
104.7207837397
  0
LINE
  5
106
  8
0
  6
CONTINUOUS
 62
     7
 10
53.5976430547
 20
450.1909913285
 30
0.0
 11
52.0413750928
 21
457.1966759883
 31
0.0
  0
LINE
  5
107
  8
0
  6
CONTINUOUS
 62
     7
 10
108.9407866966
 20
450.1909913285
 30
0.0
 11
102.5804421079
 21
420.4967034072
 31
0.0
  0
LINE
  5
108
  8
0
  6
CONTINUOUS
 62
     7
 10
53.5976430547
 20
450.1909913285
 30
0.0
 11
59.9579876435
 21
420.4967034072
 31
0.0
  0
LINE
  5
109
  8
0
  6
CONTINUOUS
 62
     7
 10
94.2035280314
 20
657.8720037848
 30
0.0
 11
103.3676387888
 21
657.8720037848
 31
0.0
  0
LINE
  5
10A
  8
0
  6
CONTINUOUS
 62
     7
 10
103.3676387888
 20
657.8720037848
 30
0.0
 11
104.7260379565
 21
657.8720037848
 31
0.0
  0
LINE
  5
10B
  8
0
  6
CONTINUOUS
 62
     7
 10
105.966606192
 20
657.8720037848
 30
0.0
 11
105.9997482371
 21
657.8720037848
 31
0.0
  0
LINE
  5
10C
  8
0
  6
CONTINUOUS
 62
     7
 10
105.9997407865
 20
657.8722720057
 30
0.0
 11
106.0179518682
 21
657.8720037848
 31
0.0
  0
LINE
  5
10D
  8
0
  6
CONTINUOUS
 62
     7
 10
106.0179518682
 20
657.8720037848
 30
0.0
 11
106.022319771
 21
657.8720186859
 31
0.0
  0
LINE
  5
10E
  8
0
  6
CONTINUOUS
 62
     7
 10
106.022319771
 20
657.8720186859
 30
0.0
 11
106.0369527113
 21
657.872301808
 31
0.0
  0
LINE
  5
10F
  8
0
  6
CONTINUOUS
 62
     7
 10
106.0369601619
 20
657.8720037848
 30
0.0
 11
106.0761129629
 21
657.8720037848
 31
0.0
  0
LINE
  5
110
  8
0
  6
CONTINUOUS
 62
     7
 10
115.8028608334
 20
657.8720037848
 30
0.0
 11
116.2692150247
 21
657.8720037848
 31
0.0
  0
LINE
  5
111
  8
0
  6
CONTINUOUS
 62
     7
 10
46.2692147267
 20
657.8720037848
 30
0.0
 11
46.7356136215
 21
657.8720037848
 31
0.0
  0
LINE
  5
112
  8
0
  6
CONTINUOUS
 62
     7
 10
55.6293642294
 20
657.8720037848
 30
0.0
 11
56.5159926337
 21
657.8720037848
 31
0.0
  0
LINE
  5
113
  8
0
  6
CONTINUOUS
 62
     7
 10
56.515938617
 20
657.8720186859
 30
0.0
 11
56.5204778832
 21
657.8720037848
 31
0.0
  0
LINE
  5
114
  8
0
  6
CONTINUOUS
 62
     7
 10
57.8123917949
 20
657.8720037848
 30
0.0
 11
57.9524403584
 21
657.8720037848
 31
0.0
  0
LINE
  5
115
  8
0
  6
CONTINUOUS
 62
     7
 10
57.9524403584
 20
657.8720037848
 30
0.0
 11
58.4192304086
 21
657.8720037848
 31
0.0
  0
LINE
  5
116
  8
0
  6
CONTINUOUS
 62
     7
 10
58.4192304086
 20
657.8720037848
 30
0.0
 11
58.7954232615
 21
657.8720037848
 31
0.0
  0
LINE
  5
117
  8
0
  6
CONTINUOUS
 62
     7
 10
58.7954232615
 20
657.8720037848
 30
0.0
 11
59.1707909626
 21
657.8720037848
 31
0.0
  0
LINE
  5
118
  8
0
  6
CONTINUOUS
 62
     7
 10
59.1707909626
 20
657.8720037848
 30
0.0
 11
68.33490172
 21
657.8720037848
 31
0.0
  0
LINE
  5
119
  8
0
  6
CONTINUOUS
 62
     7
 10
68.33490172
 20
657.8720037848
 30
0.0
 11
94.2035280314
 21
657.8720037848
 31
0.0
  0
LINE
  5
11A
  8
0
  6
CONTINUOUS
 62
     7
 10
42.5697704923
 20
497.6565402955
 30
0.0
 11
34.8115814996
 21
532.6514665991
 31
0.0
  0
POLYLINE
  5
11B
  8
0
  6
CONTINUOUS
 62
     7
 66
     1
 10
0.0
 20
0.0
 30
0.0
  0
VERTEX
  5
3F4
  8
0
  6
CONTINUOUS
 62
     7
 10
39.6143151593
 20
512.7368246228
 30
0.0
  0
VERTEX
  5
3F5
  8
0
  6
CONTINUOUS
 62
     7
 10
38.2639942837
 20
518.5391281754
 30
0.0
  0
VERTEX
  5
3F6
  8
0
  6
CONTINUOUS
 62
     7
 10
37.1324224543
 20
523.3531941682
 30
0.0
  0
VERTEX
  5
3F7
  8
0
  6
CONTINUOUS
 62
     7
 10
36.2206502032
 20
527.1745448023
 30
0.0
  0
VERTEX
  5
3F8
  8
0
  6
CONTINUOUS
 62
     7
 10
35.5295268965
 20
529.9996336013
 30
0.0
  0
VERTEX
  5
3F9
  8
0
  6
CONTINUOUS
 62
     7
 10
35.059693284
 20
531.8258379608
 30
0.0
  0
VERTEX
  5
3FA
  8
0
  6
CONTINUOUS
 62
     7
 10
34.8115814996
 20
532.6514665991
 30
0.0
  0
SEQEND
  5
641
  8
0
  6
CONTINUOUS
 62
     7
  0
POLYLINE
  5
11C
  8
0
  6
CONTINUOUS
 62
     7
 66
     1
 10
0.0
 20
0.0
 30
0.0
  0
VERTEX
  5
3FB
  8
0
  6
CONTINUOUS
 62
     7
 10
52.0413750928
 20
457.1966759883
 30
0.0
  0
VERTEX
  5
3FC
  8
0
  6
CONTINUOUS
 62
     7
 10
50.9723881405
 20
462.007004118
 30
0.0
  0
VERTEX
  5
3FD
  8
0
  6
CONTINUOUS
 62
     7
 10
49.9250320863
 20
466.7168979555
 30
0.0
  0
VERTEX
  5
3FE
  8
0
  6
CONTINUOUS
 62
     7
 10
48.9040194225
 20
471.3051666528
 30
0.0
  0
VERTEX
  5
3FF
  8
0
  6
CONTINUOUS
 62
     7
 10
47.9139415693
 20
475.7511646509
 30
0.0
  0
VERTEX
  5
400
  8
0
  6
CONTINUOUS
 62
     7
 10
46.9592576992
 20
480.034887141
 30
0.0
  0
VERTEX
  5
401
  8
0
  6
CONTINUOUS
 62
     7
 10
46.044263072
 20
484.137059471
 30
0.0
  0
VERTEX
  5
402
  8
0
  6
CONTINUOUS
 62
     7
 10
45.1730704081
 20
488.0392228276
 30
0.0
  0
VERTEX
  5
403
  8
0
  6
CONTINUOUS
 62
     7
 10
44.3496061635
 20
491.7238255054
 30
0.0
  0
VERTEX
  5
404
  8
0
  6
CONTINUOUS
 62
     7
 10
43.5775695514
 20
495.1742825121
 30
0.0
  0
VERTEX
  5
405
  8
0
  6
CONTINUOUS
 62
     7
 10
42.8604362678
 20
498.375070563
 30
0.0
  0
VERTEX
  5
406
  8
0
  6
CONTINUOUS
 62
     7
 10
42.201432414
 20
501.3117876858
 30
0.0
  0
VERTEX
  5
407
  8
0
  6
CONTINUOUS
 62
     7
 10
41.6035233211
 20
503.9712202758
 30
0.0
  0
VERTEX
  5
408
  8
0
  6
CONTINUOUS
 62
     7
 10
41.069402374
 20
506.3414027005
 30
0.0
  0
VERTEX
  5
409
  8
0
  6
CONTINUOUS
 62
     7
 10
40.6014686596
 20
508.411669454
 30
0.0
  0
VERTEX
  5
40A
  8
0
  6
CONTINUOUS
 62
     7
 10
40.2018306923
 20
510.1727073103
 30
0.0
  0
VERTEX
  5
40B
  8
0
  6
CONTINUOUS
 62
     7
 10
39.8722840619
 20
511.6165925771
 30
0.0
  0
VERTEX
  5
40C
  8
0
  6
CONTINUOUS
 62
     7
 10
39.6143151593
 20
512.7368246228
 30
0.0
  0
SEQEND
  5
640
  8
0
  6
CONTINUOUS
 62
     7
  0
POLYLINE
  5
11D
  8
0
  6
CONTINUOUS
 62
     7
 66
     1
 10
0.0
 20
0.0
 30
0.0
  0
VERTEX
  5
40D
  8
0
  6
CONTINUOUS
 62
     7
 10
59.9579876435
 20
420.4967034072
 30
0.0
  0
VERTEX
  5
40E
  8
0
  6
CONTINUOUS
 62
     7
 10
59.2882027995
 20
423.614739722
 30
0.0
  0
VERTEX
  5
40F
  8
0
  6
CONTINUOUS
 62
     7
 10
58.573977105
 20
426.9224044889
 30
0.0
  0
VERTEX
  5
410
  8
0
  6
CONTINUOUS
 62
     7
 10
57.8202968609
 20
430.396600908
 30
0.0
  0
VERTEX
  5
411
  8
0
  6
CONTINUOUS
 62
     7
 10
57.0324259025
 20
434.0130698889
 30
0.0
  0
VERTEX
  5
412
  8
0
  6
CONTINUOUS
 62
     7
 10
56.2158646208
 20
437.7465595514
 30
0.0
  0
VERTEX
  5
413
  8
0
  6
CONTINUOUS
 62
     7
 10
55.3763145727
 20
441.5710003138
 30
0.0
  0
VERTEX
  5
414
  8
0
  6
CONTINUOUS
 62
     7
 10
54.5196393651
 20
445.459688364
 30
0.0
  0
VERTEX
  5
415
  8
0
  6
CONTINUOUS
 62
     7
 10
53.6518180889
 20
449.3854695953
 30
0.0
  0
VERTEX
  5
416
  8
0
  6
CONTINUOUS
 62
     7
 10
52.7789117914
 20
453.3209323905
 30
0.0
  0
VERTEX
  5
417
  8
0
  6
CONTINUOUS
 62
     7
 10
51.9070169103
 20
457.2385971457
 30
0.0
  0
VERTEX
  5
418
  8
0
  6
CONTINUOUS
 62
     7
 10
51.0422205698
 20
461.1111081228
 30
0.0
  0
VERTEX
  5
419
  8
0
  6
CONTINUOUS
 62
     7
 10
50.190559603
 20
464.9114257678
 30
0.0
  0
VERTEX
  5
41A
  8
0
  6
CONTINUOUS
 62
     7
 10
49.3579832983
 20
468.6130129755
 30
0.0
  0
VERTEX
  5
41B
  8
0
  6
CONTINUOUS
 62
     7
 10
48.5503031087
 20
472.1900255442
 30
0.0
  0
VERTEX
  5
41C
  8
0
  6
CONTINUOUS
 62
     7
 10
47.7731628489
 20
475.6174844712
 30
0.0
  0
VERTEX
  5
41D
  8
0
  6
CONTINUOUS
 62
     7
 10
47.0319828164
 20
478.871456629
 30
0.0
  0
VERTEX
  5
41E
  8
0
  6
CONTINUOUS
 62
     7
 10
46.3319411647
 20
481.9292214721
 30
0.0
  0
VERTEX
  5
41F
  8
0
  6
CONTINUOUS
 62
     7
 10
45.6779291999
 20
484.7694312245
 30
0.0
  0
VERTEX
  5
420
  8
0
  6
CONTINUOUS
 62
     7
 10
45.0745104027
 20
487.3722468525
 30
0.0
  0
VERTEX
  5
421
  8
0
  6
CONTINUOUS
 62
     7
 10
44.525894351
 20
489.7195038408
 30
0.0
  0
VERTEX
  5
422
  8
0
  6
CONTINUOUS
 62
     7
 10
44.0359218192
 20
491.7948034614
 30
0.0
  0
VERTEX
  5
423
  8
0
  6
CONTINUOUS
 62
     7
 10
43.6080051732
 20
493.5836580604
 30
0.0
  0
VERTEX
  5
424
  8
0
  6
CONTINUOUS
 62
     7
 10
43.2451358211
 20
495.0735767394
 30
0.0
  0
VERTEX
  5
425
  8
0
  6
CONTINUOUS
 62
     7
 10
42.9498469603
 20
496.2541547626
 30
0.0
  0
VERTEX
  5
426
  8
0
  6
CONTINUOUS
 62
     7
 10
42.7241986763
 20
497.1171517879
 30
0.0
  0
VERTEX
  5
427
  8
0
  6
CONTINUOUS
 62
     7
 10
42.5697704923
 20
497.6565402955
 30
0.0
  0
SEQEND
  5
63F
  8
0
  6
CONTINUOUS
 62
     7
  0
POLYLINE
  5
11E
  8
0
  6
CONTINUOUS
 62
     7
 66
     1
 10
0.0
 20
0.0
 30
0.0
  0
VERTEX
  5
428
  8
0
  6
CONTINUOUS
 62
     7
 10
110.4970546585
 20
457.1966759883
 30
0.0
  0
VERTEX
  5
429
  8
0
  6
CONTINUOUS
 62
     7
 10
111.5660416108
 20
462.007004118
 30
0.0
  0
VERTEX
  5
42A
  8
0
  6
CONTINUOUS
 62
     7
 10
112.613397665
 20
466.7168979555
 30
0.0
  0
VERTEX
  5
42B
  8
0
  6
CONTINUOUS
 62
     7
 10
113.6344103288
 20
471.3051666528
 30
0.0
  0
VERTEX
  5
42C
  8
0
  6
CONTINUOUS
 62
     7
 10
114.624488182
 20
475.7511646509
 30
0.0
  0
VERTEX
  5
42D
  8
0
  6
CONTINUOUS
 62
     7
 10
115.5791720521
 20
480.034887141
 30
0.0
  0
VERTEX
  5
42E
  8
0
  6
CONTINUOUS
 62
     7
 10
116.4941666794
 20
484.137059471
 30
0.0
  0
VERTEX
  5
42F
  8
0
  6
CONTINUOUS
 62
     7
 10
117.3653593433
 20
488.0392228276
 30
0.0
  0
VERTEX
  5
430
  8
0
  6
CONTINUOUS
 62
     7
 10
118.1888235879
 20
491.7238255054
 30
0.0
  0
VERTEX
  5
431
  8
0
  6
CONTINUOUS
 62
     7
 10
118.9608601999
 20
495.1742825121
 30
0.0
  0
VERTEX
  5
432
  8
0
  6
CONTINUOUS
 62
     7
 10
119.6779934835
 20
498.375070563
 30
0.0
  0
VERTEX
  5
433
  8
0
  6
CONTINUOUS
 62
     7
 10
120.3369973373
 20
501.3117876858
 30
0.0
  0
VERTEX
  5
434
  8
0
  6
CONTINUOUS
 62
     7
 10
120.9349064302
 20
503.9712202758
 30
0.0
  0
VERTEX
  5
435
  8
0
  6
CONTINUOUS
 62
     7
 10
121.4690273773
 20
506.3414027005
 30
0.0
  0
VERTEX
  5
436
  8
0
  6
CONTINUOUS
 62
     7
 10
121.9369610917
 20
508.411669454
 30
0.0
  0
VERTEX
  5
437
  8
0
  6
CONTINUOUS
 62
     7
 10
122.3365990591
 20
510.1727073103
 30
0.0
  0
VERTEX
  5
438
  8
0
  6
CONTINUOUS
 62
     7
 10
122.6661456895
 20
511.6165925771
 30
0.0
  0
VERTEX
  5
439
  8
0
  6
CONTINUOUS
 62
     7
 10
122.9241145921
 20
512.7368246228
 30
0.0
  0
SEQEND
  5
63E
  8
0
  6
CONTINUOUS
 62
     7
  0
POLYLINE
  5
11F
  8
0
  6
CONTINUOUS
 62
     7
 66
     1
 10
0.0
 20
0.0
 30
0.0
  0
VERTEX
  5
43A
  8
0
  6
CONTINUOUS
 62
     7
 10
122.9241145921
 20
512.7368246228
 30
0.0
  0
VERTEX
  5
43B
  8
0
  6
CONTINUOUS
 62
     7
 10
124.2744354677
 20
518.5391281754
 30
0.0
  0
VERTEX
  5
43C
  8
0
  6
CONTINUOUS
 62
     7
 10
125.406007297
 20
523.3531941682
 30
0.0
  0
VERTEX
  5
43D
  8
0
  6
CONTINUOUS
 62
     7
 10
126.3177795481
 20
527.1745448023
 30
0.0
  0
VERTEX
  5
43E
  8
0
  6
CONTINUOUS
 62
     7
 10
127.0089028549
 20
529.9996336013
 30
0.0
  0
VERTEX
  5
43F
  8
0
  6
CONTINUOUS
 62
     7
 10
127.4787364673
 20
531.8258379608
 30
0.0
  0
VERTEX
  5
440
  8
0
  6
CONTINUOUS
 62
     7
 10
127.7268482518
 20
532.6514665991
 30
0.0
  0
SEQEND
  5
63D
  8
0
  6
CONTINUOUS
 62
     7
  0
LINE
  5
120
  8
0
  6
CONTINUOUS
 62
     7
 10
119.9686592591
 20
497.6565402955
 30
0.0
 11
127.7268482518
 21
532.6514665991
 31
0.0
  0
POLYLINE
  5
121
  8
0
  6
CONTINUOUS
 62
     7
 66
     1
 10
0.0
 20
0.0
 30
0.0
  0
VERTEX
  5
441
  8
0
  6
CONTINUOUS
 62
     7
 10
102.5804421079
 20
420.4967034072
 30
0.0
  0
VERTEX
  5
442
  8
0
  6
CONTINUOUS
 62
     7
 10
103.2502269518
 20
423.614739722
 30
0.0
  0
VERTEX
  5
443
  8
0
  6
CONTINUOUS
 62
     7
 10
103.9644526464
 20
426.9224044889
 30
0.0
  0
VERTEX
  5
444
  8
0
  6
CONTINUOUS
 62
     7
 10
104.7181328904
 20
430.396600908
 30
0.0
  0
VERTEX
  5
445
  8
0
  6
CONTINUOUS
 62
     7
 10
105.5060038489
 20
434.0130698889
 30
0.0
  0
VERTEX
  5
446
  8
0
  6
CONTINUOUS
 62
     7
 10
106.3225651306
 20
437.7465595514
 30
0.0
  0
VERTEX
  5
447
  8
0
  6
CONTINUOUS
 62
     7
 10
107.1621151787
 20
441.5710003138
 30
0.0
  0
VERTEX
  5
448
  8
0
  6
CONTINUOUS
 62
     7
 10
108.0187903863
 20
445.459688364
 30
0.0
  0
VERTEX
  5
449
  8
0
  6
CONTINUOUS
 62
     7
 10
108.8866116625
 20
449.3854695953
 30
0.0
  0
VERTEX
  5
44A
  8
0
  6
CONTINUOUS
 62
     7
 10
109.7595179599
 20
453.3209323905
 30
0.0
  0
VERTEX
  5
44B
  8
0
  6
CONTINUOUS
 62
     7
 10
110.6314128411
 20
457.2385971457
 30
0.0
  0
VERTEX
  5
44C
  8
0
  6
CONTINUOUS
 62
     7
 10
111.4962091815
 20
461.1111081228
 30
0.0
  0
VERTEX
  5
44D
  8
0
  6
CONTINUOUS
 62
     7
 10
112.3478701484
 20
464.9114257678
 30
0.0
  0
VERTEX
  5
44E
  8
0
  6
CONTINUOUS
 62
     7
 10
113.1804464531
 20
468.6130129755
 30
0.0
  0
VERTEX
  5
44F
  8
0
  6
CONTINUOUS
 62
     7
 10
113.9881266427
 20
472.1900255442
 30
0.0
  0
VERTEX
  5
450
  8
0
  6
CONTINUOUS
 62
     7
 10
114.7652669024
 20
475.6174844712
 30
0.0
  0
VERTEX
  5
451
  8
0
  6
CONTINUOUS
 62
     7
 10
115.5064469349
 20
478.871456629
 30
0.0
  0
VERTEX
  5
452
  8
0
  6
CONTINUOUS
 62
     7
 10
116.2064885866
 20
481.9292214721
 30
0.0
  0
VERTEX
  5
453
  8
0
  6
CONTINUOUS
 62
     7
 10
116.8605005514
 20
484.7694312245
 30
0.0
  0
VERTEX
  5
454
  8
0
  6
CONTINUOUS
 62
     7
 10
117.4639193487
 20
487.3722468525
 30
0.0
  0
VERTEX
  5
455
  8
0
  6
CONTINUOUS
 62
     7
 10
118.0125354004
 20
489.7195038408
 30
0.0
  0
VERTEX
  5
456
  8
0
  6
CONTINUOUS
 62
     7
 10
118.5025079322
 20
491.7948034614
 30
0.0
  0
VERTEX
  5
457
  8
0
  6
CONTINUOUS
 62
     7
 10
118.9304245782
 20
493.5836580604
 30
0.0
  0
VERTEX
  5
458
  8
0
  6
CONTINUOUS
 62
     7
 10
119.2932939303
 20
495.0735767394
 30
0.0
  0
VERTEX
  5
459
  8
0
  6
CONTINUOUS
 62
     7
 10
119.5885827911
 20
496.2541547626
 30
0.0
  0
VERTEX
  5
45A
  8
0
  6
CONTINUOUS
 62
     7
 10
119.814231075
 20
497.1171517879
 30
0.0
  0
VERTEX
  5
45B
  8
0
  6
CONTINUOUS
 62
     7
 10
119.9686592591
 20
497.6565402955
 30
0.0
  0
SEQEND
  5
63C
  8
0
  6
CONTINUOUS
 62
     7
  0
LINE
  5
122
  8
0
  6
CONTINUOUS
 62
     7
 10
30.5959573161
 20
575.8720015198
 30
0.0
 11
24.6441019845
 21
575.8720015198
 31
0.0
  0
LINE
  5
123
  8
0
  6
CONTINUOUS
 62
     7
 10
29.7384774458
 20
585.8720068842
 30
0.0
 11
23.7692138326
 21
585.8720068842
 31
0.0
  0
LINE
  5
124
  8
0
  6
CONTINUOUS
 62
     7
 10
131.9424724352
 20
575.8720015198
 30
0.0
 11
137.8943277669
 21
575.8720015198
 31
0.0
  0
LINE
  5
125
  8
0
  6
CONTINUOUS
 62
     7
 10
132.7999523055
 20
585.8720068842
 30
0.0
 11
138.7692159188
 21
585.8720068842
 31
0.0
  0
LINE
  5
126
  8
0
  6
CONTINUOUS
 62
     7
 10
29.8252841604
 20
597.8720014006
 30
0.0
 11
24.0834457946
 21
597.8720014006
 31
0.0
  0
LINE
  5
127
  8
0
  6
CONTINUOUS
 62
     7
 10
31.2225511443
 20
597.8720014006
 30
0.0
 11
29.8252841604
 21
597.8720014006
 31
0.0
  0
LINE
  5
128
  8
0
  6
CONTINUOUS
 62
     7
 10
131.315878607
 20
597.8720014006
 30
0.0
 11
132.713145591
 21
597.8720014006
 31
0.0
  0
LINE
  5
129
  8
0
  6
CONTINUOUS
 62
     7
 10
138.4549839568
 20
597.8720014006
 30
0.0
 11
132.713145591
 21
597.8720014006
 31
0.0
  0
LINE
  5
12A
  8
0
  6
CONTINUOUS
 62
     7
 10
29.8252841604
 20
615.8719931751
 30
0.0
 11
29.8252841604
 21
597.8720014006
 31
0.0
  0
LINE
  5
12B
  8
0
  6
CONTINUOUS
 62
     7
 10
29.8252841604
 20
615.8719931751
 30
0.0
 11
31.2225511443
 21
615.8719931751
 31
0.0
  0
LINE
  5
12C
  8
0
  6
CONTINUOUS
 62
     7
 10
132.713145591
 20
615.8719931751
 30
0.0
 11
132.713145591
 21
597.8720014006
 31
0.0
  0
LINE
  5
12D
  8
0
  6
CONTINUOUS
 62
     7
 10
131.315878607
 20
615.8719931751
 30
0.0
 11
132.713145591
 21
615.8719931751
 31
0.0
  0
LINE
  5
12E
  8
0
  6
CONTINUOUS
 62
     7
 10
68.33490172
 20
676.3720040232
 30
0.0
 11
94.2035280314
 21
676.3720040232
 31
0.0
  0
LINE
  5
12F
  8
0
  6
CONTINUOUS
 62
     7
 10
68.7692146894
 20
677.8719996125
 30
0.0
 11
93.7692150619
 21
677.8719996125
 31
0.0
  0
LINE
  5
130
  8
0
  6
CONTINUOUS
 62
     7
 10
34.6367387247
 20
497.6564993173
 30
0.0
 11
3.7692142796
 21
503.6809791833
 31
0.0
  0
LINE
  5
131
  8
0
  6
CONTINUOUS
 62
     7
 10
34.636537559
 20
497.6565402955
 30
0.0
 11
34.636537559
 21
403.8874593586
 31
0.0
  0
POLYLINE
  5
132
  8
0
  6
CONTINUOUS
 62
     7
 66
     1
 10
0.0
 20
0.0
 30
0.0
  0
VERTEX
  5
45C
  8
0
  6
CONTINUOUS
 62
     7
 10
34.636537559
 20
403.8874593586
 30
0.0
  0
VERTEX
  5
45D
  8
0
  6
CONTINUOUS
 62
     7
 10
8.1046549749
 20
398.7088364571
 30
0.0
  0
VERTEX
  5
45E
  8
0
  6
CONTINUOUS
 62
     7
 10
3.7692142796
 20
397.8630204707
 30
0.0
  0
SEQEND
  5
63B
  8
0
  6
CONTINUOUS
 62
     7
  0
LINE
  5
133
  8
0
  6
CONTINUOUS
 62
     7
 10
127.9018921923
 20
497.6565402955
 30
0.0
 11
127.9018921923
 21
403.8874593586
 31
0.0
  0
LINE
  5
134
  8
0
  6
CONTINUOUS
 62
     7
 10
127.9018921923
 20
497.6565402955
 30
0.0
 11
158.7692154717
 21
503.6809791833
 31
0.0
  0
POLYLINE
  5
135
  8
0
  6
CONTINUOUS
 62
     7
 66
     1
 10
0.0
 20
0.0
 30
0.0
  0
VERTEX
  5
45F
  8
0
  6
CONTINUOUS
 62
     7
 10
127.9018921923
 20
403.8874593586
 30
0.0
  0
VERTEX
  5
460
  8
0
  6
CONTINUOUS
 62
     7
 10
154.4337747764
 20
398.7088364571
 30
0.0
  0
VERTEX
  5
461
  8
0
  6
CONTINUOUS
 62
     7
 10
158.7692154717
 20
397.8630204707
 30
0.0
  0
SEQEND
  5
63A
  8
0
  6
CONTINUOUS
 62
     7
  0
LINE
  5
136
  8
0
  6
CONTINUOUS
 62
     7
 10
94.2035280314
 20
676.3720040232
 30
0.0
 11
103.3676387888
 21
676.3720040232
 31
0.0
  0
LINE
  5
137
  8
0
  6
CONTINUOUS
 62
     7
 10
59.1707909626
 20
676.3720040232
 30
0.0
 11
68.33490172
 21
676.3720040232
 31
0.0
  0
LINE
  5
138
  8
0
  6
CONTINUOUS
 62
     7
 10
168.7692133856
 20
369.5220400602
 30
0.0
 11
168.7692133856
 21
355.2720000058
 31
0.0
  0
LINE
  5
139
  8
0
  6
CONTINUOUS
 62
     7
 10
168.7692133856
 20
355.2720000058
 30
0.0
 11
158.7692154717
 21
355.2720000058
 31
0.0
  0
LINE
  5
13A
  8
0
  6
CONTINUOUS
 62
     7
 10
158.7692154717
 20
369.5220400602
 30
0.0
 11
158.7692154717
 21
355.2720000058
 31
0.0
  0
LINE
  5
13B
  8
0
  6
CONTINUOUS
 62
     7
 10
-6.2307836342
 20
355.2720000058
 30
0.0
 11
3.7692142796
 21
355.2720000058
 31
0.0
  0
LINE
  5
13C
  8
0
  6
CONTINUOUS
 62
     7
 10
-6.2307836342
 20
369.5220400602
 30
0.0
 11
-6.2307836342
 21
355.2720000058
 31
0.0
  0
LINE
  5
13D
  8
0
  6
CONTINUOUS
 62
     7
 10
3.7692142796
 20
369.5220400602
 30
0.0
 11
3.7692142796
 21
355.2720000058
 31
0.0
  0
LINE
  5
13E
  8
0
  6
CONTINUOUS
 62
     7
 10
34.8115814996
 20
546.2719996482
 30
0.0
 11
34.8115814996
 21
532.6514665991
 31
0.0
  0
LINE
  5
13F
  8
0
  6
CONTINUOUS
 62
     7
 10
127.7268482518
 20
546.2719996482
 30
0.0
 11
127.7268482518
 21
532.6514665991
 31
0.0
  0
LINE
  5
140
  8
0
  6
CONTINUOUS
 62
     7
 10
119.9686592591
 20
497.6565402955
 30
0.0
 11
127.9018921923
 21
497.6565402955
 31
0.0
  0
LINE
  5
141
  8
0
  6
CONTINUOUS
 62
     7
 10
34.636537559
 20
403.8874593586
 30
0.0
 11
127.9018921923
 21
403.8874593586
 31
0.0
  0
LINE
  5
142
  8
0
  6
CONTINUOUS
 62
     7
 10
42.5697704923
 20
497.6565402955
 30
0.0
 11
34.636537559
 21
497.6565402955
 31
0.0
  0
LINE
  5
143
  8
0
  6
CONTINUOUS
 62
     7
 10
109.0523330641
 20
701.7719869524
 30
0.0
 11
53.4860966873
 21
701.7719869524
 31
0.0
  0
LINE
  5
144
  8
0
  6
CONTINUOUS
 62
     7
 10
53.4382378828
 20
705.1720147043
 30
0.0
 11
53.4860966873
 21
701.7719869524
 31
0.0
  0
POLYLINE
  5
145
  8
0
  6
CONTINUOUS
 62
     7
 66
     1
 10
0.0
 20
0.0
 30
0.0
  0
VERTEX
  5
462
  8
0
  6
CONTINUOUS
 62
     7
 10
81.2692148757
 20
712.7110783964
 30
0.0
  0
VERTEX
  5
463
  8
0
  6
CONTINUOUS
 62
     7
 10
78.0792290025
 20
712.5917200953
 30
0.0
  0
VERTEX
  5
464
  8
0
  6
CONTINUOUS
 62
     7
 10
74.8892431293
 20
712.2402017027
 30
0.0
  0
VERTEX
  5
465
  8
0
  6
CONTINUOUS
 62
     7
 10
69.15149001
 20
711.0826795012
 30
0.0
  0
VERTEX
  5
466
  8
0
  6
CONTINUOUS
 62
     7
 10
63.6255620193
 20
709.4289784342
 30
0.0
  0
VERTEX
  5
467
  8
0
  6
CONTINUOUS
 62
     7
 10
58.2878580463
 20
707.3983375937
 30
0.0
  0
VERTEX
  5
468
  8
0
  6
CONTINUOUS
 62
     7
 10
53.4382378828
 20
705.1720147043
 30
0.0
  0
SEQEND
  5
639
  8
0
  6
CONTINUOUS
 62
     7
  0
POLYLINE
  5
146
  8
0
  6
CONTINUOUS
 62
     7
 66
     1
 10
0.0
 20
0.0
 30
0.0
  0
VERTEX
  5
469
  8
0
  6
CONTINUOUS
 62
     7
 10
109.1001918685
 20
705.1720147043
 30
0.0
  0
VERTEX
  5
46A
  8
0
  6
CONTINUOUS
 62
     7
 10
103.73537337
 20
707.612556687
 30
0.0
  0
VERTEX
  5
46B
  8
0
  6
CONTINUOUS
 62
     7
 10
100.6804863137
 20
708.8027124316
 30
0.0
  0
VERTEX
  5
46C
  8
0
  6
CONTINUOUS
 62
     7
 10
97.4460272264
 20
709.914100638
 30
0.0
  0
VERTEX
  5
46D
  8
0
  6
CONTINUOUS
 62
     7
 10
92.2301784304
 20
711.3656525522
 30
0.0
  0
VERTEX
  5
46E
  8
0
  6
CONTINUOUS
 62
     7
 10
86.5601953265
 20
712.3853986174
 30
0.0
  0
VERTEX
  5
46F
  8
0
  6
CONTINUOUS
 62
     7
 10
81.2692148757
 20
712.7110783964
 30
0.0
  0
SEQEND
  5
638
  8
0
  6
CONTINUOUS
 62
     7
  0
LINE
  5
147
  8
0
  6
CONTINUOUS
 62
     7
 10
109.0523330641
 20
701.7719869524
 30
0.0
 11
109.1001918685
 21
705.1720147043
 31
0.0
  0
ARC
  5
148
  8
0
  6
CONTINUOUS
 62
     7
 10
79.3650339719
 20
614.686176828
 30
0.0
 40
98.04339463935156
 50
73.8580277852
 51
88.8871418645
  0
LINE
  5
149
  8
0
  6
CONTINUOUS
 62
     7
 10
127.2692149651
 20
705.1720147043
 30
0.0
 11
109.1001918685
 21
705.1720147043
 31
0.0
  0
LINE
  5
14A
  8
0
  6
CONTINUOUS
 62
     7
 10
53.4382378828
 20
705.1720147043
 30
0.0
 11
35.2692147863
 21
705.1720147043
 31
0.0
  0
ARC
  5
14B
  8
0
  6
CONTINUOUS
 62
     7
 10
83.7966465638
 20
610.578417554
 30
0.0
 40
102.1639286719542
 50
91.4175839344
 51
105.8372464159
  0
LINE
  5
14C
  8
0
  6
CONTINUOUS
 62
     7
 10
53.4860966873
 20
701.7719869524
 30
0.0
 11
35.2692147863
 21
701.7719869524
 31
0.0
  0
LINE
  5
14D
  8
0
  6
CONTINUOUS
 62
     7
 10
127.2692149651
 20
701.7719869524
 30
0.0
 11
109.0523330641
 21
701.7719869524
 31
0.0
  0
LINE
  5
14E
  8
0
  6
CONTINUOUS
 62
     7
 10
90.24153465
 20
696.8719934136
 30
0.0
 11
97.5326700282
 21
696.8719934136
 31
0.0
  0
LINE
  5
14F
  8
0
  6
CONTINUOUS
 62
     7
 10
97.5326700282
 20
696.8719934136
 30
0.0
 11
97.5326700282
 21
676.3720040232
 31
0.0
  0
LINE
  5
150
  8
0
  6
CONTINUOUS
 62
     7
 10
90.24153465
 20
696.8719934136
 30
0.0
 11
90.0711417344
 21
677.8719996125
 31
0.0
  0
LINE
  5
151
  8
0
  6
CONTINUOUS
 62
     7
 10
97.5326700282
 20
696.8719934136
 30
0.0
 11
106.9203475636
 21
696.8719934136
 31
0.0
  0
LINE
  5
152
  8
0
  6
CONTINUOUS
 62
     7
 10
106.9203475636
 20
696.8719934136
 30
0.0
 11
107.9503363144
 21
676.0158811718
 31
0.0
  0
LINE
  5
153
  8
0
  6
CONTINUOUS
 62
     7
 10
55.9155279916
 20
708.8642840296
 30
0.0
 11
56.7692155164
 21
757.7720110327
 31
0.0
  0
LINE
  5
154
  8
0
  6
CONTINUOUS
 62
     7
 10
56.7692155164
 20
757.7720110327
 30
0.0
 11
105.7692142349
 21
757.7720110327
 31
0.0
  0
LINE
  5
155
  8
0
  6
CONTINUOUS
 62
     7
 10
106.6229017597
 20
708.8642840296
 30
0.0
 11
105.7692142349
 21
757.7720110327
 31
0.0
  0
POLYLINE
  5
156
  8
0
  6
CONTINUOUS
 62
     7
 66
     1
 10
0.0
 20
0.0
 30
0.0
  0
VERTEX
  5
470
  8
0
  6
CONTINUOUS
 62
     7
 10
57.266165517
 20
658.3138381153
 30
0.0
  0
VERTEX
  5
471
  8
0
  6
CONTINUOUS
 62
     7
 10
57.4543746334
 20
658.4136907965
 30
0.0
  0
VERTEX
  5
472
  8
0
  6
CONTINUOUS
 62
     7
 10
57.6364649606
 20
658.2665120274
 30
0.0
  0
VERTEX
  5
473
  8
0
  6
CONTINUOUS
 62
     7
 10
57.8122409206
 20
657.8724508196
 30
0.0
  0
SEQEND
  5
637
  8
0
  6
CONTINUOUS
 62
     7
  0
LINE
  5
157
  8
0
  6
CONTINUOUS
 62
     7
 10
57.266165517
 20
676.3720040232
 30
0.0
 11
59.1707909626
 21
676.3720040232
 31
0.0
  0
POLYLINE
  5
158
  8
0
  6
CONTINUOUS
 62
     7
 66
     1
 10
0.0
 20
0.0
 30
0.0
  0
VERTEX
  5
474
  8
0
  6
CONTINUOUS
 62
     7
 10
104.7260379565
 20
657.8720037848
 30
0.0
  0
VERTEX
  5
475
  8
0
  6
CONTINUOUS
 62
     7
 10
104.9018604827
 20
658.2663481146
 30
0.0
  0
VERTEX
  5
476
  8
0
  6
CONTINUOUS
 62
     7
 10
105.0840011012
 20
658.4136758953
 30
0.0
  0
VERTEX
  5
477
  8
0
  6
CONTINUOUS
 62
     7
 10
105.2722642344
 20
658.3138381153
 30
0.0
  0
SEQEND
  5
636
  8
0
  6
CONTINUOUS
 62
     7
  0
LINE
  5
159
  8
0
  6
CONTINUOUS
 62
     7
 10
103.3676387888
 20
676.3720040232
 30
0.0
 11
105.2722642344
 21
676.3720040232
 31
0.0
  0
LINE
  5
15A
  8
0
  6
CONTINUOUS
 62
     7
 10
49.9612270069
 20
696.8719934136
 30
0.0
 11
48.8815484714
 21
675.009665361
 31
0.0
  0
LINE
  5
15B
  8
0
  6
CONTINUOUS
 62
     7
 10
59.3489045423
 20
696.8719934136
 30
0.0
 11
59.3489045423
 21
676.3720040232
 31
0.0
  0
LINE
  5
15C
  8
0
  6
CONTINUOUS
 62
     7
 10
49.9612270069
 20
696.8719934136
 30
0.0
 11
59.3489045423
 21
696.8719934136
 31
0.0
  0
LINE
  5
15D
  8
0
  6
CONTINUOUS
 62
     7
 10
65.1019876969
 20
696.8719934136
 30
0.0
 11
65.1572877687
 21
676.3720040232
 31
0.0
  0
LINE
  5
15E
  8
0
  6
CONTINUOUS
 62
     7
 10
59.3489045423
 20
696.8719934136
 30
0.0
 11
65.1019876969
 21
696.8719934136
 31
0.0
  0
LINE
  5
15F
  8
0
  6
CONTINUOUS
 62
     7
 10
65.1019876969
 20
696.8719934136
 30
0.0
 11
90.24153465
 21
696.8719934136
 31
0.0
  0
POLYLINE
  5
160
  8
0
  6
CONTINUOUS
 62
     7
 66
     1
 10
0.0
 20
0.0
 30
0.0
  0
VERTEX
  5
478
  8
0
  6
CONTINUOUS
 62
     7
 10
56.5204778832
 20
657.8720037848
 30
0.0
  0
VERTEX
  5
479
  8
0
  6
CONTINUOUS
 62
     7
 10
56.8906357658
 20
657.9824660927
 30
0.0
  0
VERTEX
  5
47A
  8
0
  6
CONTINUOUS
 62
     7
 10
57.266165517
 20
658.3138381153
 30
0.0
  0
SEQEND
  5
635
  8
0
  6
CONTINUOUS
 62
     7
  0
LINE
  5
161
  8
0
  6
CONTINUOUS
 62
     7
 10
56.5204778832
 20
657.8720037848
 30
0.0
 11
57.6453106624
 21
657.8720037848
 31
0.0
  0
POLYLINE
  5
162
  8
0
  6
CONTINUOUS
 62
     7
 66
     1
 10
0.0
 20
0.0
 30
0.0
  0
VERTEX
  5
47B
  8
0
  6
CONTINUOUS
 62
     7
 10
105.2722642344
 20
658.3138381153
 30
0.0
  0
VERTEX
  5
47C
  8
0
  6
CONTINUOUS
 62
     7
 10
105.6385571283
 20
657.9880093247
 30
0.0
  0
VERTEX
  5
47D
  8
0
  6
CONTINUOUS
 62
     7
 10
105.9997407865
 20
657.8722720057
 30
0.0
  0
SEQEND
  5
634
  8
0
  6
CONTINUOUS
 62
     7
  0
LINE
  5
163
  8
0
  6
CONTINUOUS
 62
     7
 10
104.7260379565
 20
657.8720037848
 30
0.0
 11
105.966606192
 21
657.8720037848
 31
0.0
  0
LINE
  5
164
  8
0
  6
CONTINUOUS
 62
     7
 10
56.0388425511
 20
658.065599671
 30
0.0
 11
56.515938617
 21
657.8720186859
 31
0.0
  0
LINE
  5
165
  8
0
  6
CONTINUOUS
 62
     7
 10
56.6077614349
 20
676.3720040232
 30
0.0
 11
56.0388425511
 21
676.271689406
 31
0.0
  0
LINE
  5
166
  8
0
  6
CONTINUOUS
 62
     7
 10
56.6077614349
 20
676.3720040232
 30
0.0
 11
57.266165517
 21
676.3720040232
 31
0.0
  0
LINE
  5
167
  8
0
  6
CONTINUOUS
 62
     7
 10
106.0369527113
 20
657.872301808
 30
0.0
 11
106.4995872003
 21
658.065599671
 31
0.0
  0
LINE
  5
168
  8
0
  6
CONTINUOUS
 62
     7
 10
105.9306683165
 20
676.3720040232
 30
0.0
 11
106.4995872003
 21
676.271689406
 31
0.0
  0
LINE
  5
169
  8
0
  6
CONTINUOUS
 62
     7
 10
105.2722642344
 20
676.3720040232
 30
0.0
 11
105.9306683165
 21
676.3720040232
 31
0.0
  0
POLYLINE
  5
16A
  8
0
  6
CONTINUOUS
 62
     7
 66
     1
 10
0.0
 20
0.0
 30
0.0
  0
VERTEX
  5
47E
  8
0
  6
CONTINUOUS
 62
     7
 10
55.2952205908
 20
657.8720037848
 30
0.0
  0
VERTEX
  5
47F
  8
0
  6
CONTINUOUS
 62
     7
 10
55.6718269509
 20
658.1642453581
 30
0.0
  0
VERTEX
  5
480
  8
0
  6
CONTINUOUS
 62
     7
 10
56.0388425511
 20
658.065599671
 30
0.0
  0
SEQEND
  5
633
  8
0
  6
CONTINUOUS
 62
     7
  0
LINE
  5
16B
  8
0
  6
CONTINUOUS
 62
     7
 10
55.2952205908
 20
657.8720037848
 30
0.0
 11
56.515938617
 21
657.8720037848
 31
0.0
  0
POLYLINE
  5
16C
  8
0
  6
CONTINUOUS
 62
     7
 66
     1
 10
0.0
 20
0.0
 30
0.0
  0
VERTEX
  5
481
  8
0
  6
CONTINUOUS
 62
     7
 10
106.4995872003
 20
658.065599671
 30
0.0
  0
VERTEX
  5
482
  8
0
  6
CONTINUOUS
 62
     7
 10
106.8666028005
 20
658.1642453581
 30
0.0
  0
VERTEX
  5
483
  8
0
  6
CONTINUOUS
 62
     7
 10
107.2432091605
 20
657.8720037848
 30
0.0
  0
SEQEND
  5
632
  8
0
  6
CONTINUOUS
 62
     7
  0
LINE
  5
16D
  8
0
  6
CONTINUOUS
 62
     7
 10
106.0761129629
 20
657.8720037848
 30
0.0
 11
107.2432091605
 21
657.8720037848
 31
0.0
  0
POLYLINE
  5
16E
  8
0
  6
CONTINUOUS
 62
     7
 66
     1
 10
0.0
 20
0.0
 30
0.0
  0
VERTEX
  5
484
  8
0
  6
CONTINUOUS
 62
     7
 10
119.1738275957
 20
660.9196935803
 30
0.0
  0
VERTEX
  5
485
  8
0
  6
CONTINUOUS
 62
     7
 10
116.5657146048
 20
658.8387315184
 30
0.0
  0
VERTEX
  5
486
  8
0
  6
CONTINUOUS
 62
     7
 10
115.8027677011
 20
657.8720037848
 30
0.0
  0
SEQEND
  5
631
  8
0
  6
CONTINUOUS
 62
     7
  0
LINE
  5
16F
  8
0
  6
CONTINUOUS
 62
     7
 10
107.2432091605
 20
657.8720037848
 30
0.0
 11
115.8027677011
 21
657.8720037848
 31
0.0
  0
POLYLINE
  5
170
  8
0
  6
CONTINUOUS
 62
     7
 66
     1
 10
0.0
 20
0.0
 30
0.0
  0
VERTEX
  5
487
  8
0
  6
CONTINUOUS
 62
     7
 10
106.4995872003
 20
676.271689406
 30
0.0
  0
VERTEX
  5
488
  8
0
  6
CONTINUOUS
 62
     7
 10
108.6309803796
 20
675.8958672196
 30
0.0
  0
VERTEX
  5
489
  8
0
  6
CONTINUOUS
 62
     7
 10
111.0151363683
 20
675.47547566
 30
0.0
  0
VERTEX
  5
48A
  8
0
  6
CONTINUOUS
 62
     7
 10
113.6030061316
 20
675.0191574007
 30
0.0
  0
VERTEX
  5
48B
  8
0
  6
CONTINUOUS
 62
     7
 10
116.3413478207
 20
674.5363150746
 30
0.0
  0
VERTEX
  5
48C
  8
0
  6
CONTINUOUS
 62
     7
 10
119.1738275957
 20
674.0368728548
 30
0.0
  0
SEQEND
  5
630
  8
0
  6
CONTINUOUS
 62
     7
  0
POLYLINE
  5
171
  8
0
  6
CONTINUOUS
 62
     7
 66
     1
 10
0.0
 20
0.0
 30
0.0
  0
VERTEX
  5
48D
  8
0
  6
CONTINUOUS
 62
     7
 10
43.3646021557
 20
660.9196935803
 30
0.0
  0
VERTEX
  5
48E
  8
0
  6
CONTINUOUS
 62
     7
 10
45.9727151465
 20
658.8387315184
 30
0.0
  0
VERTEX
  5
48F
  8
0
  6
CONTINUOUS
 62
     7
 10
46.7356620502
 20
657.8720037848
 30
0.0
  0
SEQEND
  5
62F
  8
0
  6
CONTINUOUS
 62
     7
  0
LINE
  5
172
  8
0
  6
CONTINUOUS
 62
     7
 10
46.7356620502
 20
657.8720037848
 30
0.0
 11
55.2952205908
 21
657.8720037848
 31
0.0
  0
POLYLINE
  5
173
  8
0
  6
CONTINUOUS
 62
     7
 66
     1
 10
0.0
 20
0.0
 30
0.0
  0
VERTEX
  5
490
  8
0
  6
CONTINUOUS
 62
     7
 10
56.0388425511
 20
676.271689406
 30
0.0
  0
VERTEX
  5
491
  8
0
  6
CONTINUOUS
 62
     7
 10
53.9074493718
 20
675.8958672196
 30
0.0
  0
VERTEX
  5
492
  8
0
  6
CONTINUOUS
 62
     7
 10
51.5232933831
 20
675.47547566
 30
0.0
  0
VERTEX
  5
493
  8
0
  6
CONTINUOUS
 62
     7
 10
48.9354236197
 20
675.0191574007
 30
0.0
  0
VERTEX
  5
494
  8
0
  6
CONTINUOUS
 62
     7
 10
46.1970819306
 20
674.5363150746
 30
0.0
  0
VERTEX
  5
495
  8
0
  6
CONTINUOUS
 62
     7
 10
43.3646021557
 20
674.0368728548
 30
0.0
  0
SEQEND
  5
62E
  8
0
  6
CONTINUOUS
 62
     7
  0
ARC
  5
174
  8
0
  6
CONTINUOUS
 62
     7
 10
133.6691886486
 20
660.8827302336
 30
0.0
 40
2.999956994591077
 50
222.0714923642
 51
275.0005768918
  0
ARC
  5
175
  8
0
  6
CONTINUOUS
 62
     7
 10
124.6692210764
 20
660.8827878337
 30
0.0
 40
11.9999807289078
 50
39.4851273928
 51
80.0000088441
  0
ARC
  5
176
  8
0
  6
CONTINUOUS
 62
     7
 10
124.0192163245
 20
652.1720019133
 30
0.0
 40
9.99999507171081
 50
42.071605844
 51
118.9822806744
  0
LINE
  5
177
  8
0
  6
CONTINUOUS
 62
     7
 10
119.1738275957
 20
674.0368728548
 30
0.0
 11
126.7529940378
 21
672.7004622132
 31
0.0
  0
ARC
  5
178
  8
0
  6
CONTINUOUS
 62
     7
 10
37.869208675
 20
660.8827878337
 30
0.0
 40
11.99998072890792
 50
99.9999911559
 51
140.5148726072
  0
ARC
  5
179
  8
0
  6
CONTINUOUS
 62
     7
 10
28.8692411028
 20
660.8827302336
 30
0.0
 40
2.999956994591075
 50
264.9994231082
 51
317.9285076358
  0
ARC
  5
17A
  8
0
  6
CONTINUOUS
 62
     7
 10
38.5192134269
 20
652.1720019133
 30
0.0
 40
9.999995071710796
 50
61.0177193256
 51
137.928394156
  0
LINE
  5
17B
  8
0
  6
CONTINUOUS
 62
     7
 10
43.3646021557
 20
674.0368728548
 30
0.0
 11
35.7854357135
 21
672.7004622132
 31
0.0
  0
ARC
  5
17C
  8
0
  6
CONTINUOUS
 62
     7
 10
133.669222421
 20
660.8827678027
 30
0.0
 40
2.999991477117131
 50
274.9998717952
 51
0.0000133722
  0
ARC
  5
17D
  8
0
  6
CONTINUOUS
 62
     7
 10
124.6698853668
 20
660.8830072239
 30
0.0
 40
11.99932853376754
 50
359.9988601273
 51
39.4863358499
  0
ARC
  5
17E
  8
0
  6
CONTINUOUS
 62
     7
 10
28.8692073303
 20
660.8827678027
 30
0.0
 40
2.999991477117115
 50
179.9999866278
 51
265.0001282048
  0
ARC
  5
17F
  8
0
  6
CONTINUOUS
 62
     7
 10
37.8685443846
 20
660.8830072239
 30
0.0
 40
11.99932853376754
 50
140.5136641501
 51
180.0011398727
  0
LINE
  5
180
  8
0
  6
CONTINUOUS
 62
     7
 10
3.7692142796
 20
546.1659182817
 30
0.0
 11
3.7692142796
 21
546.2719996482
 31
0.0
  0
LINE
  5
181
  8
0
  6
CONTINUOUS
 62
     7
 10
3.7692142796
 20
546.2719996482
 30
0.0
 11
34.8115814996
 21
546.2719996482
 31
0.0
  0
CIRCLE
  5
182
  8
0
  6
CONTINUOUS
 62
     7
 10
20.2692148757
 20
522.871999827
 30
0.0
 40
12.5
  0
LINE
  5
183
  8
0
  6
CONTINUOUS
 62
     7
 10
158.7692154717
 20
546.2719996482
 30
0.0
 11
127.7268482518
 21
546.2719996482
 31
0.0
  0
LINE
  5
184
  8
0
  6
CONTINUOUS
 62
     7
 10
158.7692154717
 20
546.1659182817
 30
0.0
 11
158.7692154717
 21
546.2719996482
 31
0.0
  0
CIRCLE
  5
185
  8
0
  6
CONTINUOUS
 62
     7
 10
142.2692148757
 20
522.871999827
 30
0.0
 40
12.49999999999997
  0
LINE
  5
186
  8
0
  6
CONTINUOUS
 62
     7
 10
3.7692142796
 20
388.6719991475
 30
0.0
 11
158.7692154717
 21
388.6719991475
 31
0.0
  0
LINE
  5
187
  8
0
  6
CONTINUOUS
 62
     7
 10
112.5772027445
 20
696.8719934136
 30
0.0
 11
113.6568812799
 21
675.009665361
 31
0.0
  0
LINE
  5
188
  8
0
  6
CONTINUOUS
 62
     7
 10
106.9203475636
 20
696.8719934136
 30
0.0
 11
112.5772027445
 21
696.8719934136
 31
0.0
  0
LINE
  5
189
  8
0
  6
CONTINUOUS
 62
     8
 10
39.7774679732
 20
597.8720014006
 30
0.0
 11
39.6841308248
 21
585.8720068842
 31
0.0
  0
LINE
  5
18A
  8
0
  6
CONTINUOUS
 62
     8
 10
122.7609617781
 20
597.8720014006
 30
0.0
 11
122.8542989266
 21
585.8720068842
 31
0.0
  0
LINE
  5
18B
  8
0
  6
CONTINUOUS
 62
     8
 10
39.3855599832
 20
575.8720015198
 30
0.0
 11
39.1622958851
 21
585.8720068842
 31
0.0
  0
LINE
  5
18C
  8
0
  6
CONTINUOUS
 62
     8
 10
123.1528697681
 20
575.8720015198
 30
0.0
 11
123.3761338663
 21
585.8720068842
 31
0.0
  0
LINE
  5
18D
  8
0
  6
CONTINUOUS
 62
     8
 10
40.409150548
 20
574.7972478181
 30
0.0
 11
39.3855599832
 21
575.8720015198
 31
0.0
  0
LINE
  5
18E
  8
0
  6
CONTINUOUS
 62
     8
 10
122.1292792034
 20
574.7972478181
 30
0.0
 11
123.1528697681
 21
575.8720015198
 31
0.0
  0
LINE
  5
18F
  8
0
  6
CONTINUOUS
 62
     8
 10
122.7609617781
 20
615.8719931751
 30
0.0
 11
122.7609617781
 21
597.8720014006
 31
0.0
  0
LINE
  5
190
  8
0
  6
CONTINUOUS
 62
     8
 10
39.7774679732
 20
615.8719931751
 30
0.0
 11
39.7774679732
 21
597.8720014006
 31
0.0
  0
LINE
  5
191
  8
0
  6
CONTINUOUS
 62
     8
 10
131.9424724352
 20
575.8720015198
 30
0.0
 11
132.7999523055
 21
585.8720068842
 31
0.0
  0
LINE
  5
192
  8
0
  6
CONTINUOUS
 62
     8
 10
30.5959573161
 20
575.8720015198
 30
0.0
 11
29.7384774458
 21
585.8720068842
 31
0.0
  0
LINE
  5
193
  8
0
  6
CONTINUOUS
 62
     8
 10
34.396811403
 20
574.8328913957
 30
0.0
 11
30.5959573161
 21
575.8720015198
 31
0.0
  0
LINE
  5
194
  8
0
  6
CONTINUOUS
 62
     8
 10
128.1416183483
 20
574.8328913957
 30
0.0
 11
131.9424724352
 21
575.8720015198
 31
0.0
  0
LINE
  5
195
  8
0
  6
CONTINUOUS
 62
     8
 10
31.2225511443
 20
597.8720014006
 30
0.0
 11
30.9173045826
 21
585.8720068842
 31
0.0
  0
LINE
  5
196
  8
0
  6
CONTINUOUS
 62
     8
 10
131.315878607
 20
597.8720014006
 30
0.0
 11
131.6211251688
 21
585.8720068842
 31
0.0
  0
LINE
  5
197
  8
0
  6
CONTINUOUS
 62
     8
 10
31.2225511443
 20
615.8719931751
 30
0.0
 11
31.2225511443
 21
597.8720014006
 31
0.0
  0
LINE
  5
198
  8
0
  6
CONTINUOUS
 62
     8
 10
131.315878607
 20
615.8719931751
 30
0.0
 11
131.315878607
 21
597.8720014006
 31
0.0
  0
LINE
  5
199
  8
0
  6
CONTINUOUS
 62
     8
 10
110.4970546585
 20
573.0127965122
 30
0.0
 11
110.4970546585
 21
457.1966759883
 31
0.0
  0
LINE
  5
19A
  8
0
  6
CONTINUOUS
 62
     8
 10
52.0413750928
 20
573.0127965122
 30
0.0
 11
52.0413750928
 21
457.1966759883
 31
0.0
  0
LINE
  5
19B
  8
0
  6
CONTINUOUS
 62
     8
 10
59.9579876435
 20
420.4967034072
 30
0.0
 11
102.5804421079
 21
420.4967034072
 31
0.0
  0
LINE
  5
19C
  8
0
  6
CONTINUOUS
 62
     8
 10
39.6143151593
 20
555.8719982415
 30
0.0
 11
39.6143151593
 21
512.7368246228
 31
0.0
  0
LINE
  5
19D
  8
0
  6
CONTINUOUS
 62
     8
 10
122.9241145921
 20
555.8719982415
 30
0.0
 11
122.9241145921
 21
512.7368246228
 31
0.0
  0
LINE
  5
19E
  8
0
  6
CONTINUOUS
 62
     8
 10
68.33490172
 20
676.3720040232
 30
0.0
 11
68.33490172
 21
657.8720037848
 31
0.0
  0
LINE
  5
19F
  8
0
  6
CONTINUOUS
 62
     8
 10
94.2035280314
 20
676.3720040232
 30
0.0
 11
94.2035280314
 21
657.8720037848
 31
0.0
  0
LINE
  5
1A0
  8
0
  6
CONTINUOUS
 62
     8
 10
103.3676387888
 20
676.3720040232
 30
0.0
 11
103.3676387888
 21
657.8720037848
 31
0.0
  0
LINE
  5
1A1
  8
0
  6
CONTINUOUS
 62
     8
 10
59.1707909626
 20
676.3720040232
 30
0.0
 11
59.1707909626
 21
657.8720037848
 31
0.0
  0
LINE
  5
1A2
  8
0
  6
CONTINUOUS
 62
     8
 10
57.266165517
 20
676.3720040232
 30
0.0
 11
57.266165517
 21
658.3138381153
 31
0.0
  0
LINE
  5
1A3
  8
0
  6
CONTINUOUS
 62
     8
 10
105.2722642344
 20
676.3720040232
 30
0.0
 11
105.2722642344
 21
658.3138381153
 31
0.0
  0
LINE
  5
1A4
  8
0
  6
CONTINUOUS
 62
     8
 10
56.0388425511
 20
676.271689406
 30
0.0
 11
56.0388425511
 21
658.065599671
 31
0.0
  0
LINE
  5
1A5
  8
0
  6
CONTINUOUS
 62
     8
 10
106.4995872003
 20
676.271689406
 30
0.0
 11
106.4995872003
 21
658.065599671
 31
0.0
  0
LINE
  5
1A6
  8
0
  6
CONTINUOUS
 62
     8
 10
119.1738275957
 20
674.0368728548
 30
0.0
 11
119.1738275957
 21
660.9196935803
 31
0.0
  0
LINE
  5
1A7
  8
0
  6
CONTINUOUS
 62
     8
 10
43.3646021557
 20
674.0368728548
 30
0.0
 11
43.3646021557
 21
660.9196935803
 31
0.0
  0
LINE
  5
1A8
  8
0
  6
CONTINUOUS
 62
     8
 10
133.9306822192
 20
668.5133104235
 30
0.0
 11
133.9306822192
 21
657.8941916138
 31
0.0
  0
LINE
  5
1A9
  8
0
  6
CONTINUOUS
 62
     8
 10
28.6077475321
 20
668.5133104235
 30
0.0
 11
28.6077475321
 21
657.8941916138
 31
0.0
  0
LINE
  5
1AA
  8
FORMAT
  6
CENTERX2
 10
81.2692148757
 20
765.9030111157
 30
0.0
 11
81.2692148757
 21
379.7999787217
 31
0.0
  0
LINE
  5
1AB
  8
FORMAT
  6
CENTERX2
 10
-30.0559546675
 20
450.771999827
 30
0.0
 11
194.5679413097
 21
450.771999827
 31
0.0
  0
LINE
  5
1AC
  8
0
  6
CONTINUOUS
 62
     7
 10
609.7980232085
 20
657.8827624232
 30
0.0
 11
616.1124666329
 21
657.8827624232
 31
0.0
  0
LINE
  5
1AD
  8
0
  6
CONTINUOUS
 62
     7
 10
582.2586302753
 20
657.8827624232
 30
0.0
 11
588.5761563773
 21
657.8827624232
 31
0.0
  0
LINE
  5
1AE
  8
0
  6
CONTINUOUS
 62
     7
 10
643.1855482156
 20
615.8719931751
 30
0.0
 11
643.1855482156
 21
601.1312429816
 31
0.0
  0
LINE
  5
1AF
  8
0
  6
CONTINUOUS
 62
     7
 10
555.1855486925
 20
601.914731136
 30
0.0
 11
555.1855486925
 21
615.8719931751
 31
0.0
  0
LINE
  5
1B0
  8
0
  6
CONTINUOUS
 62
     7
 10
534.1636833842
 20
574.6918668061
 30
0.0
 11
535.810209542
 21
555.8719982415
 31
0.0
  0
LINE
  5
1B1
  8
0
  6
CONTINUOUS
 62
     7
 10
662.5608873661
 20
555.8719982415
 30
0.0
 11
664.2074135239
 21
574.6918668061
 31
0.0
  0
LINE
  5
1B2
  8
0
  6
CONTINUOUS
 62
     7
 10
658.1855488117
 20
640.060019961
 30
0.0
 11
658.1855488117
 21
657.8720037848
 31
0.0
  0
LINE
  5
1B3
  8
0
  6
CONTINUOUS
 62
     7
 10
540.1855480964
 20
657.8720037848
 30
0.0
 11
540.1855480964
 21
640.0579188973
 31
0.0
  0
LINE
  5
1B4
  8
0
  6
CONTINUOUS
 62
     7
 10
524.1855454738
 20
585.8720068842
 30
0.0
 11
525.060437351
 21
575.8720015198
 31
0.0
  0
LINE
  5
1B5
  8
0
  6
CONTINUOUS
 62
     7
 10
673.3106595571
 20
575.8720015198
 30
0.0
 11
674.1855514343
 21
585.8720068842
 31
0.0
  0
LINE
  5
1B6
  8
0
  6
CONTINUOUS
 62
     7
 10
664.0946117337
 20
573.4025661856
 30
0.0
 11
673.3106595571
 21
575.8720015198
 31
0.0
  0
LINE
  5
1B7
  8
0
  6
CONTINUOUS
 62
     7
 10
525.060437351
 20
575.8720015198
 30
0.0
 11
534.2764851744
 21
573.4025661856
 31
0.0
  0
LINE
  5
1B8
  8
0
  6
CONTINUOUS
 62
     7
 10
524.4997811611
 20
597.8720014006
 30
0.0
 11
524.1855454738
 21
585.8720068842
 31
0.0
  0
LINE
  5
1B9
  8
0
  6
CONTINUOUS
 62
     7
 10
674.1855514343
 20
585.8720068842
 30
0.0
 11
673.871315747
 21
597.8720014006
 31
0.0
  0
LINE
  5
1BA
  8
0
  6
CONTINUOUS
 62
     7
 10
535.1855454142
 20
563.0118970782
 30
0.0
 11
535.1855454142
 21
521.6539402515
 31
0.0
  0
LINE
  5
1BB
  8
0
  6
CONTINUOUS
 62
     7
 10
663.1855514939
 20
543.0520002753
 30
0.0
 11
663.1855514939
 21
563.0118970782
 31
0.0
  0
LINE
  5
1BC
  8
0
  6
CONTINUOUS
 62
     7
 10
663.1855514939
 20
521.6539402515
 30
0.0
 11
663.1855514939
 21
525.7720028073
 31
0.0
  0
LINE
  5
1BD
  8
0
  6
CONTINUOUS
 62
     7
 10
664.6855470831
 20
525.7720028073
 30
0.0
 11
664.6855470831
 21
531.507295838
 31
0.0
  0
ARC
  5
1BE
  8
0
  6
CONTINUOUS
 62
     7
 10
647.1855484541
 20
585.871999827
 30
0.0
 40
120.0000000000001
 50
153.1247337221
 51
165.5224878141
  0
POLYLINE
  5
1BF
  8
0
  6
CONTINUOUS
 62
     7
 66
     1
 10
0.0
 20
0.0
 30
0.0
  0
VERTEX
  5
496
  8
0
  6
CONTINUOUS
 62
     7
 10
529.3972191508
 20
608.8047300488
 30
0.0
  0
VERTEX
  5
497
  8
0
  6
CONTINUOUS
 62
     7
 10
528.4670663173
 20
603.3626173645
 30
0.0
  0
VERTEX
  5
498
  8
0
  6
CONTINUOUS
 62
     7
 10
527.7870145733
 20
597.8715841681
 30
0.0
  0
SEQEND
  5
62D
  8
0
  6
CONTINUOUS
 62
     7
  0
POLYLINE
  5
1C0
  8
0
  6
CONTINUOUS
 62
     7
 66
     1
 10
0.0
 20
0.0
 30
0.0
  0
VERTEX
  5
499
  8
0
  6
CONTINUOUS
 62
     7
 10
670.5839035208
 20
597.8733723074
 30
0.0
  0
VERTEX
  5
49A
  8
0
  6
CONTINUOUS
 62
     7
 10
669.9037400181
 20
603.3645843178
 30
0.0
  0
VERTEX
  5
49B
  8
0
  6
CONTINUOUS
 62
     7
 10
668.9738777573
 20
608.8047300488
 30
0.0
  0
SEQEND
  5
62C
  8
0
  6
CONTINUOUS
 62
     7
  0
ARC
  5
1C1
  8
0
  6
CONTINUOUS
 62
     7
 10
551.1855484541
 20
585.871999827
 30
0.0
 40
120.0000000000001
 50
14.4775121859
 51
26.8769083929
  0
LINE
  5
1C2
  8
0
  6
CONTINUOUS
 62
     7
 10
566.9272986348
 20
677.6302431732
 30
0.0
 11
566.6855496461
 21
677.8719996125
 31
0.0
  0
LINE
  5
1C3
  8
0
  6
CONTINUOUS
 62
     7
 10
541.685547411
 20
677.8719996125
 30
0.0
 11
540.1855480964
 21
676.3720040232
 31
0.0
  0
LINE
  5
1C4
  8
0
  6
CONTINUOUS
 62
     7
 10
658.1855488117
 20
676.3720040232
 30
0.0
 11
656.6855494971
 21
677.8719996125
 31
0.0
  0
LINE
  5
1C5
  8
0
  6
CONTINUOUS
 62
     7
 10
631.685547262
 20
677.8719996125
 30
0.0
 11
630.1855479474
 21
676.3720040232
 31
0.0
  0
LINE
  5
1C6
  8
0
  6
CONTINUOUS
 62
     7
 10
613.1855488862
 20
696.8719934136
 30
0.0
 11
613.1855488862
 21
701.7719869524
 31
0.0
  0
LINE
  5
1C7
  8
0
  6
CONTINUOUS
 62
     7
 10
585.1855480219
 20
701.7719869524
 30
0.0
 11
585.1855480219
 21
696.8719934136
 31
0.0
  0
LINE
  5
1C8
  8
0
  6
CONTINUOUS
 62
     7
 10
658.1855488117
 20
657.8621690184
 30
0.0
 11
658.1855488117
 21
676.3720040232
 31
0.0
  0
LINE
  5
1C9
  8
0
  6
CONTINUOUS
 62
     7
 10
540.1855480964
 20
676.3720040232
 30
0.0
 11
540.1855480964
 21
657.8621392161
 31
0.0
  0
CIRCLE
  5
1CA
  8
0
  6
CONTINUOUS
 62
     7
 10
629.8002230433
 20
376.8616372261
 30
0.0
 40
9.5
  0
CIRCLE
  5
1CB
  8
0
  6
CONTINUOUS
 62
     7
 10
673.095911055
 20
481.3866744162
 30
0.0
 40
9.500000000000114
  0
CIRCLE
  5
1CC
  8
0
  6
CONTINUOUS
 62
     7
 10
568.5708738648
 20
376.8616372261
 30
0.0
 40
9.5
  0
CIRCLE
  5
1CD
  8
0
  6
CONTINUOUS
 62
     7
 10
525.2751858532
 20
481.3866744162
 30
0.0
 40
9.500000000000114
  0
CIRCLE
  5
1CE
  8
0
  6
CONTINUOUS
 62
     7
 10
599.1855484541
 20
450.771999827
 30
0.0
 40
38.10000000000002
  0
CIRCLE
  5
1CF
  8
0
  6
CONTINUOUS
 62
     7
 10
568.5708738648
 20
524.6823624279
 30
0.0
 40
9.499999999999886
  0
CIRCLE
  5
1D0
  8
0
  6
CONTINUOUS
 62
     7
 10
525.2751858532
 20
420.1573252378
 30
0.0
 40
9.500000000000114
  0
CIRCLE
  5
1D1
  8
0
  6
CONTINUOUS
 62
     7
 10
629.8002230433
 20
524.6823624279
 30
0.0
 40
9.5
  0
CIRCLE
  5
1D2
  8
0
  6
CONTINUOUS
 62
     7
 10
673.095911055
 20
420.1573252378
 30
0.0
 40
9.500000000000114
  0
CIRCLE
  5
1D3
  8
0
  6
CONTINUOUS
 62
     7
 10
599.1855484541
 20
450.771999827
 30
0.0
 40
95.5
  0
LINE
  5
1D4
  8
0
  6
CONTINUOUS
 62
     7
 10
644.1855502422
 20
355.2720000058
 30
0.0
 11
599.1855484541
 21
355.2720000058
 31
0.0
  0
LINE
  5
1D5
  8
0
  6
CONTINUOUS
 62
     7
 10
649.3721378143
 20
369.5220400602
 30
0.0
 11
644.1855502422
 21
355.2720000058
 31
0.0
  0
LINE
  5
1D6
  8
0
  6
CONTINUOUS
 62
     7
 10
554.1855466659
 20
355.2720000058
 30
0.0
 11
599.1855484541
 21
355.2720000058
 31
0.0
  0
LINE
  5
1D7
  8
0
  6
CONTINUOUS
 62
     7
 10
548.9989590938
 20
369.5220400602
 30
0.0
 11
554.1855466659
 21
355.2720000058
 31
0.0
  0
LINE
  5
1D8
  8
0
  6
CONTINUOUS
 62
     7
 10
599.1855484541
 20
546.2719996482
 30
0.0
 11
603.6855482603
 21
546.2719996482
 31
0.0
  0
LINE
  5
1D9
  8
0
  6
CONTINUOUS
 62
     7
 10
603.6855482603
 20
546.1659182817
 30
0.0
 11
603.6855482603
 21
546.2719996482
 31
0.0
  0
LINE
  5
1DA
  8
0
  6
CONTINUOUS
 62
     7
 10
599.1855484541
 20
546.2719996482
 30
0.0
 11
594.6855486478
 21
546.2719996482
 31
0.0
  0
LINE
  5
1DB
  8
0
  6
CONTINUOUS
 62
     7
 10
594.6855486478
 20
546.1659182817
 30
0.0
 11
594.6855486478
 21
546.2719996482
 31
0.0
  0
LINE
  5
1DC
  8
0
  6
CONTINUOUS
 62
     7
 10
658.5595716829
 20
575.8720015198
 30
0.0
 11
539.8115252252
 21
575.8720015198
 31
0.0
  0
LINE
  5
1DD
  8
0
  6
CONTINUOUS
 62
     7
 10
599.1855484541
 20
585.8720068842
 30
0.0
 11
539.6378670926
 21
585.8720068842
 31
0.0
  0
LINE
  5
1DE
  8
0
  6
CONTINUOUS
 62
     7
 10
658.7332298155
 20
585.8720068842
 30
0.0
 11
599.1855484541
 21
585.8720068842
 31
0.0
  0
LINE
  5
1DF
  8
0
  6
CONTINUOUS
 62
     7
 10
539.9057154651
 20
597.8720014006
 30
0.0
 11
545.9470112915
 21
597.8720014006
 31
0.0
  0
LINE
  5
1E0
  8
0
  6
CONTINUOUS
 62
     7
 10
652.4240856166
 20
597.8720014006
 30
0.0
 11
545.9470112915
 21
597.8720014006
 31
0.0
  0
LINE
  5
1E1
  8
0
  6
CONTINUOUS
 62
     7
 10
658.465381443
 20
597.8720014006
 30
0.0
 11
652.4240856166
 21
597.8720014006
 31
0.0
  0
LINE
  5
1E2
  8
0
  6
CONTINUOUS
 62
     7
 10
540.5812819595
 20
574.8328913957
 30
0.0
 11
542.1855484243
 21
574.7902442724
 31
0.0
  0
LINE
  5
1E3
  8
0
  6
CONTINUOUS
 62
     7
 10
657.7898149486
 20
574.8328913957
 30
0.0
 11
656.1855484839
 21
574.7902442724
 31
0.0
  0
POLYLINE
  5
1E4
  8
0
  6
CONTINUOUS
 62
     7
 66
     1
 10
0.0
 20
0.0
 30
0.0
  0
VERTEX
  5
49C
  8
0
  6
CONTINUOUS
 62
     7
 10
542.1855484243
 20
574.7902442724
 30
0.0
  0
VERTEX
  5
49D
  8
0
  6
CONTINUOUS
 62
     7
 10
570.6654803003
 20
573.6499925166
 30
0.0
  0
VERTEX
  5
49E
  8
0
  6
CONTINUOUS
 62
     7
 10
599.1857484541
 20
573.2653786451
 30
0.0
  0
VERTEX
  5
49F
  8
0
  6
CONTINUOUS
 62
     7
 10
627.6856490518
 20
573.6494560748
 30
0.0
  0
VERTEX
  5
4A0
  8
0
  6
CONTINUOUS
 62
     7
 10
656.1855484839
 20
574.7902442724
 30
0.0
  0
SEQEND
  5
62B
  8
0
  6
CONTINUOUS
 62
     7
  0
POLYLINE
  5
1E5
  8
0
  6
CONTINUOUS
 62
     7
 66
     1
 10
0.0
 20
0.0
 30
0.0
  0
VERTEX
  5
4A1
  8
0
  6
CONTINUOUS
 62
     7
 10
613.1010071482
 20
660.8827685028
 30
0.0
  0
VERTEX
  5
4A2
  8
0
  6
CONTINUOUS
 62
     7
 10
613.6541484962
 20
660.3296224982
 30
0.0
  0
VERTEX
  5
4A3
  8
0
  6
CONTINUOUS
 62
     7
 10
614.1883215974
 20
659.7954605728
 30
0.0
  0
VERTEX
  5
4A4
  8
0
  6
CONTINUOUS
 62
     7
 10
614.685211062
 20
659.2985664517
 30
0.0
  0
VERTEX
  5
4A5
  8
0
  6
CONTINUOUS
 62
     7
 10
615.1277774121
 20
658.8560019642
 30
0.0
  0
VERTEX
  5
4A6
  8
0
  6
CONTINUOUS
 62
     7
 10
615.500846609
 20
658.4829364926
 30
0.0
  0
VERTEX
  5
4A7
  8
0
  6
CONTINUOUS
 62
     7
 10
615.7916260059
 20
658.192155233
 30
0.0
  0
VERTEX
  5
4A8
  8
0
  6
CONTINUOUS
 62
     7
 10
615.9901430006
 20
657.9936270624
 30
0.0
  0
VERTEX
  5
4A9
  8
0
  6
CONTINUOUS
 62
     7
 10
616.0895914878
 20
657.8941916138
 30
0.0
  0
SEQEND
  5
62A
  8
0
  6
CONTINUOUS
 62
     7
  0
POLYLINE
  5
1E6
  8
0
  6
CONTINUOUS
 62
     7
 66
     1
 10
0.0
 20
0.0
 30
0.0
  0
VERTEX
  5
4AA
  8
0
  6
CONTINUOUS
 62
     7
 10
616.0895914878
 20
668.5133104235
 30
0.0
  0
VERTEX
  5
4AB
  8
0
  6
CONTINUOUS
 62
     7
 10
615.6233863081
 20
666.4621208817
 30
0.0
  0
VERTEX
  5
4AC
  8
0
  6
CONTINUOUS
 62
     7
 10
614.9725184883
 20
664.7941147
 30
0.0
  0
VERTEX
  5
4AD
  8
0
  6
CONTINUOUS
 62
     7
 10
614.1669076974
 20
663.0413656145
 30
0.0
  0
VERTEX
  5
4AE
  8
0
  6
CONTINUOUS
 62
     7
 10
613.110805593
 20
660.9023635298
 30
0.0
  0
VERTEX
  5
4AF
  8
0
  6
CONTINUOUS
 62
     7
 10
613.1010071482
 20
660.8827685028
 30
0.0
  0
SEQEND
  5
629
  8
0
  6
CONTINUOUS
 62
     7
  0
ARC
  5
1E7
  8
0
  6
CONTINUOUS
 62
     7
 10
655.6796223001
 20
683.0835339798
 30
0.0
 40
48.01887603872443
 50
199.1498132149
 51
207.5378277754
  0
POLYLINE
  5
1E8
  8
0
  6
CONTINUOUS
 62
     7
 66
     1
 10
0.0
 20
0.0
 30
0.0
  0
VERTEX
  5
4B0
  8
0
  6
CONTINUOUS
 62
     7
 10
610.3179154093
 20
658.0996786267
 30
0.0
  0
VERTEX
  5
4B1
  8
0
  6
CONTINUOUS
 62
     7
 10
610.5926592941
 20
658.3744262367
 30
0.0
  0
VERTEX
  5
4B2
  8
0
  6
CONTINUOUS
 62
     7
 10
610.9654528196
 20
658.7472085863
 30
0.0
  0
VERTEX
  5
4B3
  8
0
  6
CONTINUOUS
 62
     7
 10
611.4217217187
 20
659.2034821421
 30
0.0
  0
VERTEX
  5
4B4
  8
0
  6
CONTINUOUS
 62
     7
 10
611.9436330269
 20
659.7253953129
 30
0.0
  0
VERTEX
  5
4B5
  8
0
  6
CONTINUOUS
 62
     7
 10
612.5107842605
 20
660.2925484091
 30
0.0
  0
VERTEX
  5
4B6
  8
0
  6
CONTINUOUS
 62
     7
 10
613.1010071482
 20
660.8827685028
 30
0.0
  0
SEQEND
  5
628
  8
0
  6
CONTINUOUS
 62
     7
  0
POLYLINE
  5
1E9
  8
0
  6
CONTINUOUS
 62
     7
 66
     1
 10
0.0
 20
0.0
 30
0.0
  0
VERTEX
  5
4B7
  8
0
  6
CONTINUOUS
 62
     7
 10
585.27008976
 20
660.8827685028
 30
0.0
  0
VERTEX
  5
4B8
  8
0
  6
CONTINUOUS
 62
     7
 10
585.2602913151
 20
660.9023635298
 30
0.0
  0
VERTEX
  5
4B9
  8
0
  6
CONTINUOUS
 62
     7
 10
584.2041892107
 20
663.0413656145
 30
0.0
  0
VERTEX
  5
4BA
  8
0
  6
CONTINUOUS
 62
     7
 10
583.4175587739
 20
664.7502605826
 30
0.0
  0
VERTEX
  5
4BB
  8
0
  6
CONTINUOUS
 62
     7
 10
582.7477106
 20
666.4621208817
 30
0.0
  0
VERTEX
  5
4BC
  8
0
  6
CONTINUOUS
 62
     7
 10
582.2815054203
 20
668.5133104235
 30
0.0
  0
SEQEND
  5
627
  8
0
  6
CONTINUOUS
 62
     7
  0
POLYLINE
  5
1EA
  8
0
  6
CONTINUOUS
 62
     7
 66
     1
 10
0.0
 20
0.0
 30
0.0
  0
VERTEX
  5
4BD
  8
0
  6
CONTINUOUS
 62
     7
 10
582.2815054203
 20
657.8941916138
 30
0.0
  0
VERTEX
  5
4BE
  8
0
  6
CONTINUOUS
 62
     7
 10
582.3809539075
 20
657.9936270624
 30
0.0
  0
VERTEX
  5
4BF
  8
0
  6
CONTINUOUS
 62
     7
 10
582.5794709022
 20
658.192155233
 30
0.0
  0
VERTEX
  5
4C0
  8
0
  6
CONTINUOUS
 62
     7
 10
582.8702502991
 20
658.4829364926
 30
0.0
  0
VERTEX
  5
4C1
  8
0
  6
CONTINUOUS
 62
     7
 10
583.243319496
 20
658.8560019642
 30
0.0
  0
VERTEX
  5
4C2
  8
0
  6
CONTINUOUS
 62
     7
 10
583.6858858461
 20
659.2985664517
 30
0.0
  0
VERTEX
  5
4C3
  8
0
  6
CONTINUOUS
 62
     7
 10
584.1827753107
 20
659.7954605728
 30
0.0
  0
VERTEX
  5
4C4
  8
0
  6
CONTINUOUS
 62
     7
 10
584.7169484119
 20
660.3296224982
 30
0.0
  0
VERTEX
  5
4C5
  8
0
  6
CONTINUOUS
 62
     7
 10
585.27008976
 20
660.8827685028
 30
0.0
  0
SEQEND
  5
626
  8
0
  6
CONTINUOUS
 62
     7
  0
POLYLINE
  5
1EB
  8
0
  6
CONTINUOUS
 62
     7
 66
     1
 10
0.0
 20
0.0
 30
0.0
  0
VERTEX
  5
4C6
  8
0
  6
CONTINUOUS
 62
     7
 10
608.2816614876
 20
658.8725869566
 30
0.0
  0
VERTEX
  5
4C7
  8
0
  6
CONTINUOUS
 62
     7
 10
609.0918841879
 20
658.1213151127
 30
0.0
  0
VERTEX
  5
4C8
  8
0
  6
CONTINUOUS
 62
     7
 10
609.7940082769
 20
657.8827773243
 30
0.0
  0
VERTEX
  5
4C9
  8
0
  6
CONTINUOUS
 62
     7
 10
610.3179154093
 20
658.0996786267
 30
0.0
  0
SEQEND
  5
625
  8
0
  6
CONTINUOUS
 62
     7
  0
ARC
  5
1EC
  8
0
  6
CONTINUOUS
 62
     7
 10
614.8448973568
 20
658.6845715044
 30
0.0
 40
1.474436791113414
 50
327.5844816224
 51
7.3261207842
  0
POLYLINE
  5
1ED
  8
0
  6
CONTINUOUS
 62
     7
 66
     1
 10
0.0
 20
0.0
 30
0.0
  0
VERTEX
  5
4CA
  8
0
  6
CONTINUOUS
 62
     7
 10
585.27008976
 20
660.8827685028
 30
0.0
  0
VERTEX
  5
4CB
  8
0
  6
CONTINUOUS
 62
     7
 10
585.8603126476
 20
660.2925484091
 30
0.0
  0
VERTEX
  5
4CC
  8
0
  6
CONTINUOUS
 62
     7
 10
586.4274638812
 20
659.7253953129
 30
0.0
  0
VERTEX
  5
4CD
  8
0
  6
CONTINUOUS
 62
     7
 10
586.9493751894
 20
659.2034821421
 30
0.0
  0
VERTEX
  5
4CE
  8
0
  6
CONTINUOUS
 62
     7
 10
587.4056440885
 20
658.7472085863
 30
0.0
  0
VERTEX
  5
4CF
  8
0
  6
CONTINUOUS
 62
     7
 10
587.778437614
 20
658.3744262367
 30
0.0
  0
VERTEX
  5
4D0
  8
0
  6
CONTINUOUS
 62
     7
 10
588.0531814988
 20
658.0996786267
 30
0.0
  0
SEQEND
  5
624
  8
0
  6
CONTINUOUS
 62
     7
  0
ARC
  5
1EE
  8
0
  6
CONTINUOUS
 62
     7
 10
542.7848917681
 20
683.0432174686
 30
0.0
 40
47.91740338093083
 50
332.4532748054
 51
340.8590842044
  0
POLYLINE
  5
1EF
  8
0
  6
CONTINUOUS
 62
     7
 66
     1
 10
0.0
 20
0.0
 30
0.0
  0
VERTEX
  5
4D1
  8
0
  6
CONTINUOUS
 62
     7
 10
582.0637994553
 20
658.8725869566
 30
0.0
  0
VERTEX
  5
4D2
  8
0
  6
CONTINUOUS
 62
     7
 10
582.0994225438
 20
658.4977035433
 30
0.0
  0
VERTEX
  5
4D3
  8
0
  6
CONTINUOUS
 62
     7
 10
582.1404659296
 20
658.2040016562
 30
0.0
  0
VERTEX
  5
4D4
  8
0
  6
CONTINUOUS
 62
     7
 10
582.1855307664
 20
658.0014650732
 30
0.0
  0
VERTEX
  5
4D5
  8
0
  6
CONTINUOUS
 62
     7
 10
582.2330822344
 20
657.8970079333
 30
0.0
  0
VERTEX
  5
4D6
  8
0
  6
CONTINUOUS
 62
     7
 10
582.2815054203
 20
657.8941916138
 30
0.0
  0
SEQEND
  5
623
  8
0
  6
CONTINUOUS
 62
     7
  0
POLYLINE
  5
1F0
  8
0
  6
CONTINUOUS
 62
     7
 66
     1
 10
0.0
 20
0.0
 30
0.0
  0
VERTEX
  5
4D7
  8
0
  6
CONTINUOUS
 62
     7
 10
588.0531814988
 20
658.0996786267
 30
0.0
  0
VERTEX
  5
4D8
  8
0
  6
CONTINUOUS
 62
     7
 10
588.5279036234
 20
657.8839694172
 30
0.0
  0
VERTEX
  5
4D9
  8
0
  6
CONTINUOUS
 62
     7
 10
589.1026479299
 20
658.0230121523
 30
0.0
  0
VERTEX
  5
4DA
  8
0
  6
CONTINUOUS
 62
     7
 10
589.7930336292
 20
658.5358207136
 30
0.0
  0
VERTEX
  5
4DB
  8
0
  6
CONTINUOUS
 62
     7
 10
590.0894354205
 20
658.8725869566
 30
0.0
  0
SEQEND
  5
622
  8
0
  6
CONTINUOUS
 62
     7
  0
ARC
  5
1F1
  8
0
  6
CONTINUOUS
 62
     7
 10
566.0034492782
 20
668.212680182
 30
0.0
 40
16.28083199066871
 50
1.0580431664
 51
16.0006463602
  0
ARC
  5
1F2
  8
0
  6
CONTINUOUS
 62
     7
 10
632.3676476299
 20
668.212680182
 30
0.0
 40
16.28083199066856
 50
163.9993536398
 51
178.9419568336
  0
POLYLINE
  5
1F3
  8
0
  6
CONTINUOUS
 62
     7
 66
     1
 10
0.0
 20
0.0
 30
0.0
  0
VERTEX
  5
4DC
  8
0
  6
CONTINUOUS
 62
     7
 10
610.3179154093
 20
667.3314546257
 30
0.0
  0
VERTEX
  5
4DD
  8
0
  6
CONTINUOUS
 62
     7
 10
609.2992161508
 20
669.6985487849
 30
0.0
  0
VERTEX
  5
4DE
  8
0
  6
CONTINUOUS
 62
     7
 10
607.5033282037
 20
671.3035230547
 30
0.0
  0
VERTEX
  5
4DF
  8
0
  6
CONTINUOUS
 62
     7
 10
605.0859980392
 20
672.1420113951
 30
0.0
  0
VERTEX
  5
4E0
  8
0
  6
CONTINUOUS
 62
     7
 10
601.9748730692
 20
672.519904843
 30
0.0
  0
VERTEX
  5
4E1
  8
0
  6
CONTINUOUS
 62
     7
 10
598.2489038948
 20
672.5895379692
 30
0.0
  0
VERTEX
  5
4E2
  8
0
  6
CONTINUOUS
 62
     7
 10
596.3088464565
 20
672.5152109772
 30
0.0
  0
VERTEX
  5
4E3
  8
0
  6
CONTINUOUS
 62
     7
 10
594.451836973
 20
672.3384534031
 30
0.0
  0
VERTEX
  5
4E4
  8
0
  6
CONTINUOUS
 62
     7
 10
592.7588983546
 20
672.0198963791
 30
0.0
  0
VERTEX
  5
4E5
  8
0
  6
CONTINUOUS
 62
     7
 10
591.2617526124
 20
671.5022151381
 30
0.0
  0
VERTEX
  5
4E6
  8
0
  6
CONTINUOUS
 62
     7
 10
590.1217336873
 20
670.8108608633
 30
0.0
  0
VERTEX
  5
4E7
  8
0
  6
CONTINUOUS
 62
     7
 10
589.2103097509
 20
669.8895369679
 30
0.0
  0
VERTEX
  5
4E8
  8
0
  6
CONTINUOUS
 62
     7
 10
588.1463025804
 20
667.6713501126
 30
0.0
  0
VERTEX
  5
4E9
  8
0
  6
CONTINUOUS
 62
     7
 10
588.0531814988
 20
667.3314546257
 30
0.0
  0
SEQEND
  5
621
  8
0
  6
CONTINUOUS
 62
     7
  0
POLYLINE
  5
1F4
  8
0
  6
CONTINUOUS
 62
     7
 66
     1
 10
0.0
 20
0.0
 30
0.0
  0
VERTEX
  5
4EA
  8
0
  6
CONTINUOUS
 62
     7
 10
590.0894354205
 20
658.8725869566
 30
0.0
  0
VERTEX
  5
4EB
  8
0
  6
CONTINUOUS
 62
     7
 10
591.964175656
 20
660.4118769079
 30
0.0
  0
VERTEX
  5
4EC
  8
0
  6
CONTINUOUS
 62
     7
 10
594.4449377353
 20
661.2351213604
 30
0.0
  0
VERTEX
  5
4ED
  8
0
  6
CONTINUOUS
 62
     7
 10
597.5250317357
 20
661.5886812121
 30
0.0
  0
VERTEX
  5
4EE
  8
0
  6
CONTINUOUS
 62
     7
 10
601.1710913959
 20
661.5706657082
 30
0.0
  0
VERTEX
  5
4EF
  8
0
  6
CONTINUOUS
 62
     7
 10
603.0135803963
 20
661.3902722508
 30
0.0
  0
VERTEX
  5
4F0
  8
0
  6
CONTINUOUS
 62
     7
 10
604.7395884166
 20
661.0446100146
 30
0.0
  0
VERTEX
  5
4F1
  8
0
  6
CONTINUOUS
 62
     7
 10
606.2097635227
 20
660.5076019675
 30
0.0
  0
VERTEX
  5
4F2
  8
0
  6
CONTINUOUS
 62
     7
 10
607.4629469882
 20
659.7180341393
 30
0.0
  0
VERTEX
  5
4F3
  8
0
  6
CONTINUOUS
 62
     7
 10
608.2816614876
 20
658.8725869566
 30
0.0
  0
SEQEND
  5
620
  8
0
  6
CONTINUOUS
 62
     7
  0
LINE
  5
1F5
  8
0
  6
CONTINUOUS
 62
     7
 10
617.3806485827
 20
674.0368728548
 30
0.0
 11
616.7175580854
 21
672.7004622132
 31
0.0
  0
POLYLINE
  5
1F6
  8
0
  6
CONTINUOUS
 62
     7
 66
     1
 10
0.0
 20
0.0
 30
0.0
  0
VERTEX
  5
4F4
  8
0
  6
CONTINUOUS
 62
     7
 10
616.3072974528
 20
658.8725869566
 30
0.0
  0
VERTEX
  5
4F5
  8
0
  6
CONTINUOUS
 62
     7
 10
616.4309305246
 20
660.1645325333
 30
0.0
  0
VERTEX
  5
4F6
  8
0
  6
CONTINUOUS
 62
     7
 10
616.573840111
 20
661.1634616762
 30
0.0
  0
VERTEX
  5
4F7
  8
0
  6
CONTINUOUS
 62
     7
 10
616.7307865913
 20
661.8327622324
 30
0.0
  0
VERTEX
  5
4F8
  8
0
  6
CONTINUOUS
 62
     7
 10
616.8960162546
 20
662.1478919894
 30
0.0
  0
VERTEX
  5
4F9
  8
0
  6
CONTINUOUS
 62
     7
 10
617.0634717788
 20
662.0973025471
 30
0.0
  0
VERTEX
  5
4FA
  8
0
  6
CONTINUOUS
 62
     7
 10
617.2270157482
 20
661.6828267485
 30
0.0
  0
VERTEX
  5
4FB
  8
0
  6
CONTINUOUS
 62
     7
 10
617.3806485827
 20
660.9196935803
 30
0.0
  0
SEQEND
  5
61F
  8
0
  6
CONTINUOUS
 62
     7
  0
LINE
  5
1F7
  8
0
  6
CONTINUOUS
 62
     7
 10
581.6535388227
 20
672.7004622132
 30
0.0
 11
580.9904483254
 21
674.0368728548
 31
0.0
  0
POLYLINE
  5
1F8
  8
0
  6
CONTINUOUS
 62
     7
 66
     1
 10
0.0
 20
0.0
 30
0.0
  0
VERTEX
  5
4FC
  8
0
  6
CONTINUOUS
 62
     7
 10
580.9904483254
 20
660.9196935803
 30
0.0
  0
VERTEX
  5
4FD
  8
0
  6
CONTINUOUS
 62
     7
 10
581.14408116
 20
661.6828267485
 30
0.0
  0
VERTEX
  5
4FE
  8
0
  6
CONTINUOUS
 62
     7
 10
581.3076251294
 20
662.0973025471
 30
0.0
  0
VERTEX
  5
4FF
  8
0
  6
CONTINUOUS
 62
     7
 10
581.4750806536
 20
662.1478919894
 30
0.0
  0
VERTEX
  5
500
  8
0
  6
CONTINUOUS
 62
     7
 10
581.6403103168
 20
661.8327622324
 30
0.0
  0
VERTEX
  5
501
  8
0
  6
CONTINUOUS
 62
     7
 10
581.7972567971
 20
661.1634616762
 30
0.0
  0
VERTEX
  5
502
  8
0
  6
CONTINUOUS
 62
     7
 10
581.9401663835
 20
660.1645325333
 30
0.0
  0
VERTEX
  5
503
  8
0
  6
CONTINUOUS
 62
     7
 10
582.0637994553
 20
658.8725869566
 30
0.0
  0
SEQEND
  5
61E
  8
0
  6
CONTINUOUS
 62
     7
  0
LINE
  5
1F9
  8
0
  6
CONTINUOUS
 62
     7
 10
658.5595716829
 20
575.8720015198
 30
0.0
 11
667.8764817412
 21
575.8720015198
 31
0.0
  0
LINE
  5
1FA
  8
0
  6
CONTINUOUS
 62
     7
 10
658.7332298155
 20
585.8720068842
 30
0.0
 11
668.7223983104
 21
585.8720068842
 31
0.0
  0
LINE
  5
1FB
  8
0
  6
CONTINUOUS
 62
     7
 10
539.8115252252
 20
575.8720015198
 30
0.0
 11
530.4946151669
 21
575.8720015198
 31
0.0
  0
LINE
  5
1FC
  8
0
  6
CONTINUOUS
 62
     7
 10
539.6378670926
 20
585.8720068842
 30
0.0
 11
529.6486985977
 21
585.8720068842
 31
0.0
  0
LINE
  5
1FD
  8
0
  6
CONTINUOUS
 62
     7
 10
652.4240856166
 20
615.8719931751
 30
0.0
 11
652.4240856166
 21
597.8720014006
 31
0.0
  0
LINE
  5
1FE
  8
0
  6
CONTINUOUS
 62
     7
 10
643.2257515485
 20
597.8720014006
 30
0.0
 11
643.2089989181
 21
601.1312429816
 31
0.0
  0
LINE
  5
1FF
  8
0
  6
CONTINUOUS
 62
     7
 10
643.1855482156
 20
615.8719931751
 30
0.0
 11
652.4240856166
 21
615.8719931751
 31
0.0
  0
LINE
  5
200
  8
0
  6
CONTINUOUS
 62
     7
 10
652.4240856166
 20
615.8719931751
 30
0.0
 11
658.465381443
 21
615.8719931751
 31
0.0
  0
LINE
  5
201
  8
0
  6
CONTINUOUS
 62
     7
 10
539.9057154651
 20
615.8719931751
 30
0.0
 11
545.9470112915
 21
615.8719931751
 31
0.0
  0
LINE
  5
202
  8
0
  6
CONTINUOUS
 62
     7
 10
545.9470112915
 20
615.8719931751
 30
0.0
 11
545.9470112915
 21
597.8720014006
 31
0.0
  0
POLYLINE
  5
203
  8
0
  6
CONTINUOUS
 62
     7
 66
     1
 10
0.0
 20
0.0
 30
0.0
  0
VERTEX
  5
504
  8
0
  6
CONTINUOUS
 62
     7
 10
555.157862335
 20
601.914731136
 30
0.0
  0
VERTEX
  5
505
  8
0
  6
CONTINUOUS
 62
     7
 10
555.1785600479
 20
600.7727359444
 30
0.0
  0
VERTEX
  5
506
  8
0
  6
CONTINUOUS
 62
     7
 10
555.1221740539
 20
597.8720014006
 30
0.0
  0
SEQEND
  5
61D
  8
0
  6
CONTINUOUS
 62
     7
  0
LINE
  5
204
  8
0
  6
CONTINUOUS
 62
     7
 10
545.9470112915
 20
615.8719931751
 30
0.0
 11
555.1855486925
 21
615.8719931751
 31
0.0
  0
POLYLINE
  5
205
  8
0
  6
CONTINUOUS
 62
     7
 66
     1
 10
0.0
 20
0.0
 30
0.0
  0
VERTEX
  5
507
  8
0
  6
CONTINUOUS
 62
     7
 10
617.3806485827
 20
660.9196935803
 30
0.0
  0
VERTEX
  5
508
  8
0
  6
CONTINUOUS
 62
     7
 10
617.783609509
 20
658.8387315184
 30
0.0
  0
VERTEX
  5
509
  8
0
  6
CONTINUOUS
 62
     7
 10
617.9694661046
 20
657.8720037848
 30
0.0
  0
SEQEND
  5
61C
  8
0
  6
CONTINUOUS
 62
     7
  0
LINE
  5
206
  8
0
  6
CONTINUOUS
 62
     7
 10
617.9694661046
 20
657.8720037848
 30
0.0
 11
604.8814218598
 21
657.8720037848
 31
0.0
  0
LINE
  5
207
  8
0
  6
CONTINUOUS
 62
     7
 10
593.4898240599
 20
657.8720037848
 30
0.0
 11
580.4016308035
 21
657.8720037848
 31
0.0
  0
POLYLINE
  5
208
  8
0
  6
CONTINUOUS
 62
     7
 66
     1
 10
0.0
 20
0.0
 30
0.0
  0
VERTEX
  5
50A
  8
0
  6
CONTINUOUS
 62
     7
 10
580.4016308035
 20
657.8720037848
 30
0.0
  0
VERTEX
  5
50B
  8
0
  6
CONTINUOUS
 62
     7
 10
580.8712707008
 20
660.2530901343
 30
0.0
  0
VERTEX
  5
50C
  8
0
  6
CONTINUOUS
 62
     7
 10
580.9904483254
 20
660.9196935803
 30
0.0
  0
SEQEND
  5
61B
  8
0
  6
CONTINUOUS
 62
     7
  0
ARC
  5
209
  8
0
  6
CONTINUOUS
 62
     7
 10
539.681991889
 20
190.7569221498
 30
0.0
 40
384.0770220603776
 50
89.8658457296
 51
90.7920336061
  0
ARC
  5
20A
  8
0
  6
CONTINUOUS
 62
     7
 10
658.6891050191
 20
190.7569221498
 30
0.0
 40
384.0770220603776
 50
89.2079663939
 51
90.1341542704
  0
LINE
  5
20B
  8
0
  6
CONTINUOUS
 62
     7
 10
667.5667685564
 20
597.8720014006
 30
0.0
 11
658.465381443
 21
597.8720014006
 31
0.0
  0
LINE
  5
20C
  8
0
  6
CONTINUOUS
 62
     7
 10
539.9057154651
 20
597.8720014006
 30
0.0
 11
530.8043283517
 21
597.8720014006
 31
0.0
  0
LINE
  5
20D
  8
0
  6
CONTINUOUS
 62
     7
 10
530.8043283517
 20
615.8719931751
 30
0.0
 11
539.9057154651
 21
615.8719931751
 31
0.0
  0
LINE
  5
20E
  8
0
  6
CONTINUOUS
 62
     7
 10
658.465381443
 20
615.8719931751
 30
0.0
 11
667.5667685564
 21
615.8719931751
 31
0.0
  0
LINE
  5
20F
  8
0
  6
CONTINUOUS
 62
     7
 10
576.0269087846
 20
555.8719982415
 30
0.0
 11
542.1855484243
 21
555.8719982415
 31
0.0
  0
LINE
  5
210
  8
0
  6
CONTINUOUS
 62
     7
 10
622.3441881235
 20
555.8719982415
 30
0.0
 11
656.1855484839
 21
555.8719982415
 31
0.0
  0
POLYLINE
  5
211
  8
0
  6
CONTINUOUS
 62
     7
 66
     1
 10
0.0
 20
0.0
 30
0.0
  0
VERTEX
  5
50D
  8
0
  6
CONTINUOUS
 62
     7
 10
576.0269087846
 20
555.8719982415
 30
0.0
  0
VERTEX
  5
50E
  8
0
  6
CONTINUOUS
 62
     7
 10
582.630933925
 20
562.1657644421
 30
0.0
  0
VERTEX
  5
50F
  8
0
  6
CONTINUOUS
 62
     7
 10
589.2476855884
 20
566.3643007189
 30
0.0
  0
VERTEX
  5
510
  8
0
  6
CONTINUOUS
 62
     7
 10
595.8720782879
 20
568.46437352
 30
0.0
  0
VERTEX
  5
511
  8
0
  6
CONTINUOUS
 62
     7
 10
602.4990186202
 20
568.46437352
 30
0.0
  0
VERTEX
  5
512
  8
0
  6
CONTINUOUS
 62
     7
 10
609.1234113197
 20
566.3643007189
 30
0.0
  0
VERTEX
  5
513
  8
0
  6
CONTINUOUS
 62
     7
 10
615.7401629831
 20
562.1657644421
 30
0.0
  0
VERTEX
  5
514
  8
0
  6
CONTINUOUS
 62
     7
 10
622.3441881235
 20
555.8719982415
 30
0.0
  0
SEQEND
  5
61A
  8
0
  6
CONTINUOUS
 62
     7
  0
POLYLINE
  5
212
  8
0
  6
CONTINUOUS
 62
     7
 66
     1
 10
0.0
 20
0.0
 30
0.0
  0
VERTEX
  5
515
  8
0
  6
CONTINUOUS
 62
     7
 10
534.2694667275
 20
574.7011204273
 30
0.0
  0
VERTEX
  5
516
  8
0
  6
CONTINUOUS
 62
     7
 10
534.2352238591
 20
574.7832630783
 30
0.0
  0
VERTEX
  5
517
  8
0
  6
CONTINUOUS
 62
     7
 10
534.3728360827
 20
574.7972478181
 30
0.0
  0
SEQEND
  5
619
  8
0
  6
CONTINUOUS
 62
     7
  0
LINE
  5
213
  8
0
  6
CONTINUOUS
 62
     7
 10
542.1855484243
 20
555.8719982415
 30
0.0
 11
535.810209542
 21
555.8719982415
 31
0.0
  0
LINE
  5
214
  8
0
  6
CONTINUOUS
 62
     7
 10
656.1855484839
 20
555.8719982415
 30
0.0
 11
662.5608873661
 21
555.8719982415
 31
0.0
  0
POLYLINE
  5
215
  8
0
  6
CONTINUOUS
 62
     7
 66
     1
 10
0.0
 20
0.0
 30
0.0
  0
VERTEX
  5
518
  8
0
  6
CONTINUOUS
 62
     7
 10
664.1016301806
 20
574.7011204273
 30
0.0
  0
VERTEX
  5
519
  8
0
  6
CONTINUOUS
 62
     7
 10
664.135873049
 20
574.7832630783
 30
0.0
  0
VERTEX
  5
51A
  8
0
  6
CONTINUOUS
 62
     7
 10
663.9982608254
 20
574.7972478181
 30
0.0
  0
SEQEND
  5
618
  8
0
  6
CONTINUOUS
 62
     7
  0
ARC
  5
216
  8
0
  6
CONTINUOUS
 62
     7
 10
593.9252723696
 20
458.2311605577
 30
0.0
 40
75.81165036252966
 50
54.4417281171
 51
68.831793209
  0
ARC
  5
217
  8
0
  6
CONTINUOUS
 62
     7
 10
604.4458245385
 20
458.2311605577
 30
0.0
 40
75.81165036252966
 50
111.168206791
 51
125.5582718829
  0
POLYLINE
  5
218
  8
0
  6
CONTINUOUS
 62
     7
 66
     1
 10
0.0
 20
0.0
 30
0.0
  0
VERTEX
  5
51B
  8
0
  6
CONTINUOUS
 62
     7
 10
658.1037600632
 20
640.060019961
 30
0.0
  0
VERTEX
  5
51C
  8
0
  6
CONTINUOUS
 62
     7
 10
658.1088450844
 20
640.069079867
 30
0.0
  0
VERTEX
  5
51D
  8
0
  6
CONTINUOUS
 62
     7
 10
657.8586024339
 20
639.6104072243
 30
0.0
  0
VERTEX
  5
51E
  8
0
  6
CONTINUOUS
 62
     7
 10
657.4646082814
 20
638.7532030255
 30
0.0
  0
VERTEX
  5
51F
  8
0
  6
CONTINUOUS
 62
     7
 10
657.0645679827
 20
637.6584445149
 30
0.0
  0
VERTEX
  5
520
  8
0
  6
CONTINUOUS
 62
     7
 10
656.6706595118
 20
636.2142090708
 30
0.0
  0
VERTEX
  5
521
  8
0
  6
CONTINUOUS
 62
     7
 10
656.3321386571
 20
634.3746905237
 30
0.0
  0
VERTEX
  5
522
  8
0
  6
CONTINUOUS
 62
     7
 10
656.1066058571
 20
632.2818671376
 30
0.0
  0
VERTEX
  5
523
  8
0
  6
CONTINUOUS
 62
     7
 10
655.9847441609
 20
629.6184782892
 30
0.0
  0
VERTEX
  5
524
  8
0
  6
CONTINUOUS
 62
     7
 10
655.9763175542
 20
626.8716280371
 30
0.0
  0
VERTEX
  5
525
  8
0
  6
CONTINUOUS
 62
     7
 10
656.1794650848
 20
621.1344872624
 30
0.0
  0
VERTEX
  5
526
  8
0
  6
CONTINUOUS
 62
     7
 10
656.8744254406
 20
616.7812769324
 30
0.0
  0
SEQEND
  5
617
  8
0
  6
CONTINUOUS
 62
     7
  0
POLYLINE
  5
219
  8
0
  6
CONTINUOUS
 62
     7
 66
     1
 10
0.0
 20
0.0
 30
0.0
  0
VERTEX
  5
527
  8
0
  6
CONTINUOUS
 62
     7
 10
540.2685885425
 20
640.0579188973
 30
0.0
  0
VERTEX
  5
528
  8
0
  6
CONTINUOUS
 62
     7
 10
540.2690467532
 20
640.0567417055
 30
0.0
  0
VERTEX
  5
529
  8
0
  6
CONTINUOUS
 62
     7
 10
540.5241248305
 20
639.5810817391
 30
0.0
  0
VERTEX
  5
52A
  8
0
  6
CONTINUOUS
 62
     7
 10
540.9188230629
 20
638.7019728333
 30
0.0
  0
VERTEX
  5
52B
  8
0
  6
CONTINUOUS
 62
     7
 10
541.3116139467
 20
637.5970219284
 30
0.0
  0
VERTEX
  5
52C
  8
0
  6
CONTINUOUS
 62
     7
 10
541.6951661105
 20
636.1506854206
 30
0.0
  0
VERTEX
  5
52D
  8
0
  6
CONTINUOUS
 62
     7
 10
542.0299095209
 20
634.2745845228
 30
0.0
  0
VERTEX
  5
52E
  8
0
  6
CONTINUOUS
 62
     7
 10
542.2501412327
 20
632.1448807627
 30
0.0
  0
VERTEX
  5
52F
  8
0
  6
CONTINUOUS
 62
     7
 10
542.3670482929
 20
629.3770794779
 30
0.0
  0
VERTEX
  5
530
  8
0
  6
CONTINUOUS
 62
     7
 10
542.3681323524
 20
626.5244905859
 30
0.0
  0
VERTEX
  5
531
  8
0
  6
CONTINUOUS
 62
     7
 10
542.3143689628
 20
623.5537801892
 30
0.0
  0
VERTEX
  5
532
  8
0
  6
CONTINUOUS
 62
     7
 10
542.1154682632
 20
620.5644731432
 30
0.0
  0
VERTEX
  5
533
  8
0
  6
CONTINUOUS
 62
     7
 10
541.4234434362
 20
616.5297751337
 30
0.0
  0
SEQEND
  5
616
  8
0
  6
CONTINUOUS
 62
     7
  0
LINE
  5
21A
  8
0
  6
CONTINUOUS
 62
     7
 10
540.7548693116
 20
657.8720037848
 30
0.0
 11
540.2127017374
 21
657.8720037848
 31
0.0
  0
LINE
  5
21B
  8
0
  6
CONTINUOUS
 62
     7
 10
540.7548693116
 20
657.8720037848
 30
0.0
 11
542.6543613072
 21
657.8720037848
 31
0.0
  0
LINE
  5
21C
  8
0
  6
CONTINUOUS
 62
     7
 10
542.6543613072
 20
657.8720037848
 30
0.0
 11
543.74574843
 21
657.8720037848
 31
0.0
  0
LINE
  5
21D
  8
0
  6
CONTINUOUS
 62
     7
 10
543.74574843
 20
657.8720037848
 30
0.0
 11
545.3965698476
 21
657.8720037848
 31
0.0
  0
LINE
  5
21E
  8
0
  6
CONTINUOUS
 62
     7
 10
545.3965698476
 20
657.8720037848
 30
0.0
 11
546.9027643199
 21
657.8720037848
 31
0.0
  0
LINE
  5
21F
  8
0
  6
CONTINUOUS
 62
     7
 10
546.9027643199
 20
657.8720037848
 30
0.0
 11
548.827979445
 21
657.8720037848
 31
0.0
  0
LINE
  5
220
  8
0
  6
CONTINUOUS
 62
     7
 10
548.827979445
 20
657.8720037848
 30
0.0
 11
570.9521004106
 21
657.8720037848
 31
0.0
  0
LINE
  5
221
  8
0
  6
CONTINUOUS
 62
     7
 10
570.9521004106
 20
657.8720037848
 30
0.0
 11
571.2526586945
 21
657.8720037848
 31
0.0
  0
LINE
  5
222
  8
0
  6
CONTINUOUS
 62
     7
 10
571.2526586945
 20
657.8720037848
 30
0.0
 11
571.9388273652
 21
657.8720037848
 31
0.0
  0
LINE
  5
223
  8
0
  6
CONTINUOUS
 62
     7
 10
571.9388273652
 20
657.8720037848
 30
0.0
 11
572.5625247802
 21
657.8720037848
 31
0.0
  0
LINE
  5
224
  8
0
  6
CONTINUOUS
 62
     7
 10
572.5625247802
 20
657.8720037848
 30
0.0
 11
573.1448975499
 21
657.8720037848
 31
0.0
  0
LINE
  5
225
  8
0
  6
CONTINUOUS
 62
     7
 10
574.3854639227
 20
657.8720037848
 30
0.0
 11
574.4186059679
 21
657.8720037848
 31
0.0
  0
LINE
  5
226
  8
0
  6
CONTINUOUS
 62
     7
 10
574.4186059679
 20
657.8720037848
 30
0.0
 11
574.4368114616
 21
657.8720037848
 31
0.0
  0
LINE
  5
227
  8
0
  6
CONTINUOUS
 62
     7
 10
574.4368114616
 20
657.8720037848
 30
0.0
 11
574.4411719139
 21
657.8720186859
 31
0.0
  0
LINE
  5
228
  8
0
  6
CONTINUOUS
 62
     7
 10
574.4411719139
 20
657.8720186859
 30
0.0
 11
574.4558272059
 21
657.872301808
 31
0.0
  0
LINE
  5
229
  8
0
  6
CONTINUOUS
 62
     7
 10
574.4558197553
 20
657.8720037848
 30
0.0
 11
574.4949725564
 21
657.8720037848
 31
0.0
  0
LINE
  5
22A
  8
0
  6
CONTINUOUS
 62
     7
 10
593.4898086931
 20
657.8720037848
 30
0.0
 11
604.8814297761
 21
657.8720037848
 31
0.0
  0
LINE
  5
22B
  8
0
  6
CONTINUOUS
 62
     7
 10
623.9297461803
 20
657.8720186859
 30
0.0
 11
623.9342854465
 21
657.8720037848
 31
0.0
  0
LINE
  5
22C
  8
0
  6
CONTINUOUS
 62
     7
 10
625.3914606865
 20
657.8720037848
 30
0.0
 11
626.0175776775
 21
657.8720037848
 31
0.0
  0
LINE
  5
22D
  8
0
  6
CONTINUOUS
 62
     7
 10
626.0175776775
 20
657.8720037848
 30
0.0
 11
626.6359367515
 21
657.8720037848
 31
0.0
  0
LINE
  5
22E
  8
0
  6
CONTINUOUS
 62
     7
 10
626.6359367515
 20
657.8720037848
 30
0.0
 11
627.4189964975
 21
657.8720037848
 31
0.0
  0
LINE
  5
22F
  8
0
  6
CONTINUOUS
 62
     7
 10
627.4189964975
 20
657.8720037848
 30
0.0
 11
649.5431174631
 21
657.8720037848
 31
0.0
  0
LINE
  5
230
  8
0
  6
CONTINUOUS
 62
     7
 10
649.5431174631
 20
657.8720037848
 30
0.0
 11
658.1855488117
 21
657.8720037848
 31
0.0
  0
LINE
  5
231
  8
0
  6
CONTINUOUS
 62
     7
 10
635.8474937375
 20
701.7719869524
 30
0.0
 11
562.5236031706
 21
701.7719869524
 31
0.0
  0
LINE
  5
232
  8
0
  6
CONTINUOUS
 62
     7
 10
562.5236031706
 20
701.7719869524
 30
0.0
 11
562.5599210258
 21
705.1720147043
 31
0.0
  0
LINE
  5
233
  8
0
  6
CONTINUOUS
 62
     7
 10
635.8111758823
 20
705.1720147043
 30
0.0
 11
562.5599210258
 21
705.1720147043
 31
0.0
  0
LINE
  5
234
  8
0
  6
CONTINUOUS
 62
     7
 10
635.8111758823
 20
705.1720147043
 30
0.0
 11
635.8474937375
 21
701.7719869524
 31
0.0
  0
ARC
  5
235
  8
0
  6
CONTINUOUS
 62
     7
 10
541.7046049112
 20
748.836114945
 30
0.0
 40
48.38902623601199
 50
295.5305746342
 51
311.707222534
  0
POLYLINE
  5
236
  8
0
  6
CONTINUOUS
 62
     7
 66
     1
 10
0.0
 20
0.0
 30
0.0
  0
VERTEX
  5
534
  8
0
  6
CONTINUOUS
 62
     7
 10
573.83186157
 20
708.8642840296
 30
0.0
  0
VERTEX
  5
535
  8
0
  6
CONTINUOUS
 62
     7
 10
581.3043580498
 20
710.6341545492
 30
0.0
  0
VERTEX
  5
536
  8
0
  6
CONTINUOUS
 62
     7
 10
588.8628351609
 20
711.9693581969
 30
0.0
  0
VERTEX
  5
537
  8
0
  6
CONTINUOUS
 62
     7
 10
596.6977900467
 20
712.6547818094
 30
0.0
  0
VERTEX
  5
538
  8
0
  6
CONTINUOUS
 62
     7
 10
604.5584559548
 20
712.504339686
 30
0.0
  0
VERTEX
  5
539
  8
0
  6
CONTINUOUS
 62
     7
 10
609.5892644594
 20
711.9577352911
 30
0.0
  0
VERTEX
  5
53A
  8
0
  6
CONTINUOUS
 62
     7
 10
614.5828186641
 20
711.1305420309
 30
0.0
  0
VERTEX
  5
53B
  8
0
  6
CONTINUOUS
 62
     7
 10
624.5392353381
 20
708.8642840296
 30
0.0
  0
SEQEND
  5
615
  8
0
  6
CONTINUOUS
 62
     7
  0
ARC
  5
237
  8
0
  6
CONTINUOUS
 62
     7
 10
656.1409693154
 20
748.0457054631
 30
0.0
 40
47.44948746099821
 50
228.1315171248
 51
244.630685707
  0
LINE
  5
238
  8
0
  6
CONTINUOUS
 62
     7
 10
577.2652381207
 20
676.0158811718
 30
0.0
 11
579.2673190231
 21
676.3720040232
 31
0.0
  0
LINE
  5
239
  8
0
  6
CONTINUOUS
 62
     7
 10
589.8933873619
 20
676.3720040232
 30
0.0
 11
579.2673190231
 21
676.3720040232
 31
0.0
  0
ARC
  5
23A
  8
0
  6
CONTINUOUS
 62
     7
 10
599.1912102796
 20
818.9113787876
 30
0.0
 40
142.8423006998788
 50
266.2678918407
 51
273.5249965912
  0
LINE
  5
23B
  8
0
  6
CONTINUOUS
 62
     7
 10
607.9737252663
 20
676.3393257767
 30
0.0
 11
615.4490036066
 21
675.009665361
 31
0.0
  0
LINE
  5
23C
  8
0
  6
CONTINUOUS
 62
     7
 10
615.4490036066
 20
675.009665361
 30
0.0
 11
623.1079396899
 21
676.3720040232
 31
0.0
  0
LINE
  5
23D
  8
0
  6
CONTINUOUS
 62
     7
 10
624.0212635244
 20
676.3720040232
 30
0.0
 11
623.1079396899
 21
676.3720040232
 31
0.0
  0
LINE
  5
23E
  8
0
  6
CONTINUOUS
 62
     7
 10
624.0212635244
 20
676.3720040232
 30
0.0
 11
623.4430910195
 21
676.271689406
 31
0.0
  0
POLYLINE
  5
23F
  8
0
  6
CONTINUOUS
 62
     7
 66
     1
 10
0.0
 20
0.0
 30
0.0
  0
VERTEX
  5
53C
  8
0
  6
CONTINUOUS
 62
     7
 10
623.4430910195
 20
676.271689406
 30
0.0
  0
VERTEX
  5
53D
  8
0
  6
CONTINUOUS
 62
     7
 10
621.5230614985
 20
675.8958672196
 30
0.0
  0
VERTEX
  5
53E
  8
0
  6
CONTINUOUS
 62
     7
 10
619.9277115161
 20
675.47547566
 30
0.0
  0
VERTEX
  5
53F
  8
0
  6
CONTINUOUS
 62
     7
 10
618.6898627426
 20
675.0191574007
 30
0.0
  0
VERTEX
  5
540
  8
0
  6
CONTINUOUS
 62
     7
 10
617.8349775369
 20
674.5363150746
 30
0.0
  0
VERTEX
  5
541
  8
0
  6
CONTINUOUS
 62
     7
 10
617.3806485827
 20
674.0368728548
 30
0.0
  0
SEQEND
  5
614
  8
0
  6
CONTINUOUS
 62
     7
  0
POLYLINE
  5
240
  8
0
  6
CONTINUOUS
 62
     7
 66
     1
 10
0.0
 20
0.0
 30
0.0
  0
VERTEX
  5
542
  8
0
  6
CONTINUOUS
 62
     7
 10
580.9904483254
 20
674.0368728548
 30
0.0
  0
VERTEX
  5
543
  8
0
  6
CONTINUOUS
 62
     7
 10
580.5361193712
 20
674.5363150746
 30
0.0
  0
VERTEX
  5
544
  8
0
  6
CONTINUOUS
 62
     7
 10
579.6812341656
 20
675.0191574007
 30
0.0
  0
VERTEX
  5
545
  8
0
  6
CONTINUOUS
 62
     7
 10
578.443385392
 20
675.47547566
 30
0.0
  0
VERTEX
  5
546
  8
0
  6
CONTINUOUS
 62
     7
 10
576.8480354096
 20
675.8958672196
 30
0.0
  0
VERTEX
  5
547
  8
0
  6
CONTINUOUS
 62
     7
 10
574.9280058886
 20
676.271689406
 30
0.0
  0
SEQEND
  5
613
  8
0
  6
CONTINUOUS
 62
     7
  0
LINE
  5
241
  8
0
  6
CONTINUOUS
 62
     7
 10
574.9280058886
 20
676.271689406
 30
0.0
 11
574.3498333837
 21
676.3720040232
 31
0.0
  0
LINE
  5
242
  8
0
  6
CONTINUOUS
 62
     7
 10
575.2631572182
 20
676.3720040232
 30
0.0
 11
574.3498333837
 21
676.3720040232
 31
0.0
  0
LINE
  5
243
  8
0
  6
CONTINUOUS
 62
     7
 10
575.2631572182
 20
676.3720040232
 30
0.0
 11
577.2652381207
 21
676.0158811718
 31
0.0
  0
LINE
  5
244
  8
0
  6
CONTINUOUS
 62
     7
 10
525.060437351
 20
575.8720015198
 30
0.0
 11
530.4946151669
 21
575.8720015198
 31
0.0
  0
LINE
  5
245
  8
0
  6
CONTINUOUS
 62
     7
 10
524.1855454738
 20
585.8720068842
 30
0.0
 11
529.6486985977
 21
585.8720068842
 31
0.0
  0
LINE
  5
246
  8
0
  6
CONTINUOUS
 62
     7
 10
673.3106595571
 20
575.8720015198
 30
0.0
 11
667.8764817412
 21
575.8720015198
 31
0.0
  0
LINE
  5
247
  8
0
  6
CONTINUOUS
 62
     7
 10
674.1855514343
 20
585.8720068842
 30
0.0
 11
668.7223983104
 21
585.8720068842
 31
0.0
  0
LINE
  5
248
  8
0
  6
CONTINUOUS
 62
     7
 10
529.3972191508
 20
597.8720014006
 30
0.0
 11
524.4997811611
 21
597.8720014006
 31
0.0
  0
LINE
  5
249
  8
0
  6
CONTINUOUS
 62
     7
 10
530.8043283517
 20
597.8720014006
 30
0.0
 11
529.3972191508
 21
597.8720014006
 31
0.0
  0
LINE
  5
24A
  8
0
  6
CONTINUOUS
 62
     7
 10
667.5667685564
 20
597.8720014006
 30
0.0
 11
668.9738777573
 21
597.8720014006
 31
0.0
  0
LINE
  5
24B
  8
0
  6
CONTINUOUS
 62
     7
 10
673.871315747
 20
597.8720014006
 30
0.0
 11
668.9738777573
 21
597.8720014006
 31
0.0
  0
LINE
  5
24C
  8
0
  6
CONTINUOUS
 62
     7
 10
668.9738777573
 20
615.8719931751
 30
0.0
 11
668.9738777573
 21
597.8720014006
 31
0.0
  0
LINE
  5
24D
  8
0
  6
CONTINUOUS
 62
     7
 10
667.5667685564
 20
615.8719931751
 30
0.0
 11
668.9738777573
 21
615.8719931751
 31
0.0
  0
LINE
  5
24E
  8
0
  6
CONTINUOUS
 62
     7
 10
529.3972191508
 20
615.8719931751
 30
0.0
 11
529.3972191508
 21
597.8720014006
 31
0.0
  0
LINE
  5
24F
  8
0
  6
CONTINUOUS
 62
     7
 10
529.3972191508
 20
615.8719931751
 30
0.0
 11
530.8043283517
 21
615.8719931751
 31
0.0
  0
POLYLINE
  5
250
  8
0
  6
CONTINUOUS
 62
     7
 66
     1
 10
0.0
 20
0.0
 30
0.0
  0
VERTEX
  5
548
  8
0
  6
CONTINUOUS
 62
     7
 10
622.7090281541
 20
657.8720037848
 30
0.0
  0
VERTEX
  5
549
  8
0
  6
CONTINUOUS
 62
     7
 10
623.0712027396
 20
658.1642453581
 30
0.0
  0
VERTEX
  5
54A
  8
0
  6
CONTINUOUS
 62
     7
 10
623.4430910195
 20
658.065599671
 30
0.0
  0
SEQEND
  5
612
  8
0
  6
CONTINUOUS
 62
     7
  0
LINE
  5
251
  8
0
  6
CONTINUOUS
 62
     7
 10
617.9694661046
 20
657.8720037848
 30
0.0
 11
622.7090281541
 21
657.8720037848
 31
0.0
  0
POLYLINE
  5
252
  8
0
  6
CONTINUOUS
 62
     7
 66
     1
 10
0.0
 20
0.0
 30
0.0
  0
VERTEX
  5
54B
  8
0
  6
CONTINUOUS
 62
     7
 10
574.9280058886
 20
658.065599671
 30
0.0
  0
VERTEX
  5
54C
  8
0
  6
CONTINUOUS
 62
     7
 10
575.2998941685
 20
658.1642453581
 30
0.0
  0
VERTEX
  5
54D
  8
0
  6
CONTINUOUS
 62
     7
 10
575.662068754
 20
657.8720037848
 30
0.0
  0
SEQEND
  5
611
  8
0
  6
CONTINUOUS
 62
     7
  0
LINE
  5
253
  8
0
  6
CONTINUOUS
 62
     7
 10
575.662068754
 20
657.8720037848
 30
0.0
 11
580.4016308035
 21
657.8720037848
 31
0.0
  0
LINE
  5
254
  8
0
  6
CONTINUOUS
 62
     7
 10
615.4490036066
 20
696.8719934136
 30
0.0
 11
615.4490036066
 21
675.009665361
 31
0.0
  0
LINE
  5
255
  8
0
  6
CONTINUOUS
 62
     7
 10
615.4490036066
 20
696.8719934136
 30
0.0
 11
624.836681142
 21
696.8719934136
 31
0.0
  0
LINE
  5
256
  8
0
  6
CONTINUOUS
 62
     7
 10
624.836681142
 20
696.8719934136
 30
0.0
 11
625.8490827973
 21
676.3720040232
 31
0.0
  0
LINE
  5
257
  8
0
  6
CONTINUOUS
 62
     7
 10
608.1578682284
 20
696.8719934136
 30
0.0
 11
615.4490036066
 21
696.8719934136
 31
0.0
  0
LINE
  5
258
  8
0
  6
CONTINUOUS
 62
     7
 10
608.1578682284
 20
696.8719934136
 30
0.0
 11
607.9737252663
 21
676.3393257767
 31
0.0
  0
LINE
  5
259
  8
0
  6
CONTINUOUS
 62
     7
 10
574.6855490948
 20
757.7720110327
 30
0.0
 11
623.6855478133
 21
757.7720110327
 31
0.0
  0
LINE
  5
25A
  8
0
  6
CONTINUOUS
 62
     7
 10
624.5392353381
 20
708.8642840296
 30
0.0
 11
623.6855478133
 21
757.7720110327
 31
0.0
  0
LINE
  5
25B
  8
0
  6
CONTINUOUS
 62
     7
 10
573.83186157
 20
708.8642840296
 30
0.0
 11
574.6855490948
 21
757.7720110327
 31
0.0
  0
LINE
  5
25C
  8
0
  6
CONTINUOUS
 62
     7
 10
662.9805562193
 20
539.3408809811
 30
0.0
 11
662.9980874355
 21
538.123590222
 31
0.0
  0
ARC
  5
25D
  8
0
  6
CONTINUOUS
 62
     7
 10
662.353063314
 20
542.915885244
 30
0.0
 40
0.3573104228365083
 50
157.6078715237
 51
187.0546675001
  0
LINE
  5
25E
  8
0
  6
CONTINUOUS
 62
     7
 10
661.998457938
 20
542.8720016986
 30
0.0
 11
661.998457938
 21
539.6319975168
 31
0.0
  0
ARC
  5
25F
  8
0
  6
CONTINUOUS
 62
     7
 10
662.3506682301
 20
539.5877914742
 30
0.0
 40
0.3549736103662224
 50
172.8461935385
 51
202.4912674377
  0
LINE
  5
260
  8
0
  6
CONTINUOUS
 62
     7
 10
662.3081562216
 20
534.274702242
 30
0.0
 11
661.8651372488
 21
526.0208820015
 31
0.0
  0
ARC
  5
261
  8
0
  6
CONTINUOUS
 62
     7
 10
662.3592204923
 20
525.9422237262
 30
0.0
 40
0.5003052825767592
 50
170.9543959273
 51
199.8911375129
  0
ARC
  5
262
  8
0
  6
CONTINUOUS
 62
     7
 10
662.3531257958
 20
537.9874649614
 30
0.0
 40
0.3573720905098443
 50
157.6101712314
 51
187.0529950671
  0
LINE
  5
263
  8
0
  6
CONTINUOUS
 62
     7
 10
661.998457938
 20
537.9435841948
 30
0.0
 11
661.998457938
 21
534.7035874635
 31
0.0
  0
ARC
  5
264
  8
0
  6
CONTINUOUS
 62
     7
 10
662.3506189526
 20
534.6593747858
 30
0.0
 40
0.3549255430391859
 50
172.8441401073
 51
202.4933208689
  0
LINE
  5
265
  8
0
  6
CONTINUOUS
 62
     7
 10
567.8775605853
 20
696.8719934136
 30
0.0
 11
566.8651607926
 21
676.3720040232
 31
0.0
  0
LINE
  5
266
  8
0
  6
CONTINUOUS
 62
     7
 10
577.2652381207
 20
696.8719934136
 30
0.0
 11
577.2652381207
 21
676.0158811718
 31
0.0
  0
LINE
  5
267
  8
0
  6
CONTINUOUS
 62
     7
 10
567.8775605853
 20
696.8719934136
 30
0.0
 11
577.2652381207
 21
696.8719934136
 31
0.0
  0
LINE
  5
268
  8
0
  6
CONTINUOUS
 62
     7
 10
583.0183212752
 20
696.8719934136
 30
0.0
 11
583.0736213471
 21
676.3720040232
 31
0.0
  0
LINE
  5
269
  8
0
  6
CONTINUOUS
 62
     7
 10
577.2652381207
 20
696.8719934136
 30
0.0
 11
583.0183212752
 21
696.8719934136
 31
0.0
  0
LINE
  5
26A
  8
0
  6
CONTINUOUS
 62
     7
 10
583.0183212752
 20
696.8719934136
 30
0.0
 11
608.1578682284
 21
696.8719934136
 31
0.0
  0
LINE
  5
26B
  8
0
  6
CONTINUOUS
 62
     7
 10
574.4558272059
 20
657.872301808
 30
0.0
 11
574.9280058886
 21
658.065599671
 31
0.0
  0
LINE
  5
26C
  8
0
  6
CONTINUOUS
 62
     7
 10
574.4949725564
 20
657.8720037848
 30
0.0
 11
575.662068754
 21
657.8720037848
 31
0.0
  0
LINE
  5
26D
  8
0
  6
CONTINUOUS
 62
     7
 10
623.4430910195
 20
658.065599671
 30
0.0
 11
623.9297461803
 21
657.8720186859
 31
0.0
  0
LINE
  5
26E
  8
0
  6
CONTINUOUS
 62
     7
 10
622.7090281541
 20
657.8720037848
 30
0.0
 11
623.9297461803
 21
657.8720037848
 31
0.0
  0
LINE
  5
26F
  8
0
  6
CONTINUOUS
 62
     7
 10
574.4186134185
 20
657.8722720057
 30
0.0
 11
574.4368114616
 21
657.8720037848
 31
0.0
  0
POLYLINE
  5
270
  8
0
  6
CONTINUOUS
 62
     7
 66
     1
 10
0.0
 20
0.0
 30
0.0
  0
VERTEX
  5
54E
  8
0
  6
CONTINUOUS
 62
     7
 10
573.7129428531
 20
658.3138381153
 30
0.0
  0
VERTEX
  5
54F
  8
0
  6
CONTINUOUS
 62
     7
 10
574.0631443555
 20
657.9880093247
 30
0.0
  0
VERTEX
  5
550
  8
0
  6
CONTINUOUS
 62
     7
 10
574.4186134185
 20
657.8722720057
 30
0.0
  0
SEQEND
  5
610
  8
0
  6
CONTINUOUS
 62
     7
  0
LINE
  5
271
  8
0
  6
CONTINUOUS
 62
     7
 10
573.7129428531
 20
676.3720040232
 30
0.0
 11
574.3498333837
 21
676.3720040232
 31
0.0
  0
POLYLINE
  5
272
  8
0
  6
CONTINUOUS
 62
     7
 66
     1
 10
0.0
 20
0.0
 30
0.0
  0
VERTEX
  5
551
  8
0
  6
CONTINUOUS
 62
     7
 10
623.9342854465
 20
657.8720037848
 30
0.0
  0
VERTEX
  5
552
  8
0
  6
CONTINUOUS
 62
     7
 10
624.2989876415
 20
657.9824660927
 30
0.0
  0
VERTEX
  5
553
  8
0
  6
CONTINUOUS
 62
     7
 10
624.658154055
 20
658.3138381153
 30
0.0
  0
SEQEND
  5
60F
  8
0
  6
CONTINUOUS
 62
     7
  0
LINE
  5
273
  8
0
  6
CONTINUOUS
 62
     7
 10
624.0212635244
 20
676.3720040232
 30
0.0
 11
624.658154055
 21
676.3720040232
 31
0.0
  0
LINE
  5
274
  8
0
  6
CONTINUOUS
 62
     7
 10
623.9342854465
 20
657.8720037848
 30
0.0
 11
625.2261993582
 21
657.8720037848
 31
0.0
  0
POLYLINE
  5
275
  8
0
  6
CONTINUOUS
 62
     7
 66
     1
 10
0.0
 20
0.0
 30
0.0
  0
VERTEX
  5
554
  8
0
  6
CONTINUOUS
 62
     7
 10
624.658154055
 20
658.3138381153
 30
0.0
  0
VERTEX
  5
555
  8
0
  6
CONTINUOUS
 62
     7
 10
624.8414327498
 20
658.4136907965
 30
0.0
  0
VERTEX
  5
556
  8
0
  6
CONTINUOUS
 62
     7
 10
625.0307911183
 20
658.2665120274
 30
0.0
  0
VERTEX
  5
557
  8
0
  6
CONTINUOUS
 62
     7
 10
625.2260261322
 20
657.8724508196
 30
0.0
  0
SEQEND
  5
60E
  8
0
  6
CONTINUOUS
 62
     7
  0
LINE
  5
276
  8
0
  6
CONTINUOUS
 62
     7
 10
573.1448975499
 20
657.8720037848
 30
0.0
 11
574.3854639227
 21
657.8720037848
 31
0.0
  0
POLYLINE
  5
277
  8
0
  6
CONTINUOUS
 62
     7
 66
     1
 10
0.0
 20
0.0
 30
0.0
  0
VERTEX
  5
558
  8
0
  6
CONTINUOUS
 62
     7
 10
573.1448975499
 20
657.8720037848
 30
0.0
  0
VERTEX
  5
559
  8
0
  6
CONTINUOUS
 62
     7
 10
573.3401940311
 20
658.2663481146
 30
0.0
  0
VERTEX
  5
55A
  8
0
  6
CONTINUOUS
 62
     7
 10
573.5296101416
 20
658.4136758953
 30
0.0
  0
VERTEX
  5
55B
  8
0
  6
CONTINUOUS
 62
     7
 10
573.7129428531
 20
658.3138381153
 30
0.0
  0
SEQEND
  5
60D
  8
0
  6
CONTINUOUS
 62
     7
  0
LINE
  5
278
  8
0
  6
CONTINUOUS
 62
     7
 10
624.658154055
 20
676.3720040232
 30
0.0
 11
627.4189964975
 21
676.3720040232
 31
0.0
  0
LINE
  5
279
  8
0
  6
CONTINUOUS
 62
     7
 10
570.9521004106
 20
676.3720040232
 30
0.0
 11
573.7129428531
 21
676.3720040232
 31
0.0
  0
LINE
  5
27A
  8
0
  6
CONTINUOUS
 62
     7
 10
548.827979445
 20
676.3720040232
 30
0.0
 11
570.9521004106
 21
676.3720040232
 31
0.0
  0
LINE
  5
27B
  8
0
  6
CONTINUOUS
 62
     7
 10
627.4189964975
 20
676.3720040232
 30
0.0
 11
649.5431174631
 21
676.3720040232
 31
0.0
  0
LINE
  5
27C
  8
0
  6
CONTINUOUS
 62
     7
 10
664.4137424524
 20
538.123590222
 30
0.0
 11
663.5091749127
 21
538.123590222
 31
0.0
  0
ARC
  5
27D
  8
0
  6
CONTINUOUS
 62
     7
 10
664.062455111
 20
538.0335466924
 30
0.0
 40
0.3626439485642349
 50
356.6684773401
 51
14.3767806893
  0
LINE
  5
27E
  8
0
  6
CONTINUOUS
 62
     7
 10
664.6455523665
 20
526.0208820015
 30
0.0
 11
664.4244861896
 21
538.012472263
 31
0.0
  0
ARC
  5
27F
  8
0
  6
CONTINUOUS
 62
     7
 10
662.0032158308
 20
525.9418104375
 30
0.0
 40
2.643519373866237
 50
356.31704466
 51
1.7140569426
  0
ARC
  5
280
  8
0
  6
CONTINUOUS
 62
     7
 10
664.9231324449
 20
525.8623737666
 30
0.0
 40
0.4320071868010761
 50
177.2483199673
 51
192.0748037693
  0
LINE
  5
281
  8
0
  6
CONTINUOUS
 62
     7
 10
664.4356024559
 20
528.1808798224
 30
0.0
 11
664.4916233714
 21
525.8831133157
 31
0.0
  0
ARC
  5
282
  8
0
  6
CONTINUOUS
 62
     7
 10
664.0653691848
 20
528.20190867
 30
0.0
 40
0.3708299980573873
 50
356.7491548272
 51
14.0600744524
  0
LINE
  5
283
  8
0
  6
CONTINUOUS
 62
     7
 10
664.4250896866
 20
528.2919977814
 30
0.0
 11
663.9699709709
 21
528.2919977814
 31
0.0
  0
ARC
  5
284
  8
0
  6
CONTINUOUS
 62
     7
 10
664.1838098614
 20
528.2009767977
 30
0.0
 40
0.2324045837960498
 50
156.9428665099
 51
184.9607962622
  0
LINE
  5
285
  8
0
  6
CONTINUOUS
 62
     7
 10
663.8468128736
 20
525.8831133157
 30
0.0
 11
663.952275842
 21
528.1808798224
 31
0.0
  0
ARC
  5
286
  8
0
  6
CONTINUOUS
 62
     7
 10
663.6315702448
 20
525.863001526
 30
0.0
 40
0.2161801871629261
 50
335.106101608
 51
5.3380905295
  0
LINE
  5
287
  8
0
  6
CONTINUOUS
 62
     7
 10
663.8276648815
 20
525.7720028073
 30
0.0
 11
663.3736861045
 21
525.7720028073
 31
0.0
  0
ARC
  5
288
  8
0
  6
CONTINUOUS
 62
     7
 10
663.8368019319
 20
525.9420660878
 30
0.0
 40
0.4933536144570165
 50
170.8072998034
 51
200.1640144347
  0
LINE
  5
289
  8
0
  6
CONTINUOUS
 62
     7
 10
663.7979519661
 20
534.274702242
 30
0.0
 11
663.349784642
 21
526.0208820015
 31
0.0
  0
ARC
  5
28A
  8
0
  6
CONTINUOUS
 62
     7
 10
663.2128586903
 20
534.3536151319
 30
0.0
 40
0.5903908751566489
 50
352.3187367128
 51
16.732296277
  0
LINE
  5
28B
  8
0
  6
CONTINUOUS
 62
     7
 10
663.778252631
 20
534.5235888869
 30
0.0
 11
663.5091749127
 21
534.5235888869
 31
0.0
  0
ARC
  5
28C
  8
0
  6
CONTINUOUS
 62
     7
 10
663.8326794224
 20
534.6593268553
 30
0.0
 40
0.3508275414370443
 50
172.7522169064
 51
202.7622399416
  0
LINE
  5
28D
  8
0
  6
CONTINUOUS
 62
     7
 10
663.484655052
 20
537.9435841948
 30
0.0
 11
663.484655052
 21
534.7035874635
 31
0.0
  0
ARC
  5
28E
  8
0
  6
CONTINUOUS
 62
     7
 10
663.8337705741
 20
537.9877017882
 30
0.0
 40
0.3518920429137128
 50
157.2839084488
 51
187.2022690399
  0
ARC
  5
28F
  8
0
  6
CONTINUOUS
 62
     7
 10
663.4153316753
 20
531.7921131569
 30
0.0
 40
0.9188609842694864
 50
349.3308506235
 51
4.9178201504
  0
LINE
  5
290
  8
0
  6
CONTINUOUS
 62
     7
 10
664.3308100398
 20
531.8708841711
 30
0.0
 11
664.239637285
 21
534.6554790646
 31
0.0
  0
POLYLINE
  5
291
  8
0
  6
CONTINUOUS
 62
     7
 66
     1
 10
0.0
 20
0.0
 30
0.0
  0
VERTEX
  5
55C
  8
0
  6
CONTINUOUS
 62
     7
 10
664.239637285
 20
534.6554790646
 30
0.0
  0
VERTEX
  5
55D
  8
0
  6
CONTINUOUS
 62
     7
 10
664.2372680004
 20
534.701411894
 30
0.0
  0
VERTEX
  5
55E
  8
0
  6
CONTINUOUS
 62
     7
 10
664.2340269978
 20
534.7362582594
 30
0.0
  0
VERTEX
  5
55F
  8
0
  6
CONTINUOUS
 62
     7
 10
664.2300334866
 20
534.759004882
 30
0.0
  0
VERTEX
  5
560
  8
0
  6
CONTINUOUS
 62
     7
 10
664.2256301935
 20
534.7665970236
 30
0.0
  0
VERTEX
  5
561
  8
0
  6
CONTINUOUS
 62
     7
 10
664.221197098
 20
534.759004882
 30
0.0
  0
VERTEX
  5
562
  8
0
  6
CONTINUOUS
 62
     7
 10
664.2171365316
 20
534.7362359077
 30
0.0
  0
VERTEX
  5
563
  8
0
  6
CONTINUOUS
 62
     7
 10
664.2138284738
 20
534.7013001353
 30
0.0
  0
VERTEX
  5
564
  8
0
  6
CONTINUOUS
 62
     7
 10
664.2114144857
 20
534.6554790646
 30
0.0
  0
SEQEND
  5
60C
  8
0
  6
CONTINUOUS
 62
     7
  0
LINE
  5
292
  8
0
  6
CONTINUOUS
 62
     7
 10
664.2114144857
 20
534.6554790646
 30
0.0
 11
664.106845587
 21
531.8708841711
 31
0.0
  0
ARC
  5
293
  8
0
  6
CONTINUOUS
 62
     7
 10
664.8377310895
 20
531.792088742
 30
0.0
 40
0.7351206277330751
 50
173.8468120615
 51
193.3782520103
  0
LINE
  5
294
  8
0
  6
CONTINUOUS
 62
     7
 10
664.3183079655
 20
531.6219975263
 30
0.0
 11
664.1225588615
 21
531.6219975263
 31
0.0
  0
LINE
  5
295
  8
0
  6
CONTINUOUS
 62
     7
 10
661.8887630398
 20
525.7720028073
 30
0.0
 11
663.3736861045
 21
525.7720028073
 31
0.0
  0
LINE
  5
296
  8
0
  6
CONTINUOUS
 62
     7
 10
661.8651372488
 20
526.0208820015
 30
0.0
 11
663.349784642
 21
526.0208820015
 31
0.0
  0
LINE
  5
297
  8
0
  6
CONTINUOUS
 62
     7
 10
662.3081562216
 20
534.274702242
 30
0.0
 11
663.7979519661
 21
534.274702242
 31
0.0
  0
LINE
  5
298
  8
0
  6
CONTINUOUS
 62
     7
 10
662.0226946766
 20
534.5235888869
 30
0.0
 11
663.5091749127
 21
534.5235888869
 31
0.0
  0
LINE
  5
299
  8
0
  6
CONTINUOUS
 62
     7
 10
661.998457938
 20
534.7035874635
 30
0.0
 11
663.484655052
 21
534.7035874635
 31
0.0
  0
LINE
  5
29A
  8
0
  6
CONTINUOUS
 62
     7
 10
661.998457938
 20
537.9435841948
 30
0.0
 11
663.484655052
 21
537.9435841948
 31
0.0
  0
ARC
  5
29B
  8
0
  6
CONTINUOUS
 62
     7
 10
663.8326954146
 20
539.587739087
 30
0.0
 40
0.3508431310996363
 50
172.7528993238
 51
202.7615575242
  0
LINE
  5
29C
  8
0
  6
CONTINUOUS
 62
     7
 10
662.0226946766
 20
539.4519989401
 30
0.0
 11
663.5091749127
 21
539.4519989401
 31
0.0
  0
LINE
  5
29D
  8
0
  6
CONTINUOUS
 62
     7
 10
661.998457938
 20
539.6319975168
 30
0.0
 11
663.484655052
 21
539.6319975168
 31
0.0
  0
LINE
  5
29E
  8
0
  6
CONTINUOUS
 62
     7
 10
661.998457938
 20
542.8720016986
 30
0.0
 11
663.484655052
 21
542.8720016986
 31
0.0
  0
LINE
  5
29F
  8
0
  6
CONTINUOUS
 62
     7
 10
663.484655052
 20
542.8720016986
 30
0.0
 11
663.484655052
 21
539.6319975168
 31
0.0
  0
ARC
  5
2A0
  8
0
  6
CONTINUOUS
 62
     7
 10
663.8337411875
 20
542.9161176705
 30
0.0
 40
0.351862684885707
 50
157.2829361327
 51
187.2026070193
  0
LINE
  5
2A1
  8
0
  6
CONTINUOUS
 62
     7
 10
662.0226946766
 20
543.0520002753
 30
0.0
 11
663.5091749127
 21
543.0520002753
 31
0.0
  0
LINE
  5
2A2
  8
0
  6
CONTINUOUS
 62
     7
 10
664.5861861403
 20
543.0520002753
 30
0.0
 11
663.5091749127
 21
543.0520002753
 31
0.0
  0
ARC
  5
2A3
  8
0
  6
CONTINUOUS
 62
     7
 10
664.0032953961
 20
542.9624076905
 30
0.0
 40
0.589735916288705
 50
357.9082381172
 51
8.7382003904
  0
LINE
  5
2A4
  8
0
  6
CONTINUOUS
 62
     7
 10
664.685442775
 20
531.5900345355
 30
0.0
 11
664.5926383431
 21
542.9408823162
 31
0.0
  0
POLYLINE
  5
2A5
  8
0
  6
CONTINUOUS
 62
     7
 66
     1
 10
0.0
 20
0.0
 30
0.0
  0
VERTEX
  5
565
  8
0
  6
CONTINUOUS
 62
     7
 10
664.685442775
 20
531.5900345355
 30
0.0
  0
VERTEX
  5
566
  8
0
  6
CONTINUOUS
 62
     7
 10
664.6854725773
 20
531.5441315085
 30
0.0
  0
VERTEX
  5
567
  8
0
  6
CONTINUOUS
 62
     7
 10
664.6855098302
 20
531.5092553407
 30
0.0
  0
VERTEX
  5
568
  8
0
  6
CONTINUOUS
 62
     7
 10
664.6855396326
 20
531.4865161687
 30
0.0
  0
VERTEX
  5
569
  8
0
  6
CONTINUOUS
 62
     7
 10
664.6855470831
 20
531.4789165765
 30
0.0
  0
VERTEX
  5
56A
  8
0
  6
CONTINUOUS
 62
     7
 10
664.6855470831
 20
531.4789314777
 30
0.0
  0
SEQEND
  5
60B
  8
0
  6
CONTINUOUS
 62
     7
  0
LINE
  5
2A6
  8
0
  6
CONTINUOUS
 62
     7
 10
664.6855470831
 20
525.7720028073
 30
0.0
 11
664.6763381655
 21
525.7720028073
 31
0.0
  0
ARC
  5
2A7
  8
0
  6
CONTINUOUS
 62
     7
 10
666.5456969865
 20
525.8630523887
 30
0.0
 40
1.871574852302549
 50
179.3858495896
 51
182.7884627056
  0
LINE
  5
2A8
  8
0
  6
CONTINUOUS
 62
     7
 10
664.4781676228
 20
539.3408809811
 30
0.0
 11
664.6742296512
 21
525.8831133157
 31
0.0
  0
ARC
  5
2A9
  8
0
  6
CONTINUOUS
 62
     7
 10
664.0748282883
 20
539.3620476267
 30
0.0
 40
0.4038943496614202
 50
356.9959587872
 51
12.8682547835
  0
LINE
  5
2AA
  8
0
  6
CONTINUOUS
 62
     7
 10
664.4685787256
 20
539.4519989401
 30
0.0
 11
663.5091749127
 21
539.4519989401
 31
0.0
  0
LINE
  5
2AB
  8
0
  6
CONTINUOUS
 62
     7
 10
662.0226946766
 20
538.123590222
 30
0.0
 11
663.5091749127
 21
538.123590222
 31
0.0
  0
POLYLINE
  5
2AC
  8
0
  6
CONTINUOUS
 62
     7
 66
     1
 10
0.0
 20
0.0
 30
0.0
  0
VERTEX
  5
56B
  8
0
  6
CONTINUOUS
 62
     7
 10
541.4234434362
 20
616.5297751337
 30
0.0
  0
VERTEX
  5
56C
  8
0
  6
CONTINUOUS
 62
     7
 10
541.3221490676
 20
616.178152433
 30
0.0
  0
VERTEX
  5
56D
  8
0
  6
CONTINUOUS
 62
     7
 10
541.2349847252
 20
615.8719931751
 30
0.0
  0
SEQEND
  5
60A
  8
0
  6
CONTINUOUS
 62
     7
  0
ARC
  5
2AD
  8
0
  6
CONTINUOUS
 62
     7
 10
551.1855484541
 20
585.871999827
 30
0.0
 40
110.115948589523
 50
15.8095187283
 51
16.3018419119
  0
LINE
  5
2AE
  8
0
  6
CONTINUOUS
 62
     7
 10
540.1855480964
 20
676.3720040232
 30
0.0
 11
548.827979445
 21
676.3720040232
 31
0.0
  0
LINE
  5
2AF
  8
0
  6
CONTINUOUS
 62
     7
 10
566.6855496461
 20
677.8719996125
 30
0.0
 11
541.685547411
 21
677.8719996125
 31
0.0
  0
LINE
  5
2B0
  8
0
  6
CONTINUOUS
 62
     7
 10
649.5431174631
 20
676.3720040232
 30
0.0
 11
658.1855488117
 21
676.3720040232
 31
0.0
  0
LINE
  5
2B1
  8
0
  6
CONTINUOUS
 62
     7
 10
631.685547262
 20
677.8719996125
 30
0.0
 11
656.6855494971
 21
677.8719996125
 31
0.0
  0
LINE
  5
2B2
  8
0
  6
CONTINUOUS
 62
     7
 10
663.952275842
 20
528.1808798224
 30
0.0
 11
664.4356024559
 21
528.1808798224
 31
0.0
  0
LINE
  5
2B3
  8
0
  6
CONTINUOUS
 62
     7
 10
664.1427946384
 20
525.8831133157
 30
0.0
 11
664.4916233714
 21
525.8831133157
 31
0.0
  0
LINE
  5
2B4
  8
0
  6
CONTINUOUS
 62
     7
 10
662.9805562193
 20
539.3408809811
 30
0.0
 11
663.1940451558
 21
539.3408809811
 31
0.0
  0
LINE
  5
2B5
  8
0
  6
CONTINUOUS
 62
     7
 10
664.2635238464
 20
525.7720028073
 30
0.0
 11
664.5006832774
 21
525.7720028073
 31
0.0
  0
LINE
  5
2B6
  8
0
  6
CONTINUOUS
 62
     7
 10
630.4935363228
 20
696.8719934136
 30
0.0
 11
631.4437982733
 21
677.6302431732
 31
0.0
  0
LINE
  5
2B7
  8
0
  6
CONTINUOUS
 62
     7
 10
624.836681142
 20
696.8719934136
 30
0.0
 11
630.4935363228
 21
696.8719934136
 31
0.0
  0
LINE
  5
2B8
  8
0
  6
CONTINUOUS
 62
     8
 10
658.5595716829
 20
575.8720015198
 30
0.0
 11
658.7332298155
 21
585.8720068842
 31
0.0
  0
LINE
  5
2B9
  8
0
  6
CONTINUOUS
 62
     8
 10
539.8115252252
 20
575.8720015198
 30
0.0
 11
539.6378670926
 21
585.8720068842
 31
0.0
  0
LINE
  5
2BA
  8
0
  6
CONTINUOUS
 62
     8
 10
539.9057154651
 20
597.8720014006
 30
0.0
 11
539.8311128016
 21
585.8720068842
 31
0.0
  0
LINE
  5
2BB
  8
0
  6
CONTINUOUS
 62
     8
 10
658.465381443
 20
597.8720014006
 30
0.0
 11
658.5399841065
 21
585.8720068842
 31
0.0
  0
LINE
  5
2BC
  8
0
  6
CONTINUOUS
 62
     8
 10
540.5812819595
 20
574.8328913957
 30
0.0
 11
539.8115252252
 21
575.8720015198
 31
0.0
  0
LINE
  5
2BD
  8
0
  6
CONTINUOUS
 62
     8
 10
657.7898149486
 20
574.8328913957
 30
0.0
 11
658.5595716829
 21
575.8720015198
 31
0.0
  0
LINE
  5
2BE
  8
0
  6
CONTINUOUS
 62
     8
 10
616.0895914878
 20
668.5133104235
 30
0.0
 11
616.0895914878
 21
657.8941916138
 31
0.0
  0
LINE
  5
2BF
  8
0
  6
CONTINUOUS
 62
     8
 10
610.3179154093
 20
667.3314546257
 30
0.0
 11
610.3179154093
 21
658.0996786267
 31
0.0
  0
LINE
  5
2C0
  8
0
  6
CONTINUOUS
 62
     8
 10
582.2815054203
 20
668.5133104235
 30
0.0
 11
582.2815054203
 21
657.8941916138
 31
0.0
  0
LINE
  5
2C1
  8
0
  6
CONTINUOUS
 62
     8
 10
588.0531814988
 20
667.3314546257
 30
0.0
 11
588.0531814988
 21
658.0996786267
 31
0.0
  0
LINE
  5
2C2
  8
0
  6
CONTINUOUS
 62
     8
 10
581.6535388227
 20
672.7004622132
 30
0.0
 11
616.7175580854
 21
672.7004622132
 31
0.0
  0
LINE
  5
2C3
  8
0
  6
CONTINUOUS
 62
     8
 10
617.3806485827
 20
674.0368728548
 30
0.0
 11
617.3806485827
 21
660.9196935803
 31
0.0
  0
LINE
  5
2C4
  8
0
  6
CONTINUOUS
 62
     8
 10
580.9904483254
 20
674.0368728548
 30
0.0
 11
580.9904483254
 21
660.9196935803
 31
0.0
  0
LINE
  5
2C5
  8
0
  6
CONTINUOUS
 62
     8
 10
667.8764817412
 20
575.8720015198
 30
0.0
 11
668.7223983104
 21
585.8720068842
 31
0.0
  0
LINE
  5
2C6
  8
0
  6
CONTINUOUS
 62
     8
 10
530.4946151669
 20
575.8720015198
 30
0.0
 11
529.6486985977
 21
585.8720068842
 31
0.0
  0
LINE
  5
2C7
  8
0
  6
CONTINUOUS
 62
     8
 10
658.465381443
 20
615.8719931751
 30
0.0
 11
658.465381443
 21
597.8720014006
 31
0.0
  0
LINE
  5
2C8
  8
0
  6
CONTINUOUS
 62
     8
 10
539.9057154651
 20
615.8719931751
 30
0.0
 11
539.9057154651
 21
597.8720014006
 31
0.0
  0
LINE
  5
2C9
  8
0
  6
CONTINUOUS
 62
     8
 10
534.3728360827
 20
574.7972478181
 30
0.0
 11
530.4946151669
 21
575.8720015198
 31
0.0
  0
LINE
  5
2CA
  8
0
  6
CONTINUOUS
 62
     8
 10
663.9982608254
 20
574.7972478181
 30
0.0
 11
667.8764817412
 21
575.8720015198
 31
0.0
  0
LINE
  5
2CB
  8
0
  6
CONTINUOUS
 62
     8
 10
667.5667685564
 20
597.8720014006
 30
0.0
 11
667.8668108876
 21
585.8720068842
 31
0.0
  0
LINE
  5
2CC
  8
0
  6
CONTINUOUS
 62
     8
 10
530.8043283517
 20
597.8720014006
 30
0.0
 11
530.5042860205
 21
585.8720068842
 31
0.0
  0
LINE
  5
2CD
  8
0
  6
CONTINUOUS
 62
     8
 10
530.8043283517
 20
615.8719931751
 30
0.0
 11
530.8043283517
 21
597.8720014006
 31
0.0
  0
LINE
  5
2CE
  8
0
  6
CONTINUOUS
 62
     8
 10
667.5667685564
 20
615.8719931751
 30
0.0
 11
667.5667685564
 21
597.8720014006
 31
0.0
  0
LINE
  5
2CF
  8
0
  6
CONTINUOUS
 62
     8
 10
542.1855484243
 20
555.8719982415
 30
0.0
 11
542.1855484243
 21
574.7902442724
 31
0.0
  0
LINE
  5
2D0
  8
0
  6
CONTINUOUS
 62
     8
 10
656.1855484839
 20
555.8719982415
 30
0.0
 11
656.1855484839
 21
574.7902442724
 31
0.0
  0
LINE
  5
2D1
  8
0
  6
CONTINUOUS
 62
     8
 10
647.0654231603
 20
555.8719982415
 30
0.0
 11
647.0654231603
 21
533.4023063093
 31
0.0
  0
LINE
  5
2D2
  8
0
  6
CONTINUOUS
 62
     8
 10
551.3056737478
 20
555.8719982415
 30
0.0
 11
551.3056737478
 21
533.4023063093
 31
0.0
  0
LINE
  5
2D3
  8
0
  6
CONTINUOUS
 62
     8
 10
659.8308158214
 20
555.8719982415
 30
0.0
 11
659.8308158214
 21
524.5446314126
 31
0.0
  0
LINE
  5
2D4
  8
0
  6
CONTINUOUS
 62
     8
 10
538.5402810867
 20
555.8719982415
 30
0.0
 11
538.5402810867
 21
524.5446314126
 31
0.0
  0
LINE
  5
2D5
  8
0
  6
CONTINUOUS
 62
     8
 10
623.4430910195
 20
676.271689406
 30
0.0
 11
623.4430910195
 21
658.065599671
 31
0.0
  0
LINE
  5
2D6
  8
0
  6
CONTINUOUS
 62
     8
 10
574.9280058886
 20
676.271689406
 30
0.0
 11
574.9280058886
 21
658.065599671
 31
0.0
  0
LINE
  5
2D7
  8
0
  6
CONTINUOUS
 62
     8
 10
573.7129428531
 20
676.3720040232
 30
0.0
 11
573.7129428531
 21
658.3138381153
 31
0.0
  0
LINE
  5
2D8
  8
0
  6
CONTINUOUS
 62
     8
 10
624.658154055
 20
676.3720040232
 30
0.0
 11
624.658154055
 21
658.3138381153
 31
0.0
  0
LINE
  5
2D9
  8
0
  6
CONTINUOUS
 62
     8
 10
627.4189964975
 20
676.3720040232
 30
0.0
 11
627.4189964975
 21
657.8720037848
 31
0.0
  0
LINE
  5
2DA
  8
0
  6
CONTINUOUS
 62
     8
 10
570.9521004106
 20
676.3720040232
 30
0.0
 11
570.9521004106
 21
657.8720037848
 31
0.0
  0
LINE
  5
2DB
  8
0
  6
CONTINUOUS
 62
     8
 10
548.827979445
 20
676.3720040232
 30
0.0
 11
548.827979445
 21
657.8720037848
 31
0.0
  0
LINE
  5
2DC
  8
0
  6
CONTINUOUS
 62
     8
 10
649.5431174631
 20
676.3720040232
 30
0.0
 11
649.5431174631
 21
657.8720037848
 31
0.0
  0
INSERT
  5
2E8
  8
FORMAT
  2
SW_CENTERMARKSYMBOL_0
 10
599.1855484541
 20
450.771999827
 30
0.0
  0
LINE
  5
2E9
  8
0
  6
CONTINUOUS
 62
     7
 10
3.7692142796
 20
23.7209573131
 30
0.0
 11
-20.2307822037
 21
23.7209573131
 31
0.0
  0
LINE
  5
2EA
  8
0
  6
CONTINUOUS
 62
     7
 10
-20.2307822037
 20
-167.2790423293
 30
0.0
 11
3.7692142796
 21
-167.2790423293
 31
0.0
  0
LINE
  5
2EB
  8
0
  6
CONTINUOUS
 62
     7
 10
158.7692154717
 20
-167.2790423293
 30
0.0
 11
182.769211955
 21
-167.2790423293
 31
0.0
  0
LINE
  5
2EC
  8
0
  6
CONTINUOUS
 62
     7
 10
182.769211955
 20
23.7209573131
 30
0.0
 11
158.7692154717
 21
23.7209573131
 31
0.0
  0
LINE
  5
2ED
  8
0
  6
CONTINUOUS
 62
     7
 10
158.7692154717
 20
-18.6790414412
 30
0.0
 11
134.8315207433
 21
-23.3320594091
 31
0.0
  0
LINE
  5
2EE
  8
0
  6
CONTINUOUS
 62
     7
 10
27.706909008
 20
-23.3320594091
 30
0.0
 11
3.7692142796
 21
-18.6790414412
 31
0.0
  0
LINE
  5
2EF
  8
0
  6
CONTINUOUS
 62
     7
 10
134.8315207433
 20
-120.2260256071
 30
0.0
 11
158.7692154717
 21
-124.879043575
 31
0.0
  0
LINE
  5
2F0
  8
0
  6
CONTINUOUS
 62
     7
 10
3.7692142796
 20
-124.879043575
 30
0.0
 11
27.706909008
 21
-120.2260256071
 31
0.0
  0
LINE
  5
2F1
  8
0
  6
CONTINUOUS
 62
     7
 10
105.7692142349
 20
-96.2790418674
 30
0.0
 11
105.7692142349
 21
-47.2790431489
 31
0.0
  0
LINE
  5
2F2
  8
0
  6
CONTINUOUS
 62
     7
 10
106.6229017597
 20
-46.4253556241
 30
0.0
 11
105.7692142349
 21
-47.2790431489
 31
0.0
  0
POLYLINE
  5
2F3
  8
0
  6
CONTINUOUS
 62
     7
 66
     1
 10
0.0
 20
0.0
 30
0.0
  0
VERTEX
  5
56E
  8
0
  6
CONTINUOUS
 62
     7
 10
106.6229017597
 20
-97.1327293922
 30
0.0
  0
VERTEX
  5
56F
  8
0
  6
CONTINUOUS
 62
     7
 10
106.5920079273
 20
-89.6602329124
 30
0.0
  0
VERTEX
  5
570
  8
0
  6
CONTINUOUS
 62
     7
 10
106.5687025112
 20
-82.1017558012
 30
0.0
  0
VERTEX
  5
571
  8
0
  6
CONTINUOUS
 62
     7
 10
106.5567387414
 20
-74.2668009155
 30
0.0
  0
VERTEX
  5
572
  8
0
  6
CONTINUOUS
 62
     7
 10
106.559365071
 20
-66.4061350074
 30
0.0
  0
VERTEX
  5
573
  8
0
  6
CONTINUOUS
 62
     7
 10
106.5689055395
 20
-61.3753265027
 30
0.0
  0
VERTEX
  5
574
  8
0
  6
CONTINUOUS
 62
     7
 10
106.5833447647
 20
-56.381772298
 30
0.0
  0
VERTEX
  5
575
  8
0
  6
CONTINUOUS
 62
     7
 10
106.6229017597
 20
-46.4253556241
 30
0.0
  0
SEQEND
  5
609
  8
0
  6
CONTINUOUS
 62
     7
  0
LINE
  5
2F4
  8
0
  6
CONTINUOUS
 62
     7
 10
106.6229017597
 20
-97.1327293922
 30
0.0
 11
105.7692142349
 21
-96.2790418674
 31
0.0
  0
LINE
  5
2F5
  8
0
  6
CONTINUOUS
 62
     7
 10
105.7692142349
 20
-47.2790431489
 30
0.0
 11
56.7692155164
 21
-47.2790431489
 31
0.0
  0
LINE
  5
2F6
  8
0
  6
CONTINUOUS
 62
     7
 10
55.9155279916
 20
-46.4253556241
 30
0.0
 11
56.7692155164
 21
-47.2790431489
 31
0.0
  0
POLYLINE
  5
2F7
  8
0
  6
CONTINUOUS
 62
     7
 66
     1
 10
0.0
 20
0.0
 30
0.0
  0
VERTEX
  5
576
  8
0
  6
CONTINUOUS
 62
     7
 10
81.2692148757
 20
-46.492502119
 30
0.0
  0
VERTEX
  5
577
  8
0
  6
CONTINUOUS
 62
     7
 10
75.896307375
 20
-46.4888923127
 30
0.0
  0
VERTEX
  5
578
  8
0
  6
CONTINUOUS
 62
     7
 10
70.8654988703
 20
-46.4793518443
 30
0.0
  0
VERTEX
  5
579
  8
0
  6
CONTINUOUS
 62
     7
 10
65.8719446656
 20
-46.4649126191
 30
0.0
  0
VERTEX
  5
57A
  8
0
  6
CONTINUOUS
 62
     7
 10
55.9155279916
 20
-46.4253556241
 30
0.0
  0
SEQEND
  5
608
  8
0
  6
CONTINUOUS
 62
     7
  0
POLYLINE
  5
2F8
  8
0
  6
CONTINUOUS
 62
     7
 66
     1
 10
0.0
 20
0.0
 30
0.0
  0
VERTEX
  5
57B
  8
0
  6
CONTINUOUS
 62
     7
 10
106.6229017597
 20
-46.4253556241
 30
0.0
  0
VERTEX
  5
57C
  8
0
  6
CONTINUOUS
 62
     7
 10
100.4160782468
 20
-46.4514587332
 30
0.0
  0
VERTEX
  5
57D
  8
0
  6
CONTINUOUS
 62
     7
 10
94.1507667449
 20
-46.4727450419
 30
0.0
  0
VERTEX
  5
57E
  8
0
  6
CONTINUOUS
 62
     7
 10
87.7318307903
 20
-46.4872457344
 30
0.0
  0
VERTEX
  5
57F
  8
0
  6
CONTINUOUS
 62
     7
 10
81.2692148757
 20
-46.492502119
 30
0.0
  0
SEQEND
  5
607
  8
0
  6
CONTINUOUS
 62
     7
  0
LINE
  5
2F9
  8
0
  6
CONTINUOUS
 62
     7
 10
56.7692155164
 20
-47.2790431489
 30
0.0
 11
56.7692155164
 21
-96.2790418674
 31
0.0
  0
LINE
  5
2FA
  8
0
  6
CONTINUOUS
 62
     7
 10
55.9155279916
 20
-97.1327293922
 30
0.0
 11
56.7692155164
 21
-96.2790418674
 31
0.0
  0
POLYLINE
  5
2FB
  8
0
  6
CONTINUOUS
 62
     7
 66
     1
 10
0.0
 20
0.0
 30
0.0
  0
VERTEX
  5
580
  8
0
  6
CONTINUOUS
 62
     7
 10
55.9155279916
 20
-46.4253556241
 30
0.0
  0
VERTEX
  5
581
  8
0
  6
CONTINUOUS
 62
     7
 10
55.9464218241
 20
-53.8978521038
 30
0.0
  0
VERTEX
  5
582
  8
0
  6
CONTINUOUS
 62
     7
 10
55.9697272402
 20
-61.456329215
 30
0.0
  0
VERTEX
  5
583
  8
0
  6
CONTINUOUS
 62
     7
 10
55.98169101
 20
-69.2912841007
 30
0.0
  0
VERTEX
  5
584
  8
0
  6
CONTINUOUS
 62
     7
 10
55.9790646803
 20
-77.1519500088
 30
0.0
  0
VERTEX
  5
585
  8
0
  6
CONTINUOUS
 62
     7
 10
55.9695242119
 20
-82.1827585135
 30
0.0
  0
VERTEX
  5
586
  8
0
  6
CONTINUOUS
 62
     7
 10
55.9550849867
 20
-87.1763127182
 30
0.0
  0
VERTEX
  5
587
  8
0
  6
CONTINUOUS
 62
     7
 10
55.9155279916
 20
-97.1327293922
 30
0.0
  0
SEQEND
  5
606
  8
0
  6
CONTINUOUS
 62
     7
  0
LINE
  5
2FC
  8
0
  6
CONTINUOUS
 62
     7
 10
56.7692155164
 20
-96.2790418674
 30
0.0
 11
105.7692142349
 21
-96.2790418674
 31
0.0
  0
POLYLINE
  5
2FD
  8
0
  6
CONTINUOUS
 62
     7
 66
     1
 10
0.0
 20
0.0
 30
0.0
  0
VERTEX
  5
588
  8
0
  6
CONTINUOUS
 62
     7
 10
81.2692148757
 20
-97.0655828972
 30
0.0
  0
VERTEX
  5
589
  8
0
  6
CONTINUOUS
 62
     7
 10
86.6421223764
 20
-97.0691927035
 30
0.0
  0
VERTEX
  5
58A
  8
0
  6
CONTINUOUS
 62
     7
 10
91.6729308811
 20
-97.0787331719
 30
0.0
  0
VERTEX
  5
58B
  8
0
  6
CONTINUOUS
 62
     7
 10
96.6664850858
 20
-97.0931723971
 30
0.0
  0
VERTEX
  5
58C
  8
0
  6
CONTINUOUS
 62
     7
 10
106.6229017597
 20
-97.1327293922
 30
0.0
  0
SEQEND
  5
605
  8
0
  6
CONTINUOUS
 62
     7
  0
POLYLINE
  5
2FE
  8
0
  6
CONTINUOUS
 62
     7
 66
     1
 10
0.0
 20
0.0
 30
0.0
  0
VERTEX
  5
58D
  8
0
  6
CONTINUOUS
 62
     7
 10
55.9155279916
 20
-97.1327293922
 30
0.0
  0
VERTEX
  5
58E
  8
0
  6
CONTINUOUS
 62
     7
 10
62.1223515045
 20
-97.106626283
 30
0.0
  0
VERTEX
  5
58F
  8
0
  6
CONTINUOUS
 62
     7
 10
68.3876630065
 20
-97.0853399743
 30
0.0
  0
VERTEX
  5
590
  8
0
  6
CONTINUOUS
 62
     7
 10
74.806598961
 20
-97.0708392818
 30
0.0
  0
VERTEX
  5
591
  8
0
  6
CONTINUOUS
 62
     7
 10
81.2692148757
 20
-97.0655828972
 30
0.0
  0
SEQEND
  5
604
  8
0
  6
CONTINUOUS
 62
     7
  0
ARC
  5
2FF
  8
0
  6
CONTINUOUS
 62
     7
 10
81.2336870038
 20
-6.5811881439
 30
0.0
 40
39.91132978805326
 50
270.0510029957
 51
314.2835985556
  0
ARC
  5
300
  8
0
  6
CONTINUOUS
 62
     7
 10
81.2692148757
 20
-71.7790425081
 30
0.0
 40
46.00000000000001
 50
307.2303705097
 51
52.7696294903
  0
ARC
  5
301
  8
0
  6
CONTINUOUS
 62
     7
 10
81.2282109552
 20
-136.9903374414
 30
0.0
 40
39.92477560034344
 50
45.7242429122
 51
89.9411555365
  0
ARC
  5
302
  8
0
  6
CONTINUOUS
 62
     7
 10
81.2692148757
 20
-71.7790425081
 30
0.0
 40
46.00000000000001
 50
127.2303705097
 51
232.7696294903
  0
ARC
  5
303
  8
0
  6
CONTINUOUS
 62
     7
 10
81.3102187961
 20
-6.5677475748
 30
0.0
 40
39.92477560034344
 50
225.7242429122
 51
269.9411555365
  0
ARC
  5
304
  8
0
  6
CONTINUOUS
 62
     7
 10
81.3047427475
 20
-136.9768968723
 30
0.0
 40
39.91132978805322
 50
90.0510029957
 51
134.2835985556
  0
LINE
  5
305
  8
0
  6
CONTINUOUS
 62
     7
 10
53.4860966873
 20
-35.1170972247
 30
0.0
 11
53.4382378828
 21
-35.1534150798
 31
0.0
  0
ARC
  5
306
  8
0
  6
CONTINUOUS
 62
     7
 10
81.2692148757
 20
-6.2015588721
 30
0.0
 40
40.09999999999999
 50
226.1441924265
 51
313.8558075735
  0
LINE
  5
307
  8
0
  6
CONTINUOUS
 62
     7
 10
109.1001918685
 20
-35.1534150798
 30
0.0
 11
109.0523330641
 21
-35.1170972247
 31
0.0
  0
ARC
  5
308
  8
0
  6
CONTINUOUS
 62
     7
 10
81.2692148757
 20
-137.3565261441
 30
0.0
 40
40.10000000000002
 50
46.1441924265
 51
133.8558075735
  0
LINE
  5
309
  8
0
  6
CONTINUOUS
 62
     7
 10
53.4382378828
 20
-108.4046699364
 30
0.0
 11
53.4860966873
 21
-108.4409877915
 31
0.0
  0
LINE
  5
30A
  8
0
  6
CONTINUOUS
 62
     7
 10
109.0523330641
 20
-108.4409877915
 30
0.0
 11
109.1001918685
 21
-108.4046699364
 31
0.0
  0
LINE
  5
30B
  8
0
  6
CONTINUOUS
 62
     7
 10
93.6667295319
 20
-99.2210880179
 30
0.0
 11
97.5326700282
 21
-103.0870303769
 31
0.0
  0
POLYLINE
  5
30C
  8
0
  6
CONTINUOUS
 62
     7
 66
     1
 10
0.0
 20
0.0
 30
0.0
  0
VERTEX
  5
592
  8
0
  6
CONTINUOUS
 62
     7
 10
79.0295489278
 20
-97.3191205669
 30
0.0
  0
VERTEX
  5
593
  8
0
  6
CONTINUOUS
 62
     7
 10
81.5490024252
 20
-97.4156055857
 30
0.0
  0
VERTEX
  5
594
  8
0
  6
CONTINUOUS
 62
     7
 10
83.5088808235
 20
-97.3191205669
 30
0.0
  0
SEQEND
  5
603
  8
0
  6
CONTINUOUS
 62
     7
  0
LINE
  5
30D
  8
0
  6
CONTINUOUS
 62
     7
 10
65.0057597232
 20
-40.4710546393
 30
0.0
 11
63.3844947588
 21
-42.0923196037
 31
0.0
  0
LINE
  5
30E
  8
0
  6
CONTINUOUS
 62
     7
 10
68.8717002195
 20
-44.3369969983
 30
0.0
 11
65.0057597232
 21
-40.4710546393
 31
0.0
  0
POLYLINE
  5
30F
  8
0
  6
CONTINUOUS
 62
     7
 66
     1
 10
0.0
 20
0.0
 30
0.0
  0
VERTEX
  5
595
  8
0
  6
CONTINUOUS
 62
     7
 10
83.5088808235
 20
-46.2389644493
 30
0.0
  0
VERTEX
  5
596
  8
0
  6
CONTINUOUS
 62
     7
 10
80.9894273262
 20
-46.1424794305
 30
0.0
  0
VERTEX
  5
597
  8
0
  6
CONTINUOUS
 62
     7
 10
79.0295489278
 20
-46.2389644493
 30
0.0
  0
SEQEND
  5
602
  8
0
  6
CONTINUOUS
 62
     7
  0
LINE
  5
310
  8
0
  6
CONTINUOUS
 62
     7
 10
97.5326700282
 20
-103.0870303769
 30
0.0
 11
99.1539349925
 21
-101.4657654126
 31
0.0
  0
LINE
  5
311
  8
0
  6
CONTINUOUS
 62
     7
 10
65.0057597232
 20
-40.4710546393
 30
0.0
 11
65.0057597232
 21
-39.4586548467
 31
0.0
  0
LINE
  5
312
  8
0
  6
CONTINUOUS
 62
     7
 10
70.3268172365
 20
-44.77971236
 30
0.0
 11
65.0057597232
 21
-39.4586548467
 31
0.0
  0
LINE
  5
313
  8
0
  6
CONTINUOUS
 62
     7
 10
65.0057597232
 20
-39.4586548467
 30
0.0
 11
62.7140654397
 21
-41.7503472675
 31
0.0
  0
ARC
  5
314
  8
0
  6
CONTINUOUS
 62
     7
 10
81.2692148757
 20
-71.7790425081
 30
0.0
 40
26.35396576440267
 50
78.4886711287
 51
101.5113288713
  0
LINE
  5
315
  8
0
  6
CONTINUOUS
 62
     7
 10
97.5326700282
 20
-103.0870303769
 30
0.0
 11
97.5326700282
 21
-104.0994301696
 31
0.0
  0
LINE
  5
316
  8
0
  6
CONTINUOUS
 62
     7
 10
92.2116125148
 20
-98.7783726562
 30
0.0
 11
97.5326700282
 21
-104.0994301696
 31
0.0
  0
LINE
  5
317
  8
0
  6
CONTINUOUS
 62
     7
 10
97.5326700282
 20
-104.0994301696
 30
0.0
 11
99.8243643117
 21
-101.8077377487
 31
0.0
  0
ARC
  5
318
  8
0
  6
CONTINUOUS
 62
     7
 10
81.2692148757
 20
-71.7790425081
 30
0.0
 40
26.35396576440268
 50
258.4886711287
 51
281.5113288713
  0
CIRCLE
  5
319
  8
0
  6
CONTINUOUS
 62
     7
 10
81.2692148757
 20
-26.7790425081
 30
0.0
 40
12.49999999999999
  0
ARC
  5
31A
  8
0
  6
CONTINUOUS
 62
     7
 10
81.2692148757
 20
-26.7790425081
 30
0.0
 40
14.00000000000002
 50
157.5
 51
22.5
  0
ARC
  5
31B
  8
0
  6
CONTINUOUS
 62
     7
 10
81.2692148757
 20
-26.7790425081
 30
0.0
 40
14.00000000000001
 50
22.5
 51
157.5
  0
ARC
  5
31C
  8
0
  6
CONTINUOUS
 62
     7
 10
81.2692148757
 20
-116.7790425081
 30
0.0
 40
14.00000000000002
 50
337.5
 51
202.5
  0
ARC
  5
31D
  8
0
  6
CONTINUOUS
 62
     7
 10
81.2692148757
 20
-116.7790425081
 30
0.0
 40
14.00000000000002
 50
202.5
 51
337.5
  0
CIRCLE
  5
31E
  8
0
  6
CONTINUOUS
 62
     7
 10
81.2692148757
 20
-116.7790425081
 30
0.0
 40
12.5
  0
LINE
  5
31F
  8
0
  6
CONTINUOUS
 62
     7
 10
102.0938074362
 20
-40.4702946801
 30
0.0
 11
94.2035280314
 21
-21.421473499
 31
0.0
  0
LINE
  5
320
  8
0
  6
CONTINUOUS
 62
     7
 10
68.33490172
 20
-21.421473499
 30
0.0
 11
60.4446223151
 21
-40.4702946801
 31
0.0
  0
LINE
  5
321
  8
0
  6
CONTINUOUS
 62
     7
 10
38.8528658223
 20
-89.5794164647
 30
0.0
 11
35.7854357135
 21
-89.3110521395
 31
0.0
  0
LINE
  5
322
  8
0
  6
CONTINUOUS
 62
     7
 10
35.7854357135
 20
-54.2470328767
 30
0.0
 11
38.8528658223
 21
-53.9786685515
 31
0.0
  0
LINE
  5
323
  8
0
  6
CONTINUOUS
 62
     7
 10
126.7529940378
 20
-54.2470328767
 30
0.0
 11
123.6855639291
 21
-53.9786685515
 31
0.0
  0
LINE
  5
324
  8
0
  6
CONTINUOUS
 62
     7
 10
123.6855639291
 20
-89.5794164647
 30
0.0
 11
126.7529940378
 21
-89.3110521395
 31
0.0
  0
LINE
  5
325
  8
0
  6
CONTINUOUS
 62
     7
 10
60.4446223151
 20
-103.0877903361
 30
0.0
 11
68.33490172
 21
-122.1366115172
 31
0.0
  0
LINE
  5
326
  8
0
  6
CONTINUOUS
 62
     7
 10
94.2035280314
 20
-122.1366115172
 30
0.0
 11
102.0938074362
 21
-103.0877903361
 31
0.0
  0
ARC
  5
327
  8
0
  6
CONTINUOUS
 62
     7
 10
28.8690909263
 20
-85.6946160175
 30
0.0
 40
2.999875075332934
 50
179.9978070984
 51
265.0021654384
  0
ARC
  5
328
  8
0
  6
CONTINUOUS
 62
     7
 10
28.8690491524
 20
-85.6943876764
 30
0.0
 40
2.999833301344364
 50
111.9192397043
 51
180.0021683044
  0
ARC
  5
329
  8
0
  6
CONTINUOUS
 62
     7
 10
28.8690502155
 20
-57.8636966217
 30
0.0
 40
2.999834364385856
 50
179.997845412
 51
248.0807465793
  0
ARC
  5
32A
  8
0
  6
CONTINUOUS
 62
     7
 10
28.869091865
 20
-57.8634698589
 30
0.0
 40
2.999876013977009
 50
94.9978509904
 51
180.0021764728
  0
POLYLINE
  5
32B
  8
0
  6
CONTINUOUS
 62
     7
 66
     1
 10
0.0
 20
0.0
 30
0.0
  0
VERTEX
  5
598
  8
0
  6
CONTINUOUS
 62
     7
 10
35.7854357135
 20
-89.3110521395
 30
0.0
  0
VERTEX
  5
599
  8
0
  6
CONTINUOUS
 62
     7
 10
33.7396552932
 20
-89.1320687045
 30
0.0
  0
VERTEX
  5
59A
  8
0
  6
CONTINUOUS
 62
     7
 10
31.822587378
 20
-88.964346822
 30
0.0
  0
VERTEX
  5
59B
  8
0
  6
CONTINUOUS
 62
     7
 10
30.0939930749
 20
-88.813114937
 30
0.0
  0
VERTEX
  5
59C
  8
0
  6
CONTINUOUS
 62
     7
 10
28.6077475321
 20
-88.6830855418
 30
0.0
  0
SEQEND
  5
601
  8
0
  6
CONTINUOUS
 62
     7
  0
POLYLINE
  5
32C
  8
0
  6
CONTINUOUS
 62
     7
 66
     1
 10
0.0
 20
0.0
 30
0.0
  0
VERTEX
  5
59D
  8
0
  6
CONTINUOUS
 62
     7
 10
28.6077475321
 20
-54.8749994744
 30
0.0
  0
VERTEX
  5
59E
  8
0
  6
CONTINUOUS
 62
     7
 10
30.0939930749
 20
-54.7449700792
 30
0.0
  0
VERTEX
  5
59F
  8
0
  6
CONTINUOUS
 62
     7
 10
31.822587378
 20
-54.5937381942
 30
0.0
  0
VERTEX
  5
5A0
  8
0
  6
CONTINUOUS
 62
     7
 10
33.7396552932
 20
-54.4260163117
 30
0.0
  0
VERTEX
  5
5A1
  8
0
  6
CONTINUOUS
 62
     7
 10
35.7854357135
 20
-54.2470328767
 30
0.0
  0
SEQEND
  5
600
  8
0
  6
CONTINUOUS
 62
     7
  0
ARC
  5
32D
  8
0
  6
CONTINUOUS
 62
     7
 10
133.6693378863
 20
-57.8634698589
 30
0.0
 40
2.999876013977016
 50
359.9978235272
 51
85.0021490096
  0
ARC
  5
32E
  8
0
  6
CONTINUOUS
 62
     7
 10
133.6693795359
 20
-57.8636966217
 30
0.0
 40
2.999834364385858
 50
291.9192534207
 51
0.002154588
  0
ARC
  5
32F
  8
0
  6
CONTINUOUS
 62
     7
 10
139.2711746799
 20
-71.7790425081
 30
0.0
 40
12.00073099971706
 50
111.9300143076
 51
248.0699856924
  0
ARC
  5
330
  8
0
  6
CONTINUOUS
 62
     7
 10
133.669380599
 20
-85.6943876764
 30
0.0
 40
2.999833301344363
 50
359.9978316956
 51
68.0807602957
  0
ARC
  5
331
  8
0
  6
CONTINUOUS
 62
     7
 10
133.669338825
 20
-85.6946160175
 30
0.0
 40
2.999875075332923
 50
274.9978345616
 51
0.0021929016
  0
POLYLINE
  5
332
  8
0
  6
CONTINUOUS
 62
     7
 66
     1
 10
0.0
 20
0.0
 30
0.0
  0
VERTEX
  5
5A2
  8
0
  6
CONTINUOUS
 62
     7
 10
126.7529940378
 20
-89.3110521395
 30
0.0
  0
VERTEX
  5
5A3
  8
0
  6
CONTINUOUS
 62
     7
 10
128.7987744581
 20
-89.1320687045
 30
0.0
  0
VERTEX
  5
5A4
  8
0
  6
CONTINUOUS
 62
     7
 10
130.7158423733
 20
-88.964346822
 30
0.0
  0
VERTEX
  5
5A5
  8
0
  6
CONTINUOUS
 62
     7
 10
132.4444366765
 20
-88.813114937
 30
0.0
  0
VERTEX
  5
5A6
  8
0
  6
CONTINUOUS
 62
     7
 10
133.9306822192
 20
-88.6830855418
 30
0.0
  0
SEQEND
  5
5FF
  8
0
  6
CONTINUOUS
 62
     7
  0
POLYLINE
  5
333
  8
0
  6
CONTINUOUS
 62
     7
 66
     1
 10
0.0
 20
0.0
 30
0.0
  0
VERTEX
  5
5A7
  8
0
  6
CONTINUOUS
 62
     7
 10
133.9306822192
 20
-54.8749994744
 30
0.0
  0
VERTEX
  5
5A8
  8
0
  6
CONTINUOUS
 62
     7
 10
132.4444366765
 20
-54.7449700792
 30
0.0
  0
VERTEX
  5
5A9
  8
0
  6
CONTINUOUS
 62
     7
 10
130.7158423733
 20
-54.5937381942
 30
0.0
  0
VERTEX
  5
5AA
  8
0
  6
CONTINUOUS
 62
     7
 10
128.7987744581
 20
-54.4260163117
 30
0.0
  0
VERTEX
  5
5AB
  8
0
  6
CONTINUOUS
 62
     7
 10
126.7529940378
 20
-54.2470328767
 30
0.0
  0
SEQEND
  5
5FE
  8
0
  6
CONTINUOUS
 62
     7
  0
POLYLINE
  5
334
  8
0
  6
CONTINUOUS
 62
     7
 66
     1
 10
0.0
 20
0.0
 30
0.0
  0
VERTEX
  5
5AC
  8
0
  6
CONTINUOUS
 62
     7
 10
108.2054702711
 20
-19.6232199926
 30
0.0
  0
VERTEX
  5
5AD
  8
0
  6
CONTINUOUS
 62
     7
 10
110.7490072173
 20
-22.4175229926
 30
0.0
  0
VERTEX
  5
5AE
  8
0
  6
CONTINUOUS
 62
     7
 10
112.9797352624
 20
-25.5430341024
 30
0.0
  0
SEQEND
  5
5FD
  8
0
  6
CONTINUOUS
 62
     7
  0
ARC
  5
335
  8
0
  6
CONTINUOUS
 62
     7
 10
-22.2572170501
 20
-70.1492114161
 30
0.0
 40
149.6819110890526
 50
6.0689237826
 51
16.4594480782
  0
ARC
  5
336
  8
0
  6
CONTINUOUS
 62
     7
 10
-7.3405612219
 20
-77.1125022596
 30
0.0
 40
134.584960386811
 50
343.2753257462
 51
354.8117778529
  0
POLYLINE
  5
337
  8
0
  6
CONTINUOUS
 62
     7
 66
     1
 10
0.0
 20
0.0
 30
0.0
  0
VERTEX
  5
5AF
  8
0
  6
CONTINUOUS
 62
     7
 10
108.2463422936
 20
-123.8342933614
 30
0.0
  0
VERTEX
  5
5B0
  8
0
  6
CONTINUOUS
 62
     7
 10
110.6815161329
 20
-121.1126223464
 30
0.0
  0
VERTEX
  5
5B1
  8
0
  6
CONTINUOUS
 62
     7
 10
112.8424583149
 20
-118.1093044836
 30
0.0
  0
SEQEND
  5
5FC
  8
0
  6
CONTINUOUS
 62
     7
  0
POLYLINE
  5
338
  8
0
  6
CONTINUOUS
 62
     7
 66
     1
 10
0.0
 20
0.0
 30
0.0
  0
VERTEX
  5
5B2
  8
0
  6
CONTINUOUS
 62
     7
 10
107.5468221825
 20
-131.4512603242
 30
0.0
  0
VERTEX
  5
5B3
  8
0
  6
CONTINUOUS
 62
     7
 10
104.1088430357
 20
-132.4376650412
 30
0.0
  0
VERTEX
  5
5B4
  8
0
  6
CONTINUOUS
 62
     7
 10
95.6487367075
 20
-134.1449469585
 30
0.0
  0
SEQEND
  5
5FB
  8
0
  6
CONTINUOUS
 62
     7
  0
ARC
  5
339
  8
0
  6
CONTINUOUS
 62
     7
 10
154.7060791987
 20
-138.468289605
 30
0.0
 40
59.21537801751113
 50
172.0894985809
 51
175.813082764
  0
POLYLINE
  5
33A
  8
0
  6
CONTINUOUS
 62
     7
 66
     1
 10
0.0
 20
0.0
 30
0.0
  0
VERTEX
  5
5B5
  8
0
  6
CONTINUOUS
 62
     7
 10
96.0541796085
 20
-129.541147526
 30
0.0
  0
VERTEX
  5
5B6
  8
0
  6
CONTINUOUS
 62
     7
 10
95.6712328043
 20
-128.7760548551
 30
0.0
  0
VERTEX
  5
5B7
  8
0
  6
CONTINUOUS
 62
     7
 10
94.7552602884
 20
-128.5908594985
 30
0.0
  0
VERTEX
  5
5B8
  8
0
  6
CONTINUOUS
 62
     7
 10
93.9933117625
 20
-128.6093108613
 30
0.0
  0
VERTEX
  5
5B9
  8
0
  6
CONTINUOUS
 62
     7
 10
92.9507762339
 20
-128.7556514401
 30
0.0
  0
VERTEX
  5
5BA
  8
0
  6
CONTINUOUS
 62
     7
 10
91.9016599801
 20
-128.9876327176
 30
0.0
  0
VERTEX
  5
5BB
  8
0
  6
CONTINUOUS
 62
     7
 10
90.5778892484
 20
-129.3247193355
 30
0.0
  0
VERTEX
  5
5BC
  8
0
  6
CONTINUOUS
 62
     7
 10
88.9334655513
 20
-129.746418472
 30
0.0
  0
VERTEX
  5
5BD
  8
0
  6
CONTINUOUS
 62
     7
 10
87.0263232064
 20
-130.175232913
 30
0.0
  0
VERTEX
  5
5BE
  8
0
  6
CONTINUOUS
 62
     7
 10
83.4056667664
 20
-130.6918189187
 30
0.0
  0
VERTEX
  5
5BF
  8
0
  6
CONTINUOUS
 62
     7
 10
82.3729245604
 20
-130.6944452483
 30
0.0
  0
SEQEND
  5
5FA
  8
0
  6
CONTINUOUS
 62
     7
  0
POLYLINE
  5
33B
  8
0
  6
CONTINUOUS
 62
     7
 66
     1
 10
0.0
 20
0.0
 30
0.0
  0
VERTEX
  5
5C0
  8
0
  6
CONTINUOUS
 62
     7
 10
81.4912321657
 20
-130.6966878731
 30
0.0
  0
VERTEX
  5
5C1
  8
0
  6
CONTINUOUS
 62
     7
 10
79.2697516881
 20
-130.7023391385
 30
0.0
  0
VERTEX
  5
5C2
  8
0
  6
CONTINUOUS
 62
     7
 10
77.0526323613
 20
-130.4448023696
 30
0.0
  0
VERTEX
  5
5C3
  8
0
  6
CONTINUOUS
 62
     7
 10
74.9711166282
 20
-130.0581023354
 30
0.0
  0
VERTEX
  5
5C4
  8
0
  6
CONTINUOUS
 62
     7
 10
73.2587045204
 20
-129.6516768892
 30
0.0
  0
VERTEX
  5
5C5
  8
0
  6
CONTINUOUS
 62
     7
 10
71.779793143
 20
-129.2641535659
 30
0.0
  0
VERTEX
  5
5C6
  8
0
  6
CONTINUOUS
 62
     7
 10
70.4429308098
 20
-128.9236732085
 30
0.0
  0
VERTEX
  5
5C7
  8
0
  6
CONTINUOUS
 62
     7
 10
69.3978369382
 20
-128.7000999112
 30
0.0
  0
VERTEX
  5
5C8
  8
0
  6
CONTINUOUS
 62
     7
 10
68.139351919
 20
-128.5231262703
 30
0.0
  0
VERTEX
  5
5C9
  8
0
  6
CONTINUOUS
 62
     7
 10
67.2958698269
 20
-128.539830472
 30
0.0
  0
VERTEX
  5
5CA
  8
0
  6
CONTINUOUS
 62
     7
 10
66.766120508
 20
-128.7729591389
 30
0.0
  0
VERTEX
  5
5CB
  8
0
  6
CONTINUOUS
 62
     7
 10
66.4842501428
 20
-129.4679194946
 30
0.0
  0
SEQEND
  5
5F9
  8
0
  6
CONTINUOUS
 62
     7
  0
ARC
  5
33C
  8
0
  6
CONTINUOUS
 62
     7
 10
11.1145031859
 20
-138.206730964
 30
0.0
 40
55.92085377534092
 50
4.1704166738
 51
8.0505572096
  0
POLYLINE
  5
33D
  8
0
  6
CONTINUOUS
 62
     7
 66
     1
 10
0.0
 20
0.0
 30
0.0
  0
VERTEX
  5
5CC
  8
0
  6
CONTINUOUS
 62
     7
 10
66.8872874376
 20
-134.1399848718
 30
0.0
  0
VERTEX
  5
5CD
  8
0
  6
CONTINUOUS
 62
     7
 10
61.4049723518
 20
-133.1336461265
 30
0.0
  0
VERTEX
  5
5CE
  8
0
  6
CONTINUOUS
 62
     7
 10
54.9929430854
 20
-131.4448863525
 30
0.0
  0
SEQEND
  5
5F8
  8
0
  6
CONTINUOUS
 62
     7
  0
POLYLINE
  5
33E
  8
0
  6
CONTINUOUS
 62
     7
 66
     1
 10
0.0
 20
0.0
 30
0.0
  0
VERTEX
  5
5CF
  8
0
  6
CONTINUOUS
 62
     7
 10
54.3329594803
 20
-123.9348650236
 30
0.0
  0
VERTEX
  5
5D0
  8
0
  6
CONTINUOUS
 62
     7
 10
51.7894225341
 20
-121.1405620236
 30
0.0
  0
VERTEX
  5
5D1
  8
0
  6
CONTINUOUS
 62
     7
 10
49.558694489
 20
-118.0150509138
 30
0.0
  0
SEQEND
  5
5F7
  8
0
  6
CONTINUOUS
 62
     7
  0
ARC
  5
33F
  8
0
  6
CONTINUOUS
 62
     7
 10
198.3035576246
 20
-70.0473658305
 30
0.0
 40
163.5898262991765
 50
186.7514147503
 51
196.2480664808
  0
ARC
  5
340
  8
0
  6
CONTINUOUS
 62
     7
 10
170.3555047531
 20
-66.6523940655
 30
0.0
 40
135.1008454407742
 50
163.24948338
 51
174.7395245344
  0
POLYLINE
  5
341
  8
0
  6
CONTINUOUS
 62
     7
 66
     1
 10
0.0
 20
0.0
 30
0.0
  0
VERTEX
  5
5D2
  8
0
  6
CONTINUOUS
 62
     7
 10
54.2920874578
 20
-19.7237916548
 30
0.0
  0
VERTEX
  5
5D3
  8
0
  6
CONTINUOUS
 62
     7
 10
51.8569136184
 20
-22.4454626698
 30
0.0
  0
VERTEX
  5
5D4
  8
0
  6
CONTINUOUS
 62
     7
 10
49.6959714365
 20
-25.4487805326
 30
0.0
  0
SEQEND
  5
5F6
  8
0
  6
CONTINUOUS
 62
     7
  0
POLYLINE
  5
342
  8
0
  6
CONTINUOUS
 62
     7
 66
     1
 10
0.0
 20
0.0
 30
0.0
  0
VERTEX
  5
5D5
  8
0
  6
CONTINUOUS
 62
     7
 10
54.9916075688
 20
-12.106824692
 30
0.0
  0
VERTEX
  5
5D6
  8
0
  6
CONTINUOUS
 62
     7
 10
58.2922240865
 20
-11.1560113985
 30
0.0
  0
VERTEX
  5
5D7
  8
0
  6
CONTINUOUS
 62
     7
 10
66.8896930438
 20
-9.4131380577
 30
0.0
  0
SEQEND
  5
5F5
  8
0
  6
CONTINUOUS
 62
     7
  0
ARC
  5
343
  8
0
  6
CONTINUOUS
 62
     7
 10
8.7752700154
 20
-5.18971078
 30
0.0
 40
58.26768831779329
 50
352.059206703
 51
355.8433746419
  0
POLYLINE
  5
344
  8
0
  6
CONTINUOUS
 62
     7
 66
     1
 10
0.0
 20
0.0
 30
0.0
  0
VERTEX
  5
5D8
  8
0
  6
CONTINUOUS
 62
     7
 10
96.0541796085
 20
-14.0901655216
 30
0.0
  0
VERTEX
  5
5D9
  8
0
  6
CONTINUOUS
 62
     7
 10
95.6378886622
 20
-14.8329660554
 30
0.0
  0
VERTEX
  5
5DA
  8
0
  6
CONTINUOUS
 62
     7
 10
94.6641573828
 20
-14.9932876487
 30
0.0
  0
VERTEX
  5
5DB
  8
0
  6
CONTINUOUS
 62
     7
 10
93.9166536701
 20
-14.9647332985
 30
0.0
  0
VERTEX
  5
5DC
  8
0
  6
CONTINUOUS
 62
     7
 10
92.9070785787
 20
-14.8143507798
 30
0.0
  0
VERTEX
  5
5DD
  8
0
  6
CONTINUOUS
 62
     7
 10
91.850014418
 20
-14.5747773607
 30
0.0
  0
VERTEX
  5
5DE
  8
0
  6
CONTINUOUS
 62
     7
 10
90.5188061443
 20
-14.2303742726
 30
0.0
  0
VERTEX
  5
5DF
  8
0
  6
CONTINUOUS
 62
     7
 10
88.8718553033
 20
-13.8042494912
 30
0.0
  0
VERTEX
  5
5E0
  8
0
  6
CONTINUOUS
 62
     7
 10
86.9687791128
 20
-13.374932136
 30
0.0
  0
VERTEX
  5
5E1
  8
0
  6
CONTINUOUS
 62
     7
 10
83.344744533
 20
-12.8616318364
 30
0.0
  0
VERTEX
  5
5E2
  8
0
  6
CONTINUOUS
 62
     7
 10
81.0548467998
 20
-12.8621310253
 30
0.0
  0
SEQEND
  5
5F4
  8
0
  6
CONTINUOUS
 62
     7
  0
POLYLINE
  5
345
  8
0
  6
CONTINUOUS
 62
     7
 66
     1
 10
0.0
 20
0.0
 30
0.0
  0
VERTEX
  5
5E3
  8
0
  6
CONTINUOUS
 62
     7
 10
80.1715697308
 20
-12.8623247404
 30
0.0
  0
VERTEX
  5
5E4
  8
0
  6
CONTINUOUS
 62
     7
 10
79.179451117
 20
-12.8625408072
 30
0.0
  0
VERTEX
  5
5E5
  8
0
  6
CONTINUOUS
 62
     7
 10
76.9660212245
 20
-13.1250359375
 30
0.0
  0
VERTEX
  5
5E6
  8
0
  6
CONTINUOUS
 62
     7
 10
74.8926266242
 20
-13.512317117
 30
0.0
  0
VERTEX
  5
5E7
  8
0
  6
CONTINUOUS
 62
     7
 10
73.2050854859
 20
-13.9111615975
 30
0.0
  0
VERTEX
  5
5E8
  8
0
  6
CONTINUOUS
 62
     7
 10
71.7492001277
 20
-14.2886601646
 30
0.0
  0
VERTEX
  5
5E9
  8
0
  6
CONTINUOUS
 62
     7
 10
70.4063223821
 20
-14.6252773959
 30
0.0
  0
VERTEX
  5
5EA
  8
0
  6
CONTINUOUS
 62
     7
 10
69.3598259386
 20
-14.8436352868
 30
0.0
  0
VERTEX
  5
5EB
  8
0
  6
CONTINUOUS
 62
     7
 10
68.0759791431
 20
-15.0212124247
 30
0.0
  0
VERTEX
  5
5EC
  8
0
  6
CONTINUOUS
 62
     7
 10
67.2274064418
 20
-14.9933956821
 30
0.0
  0
VERTEX
  5
5ED
  8
0
  6
CONTINUOUS
 62
     7
 10
66.7163627368
 20
-14.7089623172
 30
0.0
  0
VERTEX
  5
5EE
  8
0
  6
CONTINUOUS
 62
     7
 10
66.4842501428
 20
-14.0169374902
 30
0.0
  0
SEQEND
  5
5F3
  8
0
  6
CONTINUOUS
 62
     7
  0
ARC
  5
346
  8
0
  6
CONTINUOUS
 62
     7
 10
152.5712053147
 20
-5.2285329331
 30
0.0
 40
57.07404003087066
 50
184.2096305095
 51
188.0113433739
  0
POLYLINE
  5
347
  8
0
  6
CONTINUOUS
 62
     7
 66
     1
 10
0.0
 20
0.0
 30
0.0
  0
VERTEX
  5
5EF
  8
0
  6
CONTINUOUS
 62
     7
 10
95.6511423138
 20
-9.4181001444
 30
0.0
  0
VERTEX
  5
5F0
  8
0
  6
CONTINUOUS
 62
     7
 10
101.0676128936
 20
-10.4101784785
 30
0.0
  0
VERTEX
  5
5F1
  8
0
  6
CONTINUOUS
 62
     7
 10
107.5454866659
 20
-12.1131986637
 30
0.0
  0
SEQEND
  5
5F2
  8
0
  6
CONTINUOUS
 62
     7
  0
LINE
  5
348
  8
0
  6
CONTINUOUS
 62
     7
 10
66.4842501428
 20
-14.0169374902
 30
0.0
 11
66.4842501428
 21
-13.2393762727
 31
0.0
  0
ARC
  5
349
  8
0
  6
CONTINUOUS
 62
     7
 10
81.269220736
 20
-16.3533874048
 30
0.0
 40
15.96677417803279
 50
25.7444142477
 51
154.2358157735
  0
LINE
  5
34A
  8
0
  6
CONTINUOUS
 62
     7
 10
96.0541796085
 20
-14.0901655216
 30
0.0
 11
96.0541796085
 21
-13.1828934212
 31
0.0
  0
ARC
  5
34B
  8
0
  6
CONTINUOUS
 62
     7
 10
81.2692088432
 20
-127.2056950514
 30
0.0
 40
15.96634080280787
 50
205.7411904512
 51
334.23903957
  0
LINE
  5
34C
  8
0
  6
CONTINUOUS
 62
     7
 10
66.4842501428
 20
-129.4679194946
 30
0.0
 11
66.4842501428
 21
-130.3751915951
 31
0.0
  0
LINE
  5
34D
  8
0
  6
CONTINUOUS
 62
     7
 10
96.0541796085
 20
-129.541147526
 30
0.0
 11
96.0541796085
 21
-130.3187087436
 31
0.0
  0
ARC
  5
34E
  8
0
  6
CONTINUOUS
 62
     7
 10
118.992827023
 20
-15.5110373025
 30
0.0
 40
12.68576894116982
 50
13.7341834522
 51
72.7203159486
  0
ARC
  5
34F
  8
0
  6
CONTINUOUS
 62
     7
 10
-111.2307851243
 20
-71.7790425081
 30
0.0
 40
249.6857689411698
 50
12.3112460813
 51
13.7341834522
  0
ARC
  5
350
  8
0
  6
CONTINUOUS
 62
     7
 10
120.2692148757
 20
-14.7790425081
 30
0.0
 40
13.00000000000001
 50
235.8937649701
 51
343.1813616576
  0
ARC
  5
351
  8
0
  6
CONTINUOUS
 62
     7
 10
81.2692148757
 20
-136.7790425081
 30
0.0
 40
139.6857689411698
 50
72.7203159486
 51
74.7832013108
  0
ARC
  5
352
  8
0
  6
CONTINUOUS
 62
     7
 10
120.2692148757
 20
-14.7790425081
 30
0.0
 40
13.00000000000003
 50
100.3535517451
 51
201.8778510258
  0
ARC
  5
353
  8
0
  6
CONTINUOUS
 62
     7
 10
42.2692148757
 20
-14.7790425081
 30
0.0
 40
13.00000000000001
 50
196.8186383424
 51
304.8401603426
  0
ARC
  5
354
  8
0
  6
CONTINUOUS
 62
     7
 10
273.7692148757
 20
-71.7790425081
 30
0.0
 40
249.6857689411698
 50
166.2658165478
 51
167.6887539187
  0
ARC
  5
355
  8
0
  6
CONTINUOUS
 62
     7
 10
43.5456027283
 20
-15.5110373025
 30
0.0
 40
12.68576894116979
 50
107.2796840514
 51
166.2658165478
  0
ARC
  5
356
  8
0
  6
CONTINUOUS
 62
     7
 10
42.2692148757
 20
-14.7790425081
 30
0.0
 40
13.00000000000002
 50
337.6436840813
 51
79.6464482549
  0
ARC
  5
357
  8
0
  6
CONTINUOUS
 62
     7
 10
81.2692148757
 20
-136.7790425081
 30
0.0
 40
139.6857689411698
 50
105.2167986892
 51
107.2796840514
  0
ARC
  5
358
  8
0
  6
CONTINUOUS
 62
     7
 10
81.2692148757
 20
-6.7790425081
 30
0.0
 40
139.6857689411698
 50
252.7203159486
 51
254.7832013108
  0
ARC
  5
359
  8
0
  6
CONTINUOUS
 62
     7
 10
43.5456027283
 20
-128.0470477137
 30
0.0
 40
12.68576894116979
 50
193.7341834522
 51
252.7203159486
  0
ARC
  5
35A
  8
0
  6
CONTINUOUS
 62
     7
 10
273.7692148757
 20
-71.7790425081
 30
0.0
 40
249.6857689411698
 50
192.3112460813
 51
193.7341834522
  0
ARC
  5
35B
  8
0
  6
CONTINUOUS
 62
     7
 10
42.2692148757
 20
-128.7790425081
 30
0.0
 40
13.0
 50
55.8937649702
 51
163.1813616576
  0
ARC
  5
35C
  8
0
  6
CONTINUOUS
 62
     7
 10
42.2692148757
 20
-128.7790425081
 30
0.0
 40
13.00000000000004
 50
280.3535517451
 51
21.8778510257
  0
ARC
  5
35D
  8
0
  6
CONTINUOUS
 62
     7
 10
120.2692148757
 20
-128.7790425081
 30
0.0
 40
13.0
 50
16.8186383424
 51
124.8401603426
  0
ARC
  5
35E
  8
0
  6
CONTINUOUS
 62
     7
 10
-111.2307851243
 20
-71.7790425081
 30
0.0
 40
249.6857689411698
 50
346.2658165478
 51
347.6887539187
  0
ARC
  5
35F
  8
0
  6
CONTINUOUS
 62
     7
 10
118.992827023
 20
-128.0470477137
 30
0.0
 40
12.68576894116984
 50
287.2796840514
 51
346.2658165478
  0
ARC
  5
360
  8
0
  6
CONTINUOUS
 62
     7
 10
81.2692148757
 20
-6.7790425081
 30
0.0
 40
139.6857689411698
 50
285.2167986892
 51
287.2796840514
  0
ARC
  5
361
  8
0
  6
CONTINUOUS
 62
     7
 10
120.2692148757
 20
-128.7790425081
 30
0.0
 40
13.00000000000005
 50
157.6436840814
 51
259.6464482549
  0
ARC
  5
362
  8
0
  6
CONTINUOUS
 62
     7
 10
81.2692148757
 20
-136.7790425081
 30
0.0
 40
140.0
 50
72.7203159486
 51
90.0
  0
ARC
  5
363
  8
0
  6
CONTINUOUS
 62
     7
 10
81.2692148757
 20
-136.7790425081
 30
0.0
 40
139.6857689411698
 50
74.7832013108
 51
105.2167986892
  0
ARC
  5
364
  8
0
  6
CONTINUOUS
 62
     7
 10
81.2692148757
 20
-136.7790425081
 30
0.0
 40
140.0
 50
90.0
 51
107.2796840514
  0
ARC
  5
365
  8
0
  6
CONTINUOUS
 62
     7
 10
43.5456027283
 20
-15.5110373025
 30
0.0
 40
13.00000000000001
 50
107.2796840514
 51
166.2658165478
  0
ARC
  5
366
  8
0
  6
CONTINUOUS
 62
     7
 10
118.992827023
 20
-15.5110373025
 30
0.0
 40
13.00000000000004
 50
13.7341834522
 51
72.7203159486
  0
ARC
  5
367
  8
0
  6
CONTINUOUS
 62
     7
 10
-111.2307851243
 20
-71.7790425081
 30
0.0
 40
249.6857689411698
 50
347.6887539187
 51
12.3112460813
  0
ARC
  5
368
  8
0
  6
CONTINUOUS
 62
     7
 10
273.7692148757
 20
-71.7790425081
 30
0.0
 40
249.6857689411698
 50
167.6887539187
 51
192.3112460813
  0
ARC
  5
369
  8
0
  6
CONTINUOUS
 62
     7
 10
273.7692148757
 20
-71.7790425081
 30
0.0
 40
249.9999999999999
 50
166.2658165478
 51
180.0
  0
ARC
  5
36A
  8
0
  6
CONTINUOUS
 62
     7
 10
273.7692148757
 20
-71.7790425081
 30
0.0
 40
249.9999999999999
 50
180.0
 51
193.7341834522
  0
ARC
  5
36B
  8
0
  6
CONTINUOUS
 62
     7
 10
-111.2307851243
 20
-71.7790425081
 30
0.0
 40
250.0
 50
346.2658165478
 51
0.0
  0
ARC
  5
36C
  8
0
  6
CONTINUOUS
 62
     7
 10
-111.2307851243
 20
-71.7790425081
 30
0.0
 40
250.0
 50
0.0
 51
13.7341834522
  0
ARC
  5
36D
  8
0
  6
CONTINUOUS
 62
     7
 10
118.992827023
 20
-128.0470477137
 30
0.0
 40
13.00000000000004
 50
287.2796840514
 51
346.2658165478
  0
ARC
  5
36E
  8
0
  6
CONTINUOUS
 62
     7
 10
43.5456027283
 20
-128.0470477137
 30
0.0
 40
13.00000000000004
 50
193.7341834522
 51
252.7203159486
  0
ARC
  5
36F
  8
0
  6
CONTINUOUS
 62
     7
 10
81.2692148757
 20
-6.7790425081
 30
0.0
 40
139.6857689411698
 50
254.7832013108
 51
285.2167986892
  0
ARC
  5
370
  8
0
  6
CONTINUOUS
 62
     7
 10
81.2692148757
 20
-6.7790425081
 30
0.0
 40
140.0
 50
252.7203159486
 51
270.0
  0
ARC
  5
371
  8
0
  6
CONTINUOUS
 62
     7
 10
81.2692148757
 20
-6.7790425081
 30
0.0
 40
140.0
 50
270.0
 51
287.2796840514
  0
ARC
  5
372
  8
0
  6
CONTINUOUS
 62
     7
 10
81.2692148757
 20
-161.7790425081
 30
0.0
 40
165.0
 50
90.0
 51
104.7850480541
  0
ARC
  5
373
  8
0
  6
CONTINUOUS
 62
     7
 10
323.7692148757
 20
-71.7790425081
 30
0.0
 40
300.0
 50
168.5511948561
 51
180.0
  0
ARC
  5
374
  8
0
  6
CONTINUOUS
 62
     7
 10
42.479811031
 20
-14.8117599267
 30
0.0
 40
12.99999999999997
 50
104.7850480541
 51
168.5511948561
  0
ARC
  5
375
  8
0
  6
CONTINUOUS
 62
     7
 10
120.0586187203
 20
-14.8117599267
 30
0.0
 40
12.99999999999997
 50
11.4488051439
 51
75.2149519459
  0
ARC
  5
376
  8
0
  6
CONTINUOUS
 62
     7
 10
-161.2307851243
 20
-71.7790425081
 30
0.0
 40
300.0
 50
0.0
 51
11.4488051439
  0
ARC
  5
377
  8
0
  6
CONTINUOUS
 62
     7
 10
81.2692148757
 20
-161.7790425081
 30
0.0
 40
165.0
 50
75.2149519459
 51
90.0
  0
ARC
  5
378
  8
0
  6
CONTINUOUS
 62
     7
 10
42.479811031
 20
-128.7463250896
 30
0.0
 40
12.99999999999993
 50
191.4488051439
 51
255.2149519459
  0
ARC
  5
379
  8
0
  6
CONTINUOUS
 62
     7
 10
81.2692148757
 20
18.2209574919
 30
0.0
 40
165.0
 50
255.2149519459
 51
270.0
  0
ARC
  5
37A
  8
0
  6
CONTINUOUS
 62
     7
 10
323.7692148757
 20
-71.7790425081
 30
0.0
 40
300.0
 50
180.0
 51
191.4488051439
  0
ARC
  5
37B
  8
0
  6
CONTINUOUS
 62
     7
 10
120.0586187203
 20
-128.7463250896
 30
0.0
 40
12.99999999999996
 50
284.7850480541
 51
348.5511948561
  0
ARC
  5
37C
  8
0
  6
CONTINUOUS
 62
     7
 10
81.2692148757
 20
18.2209574919
 30
0.0
 40
165.0
 50
270.0
 51
284.7850480541
  0
ARC
  5
37D
  8
0
  6
CONTINUOUS
 62
     7
 10
-161.2307851243
 20
-71.7790425081
 30
0.0
 40
300.0
 50
348.5511948561
 51
0.0
  0
LINE
  5
37E
  8
0
  6
CONTINUOUS
 62
     7
 10
3.7692142796
 20
-67.2790427018
 30
0.0
 11
3.7692142796
 21
23.7209573131
 31
0.0
  0
LINE
  5
37F
  8
0
  6
CONTINUOUS
 62
     7
 10
3.7692142796
 20
-76.2790423144
 30
0.0
 11
3.7692142796
 21
-167.2790423293
 31
0.0
  0
LINE
  5
380
  8
0
  6
CONTINUOUS
 62
     7
 10
-20.2307822037
 20
-167.2790423293
 30
0.0
 11
-20.2307822037
 21
23.7209573131
 31
0.0
  0
LINE
  5
381
  8
0
  6
CONTINUOUS
 62
     7
 10
158.7692154717
 20
-76.2790423144
 30
0.0
 11
158.7692154717
 21
-167.2790423293
 31
0.0
  0
LINE
  5
382
  8
0
  6
CONTINUOUS
 62
     7
 10
158.7692154717
 20
-67.2790427018
 30
0.0
 11
158.7692154717
 21
23.7209573131
 31
0.0
  0
LINE
  5
383
  8
0
  6
CONTINUOUS
 62
     7
 10
182.769211955
 20
-167.2790423293
 30
0.0
 11
182.769211955
 21
23.7209573131
 31
0.0
  0
LINE
  5
384
  8
0
  6
CONTINUOUS
 62
     7
 10
3.7692142796
 20
-76.2790423144
 30
0.0
 11
23.8029649627
 21
-76.2790423144
 31
0.0
  0
LINE
  5
385
  8
0
  6
CONTINUOUS
 62
     7
 10
3.7692142796
 20
-71.7790425081
 30
0.0
 11
3.7692142796
 21
-76.2790423144
 31
0.0
  0
LINE
  5
386
  8
0
  6
CONTINUOUS
 62
     7
 10
3.7692142796
 20
-71.7790425081
 30
0.0
 11
3.7692142796
 21
-67.2790427018
 31
0.0
  0
LINE
  5
387
  8
0
  6
CONTINUOUS
 62
     7
 10
3.7692142796
 20
-67.2790427018
 30
0.0
 11
23.8029649627
 21
-67.2790427018
 31
0.0
  0
LINE
  5
388
  8
0
  6
CONTINUOUS
 62
     7
 10
158.7692154717
 20
-71.7790425081
 30
0.0
 11
158.7692154717
 21
-67.2790427018
 31
0.0
  0
LINE
  5
389
  8
0
  6
CONTINUOUS
 62
     7
 10
158.7692154717
 20
-71.7790425081
 30
0.0
 11
158.7692154717
 21
-76.2790423144
 31
0.0
  0
LINE
  5
38A
  8
0
  6
CONTINUOUS
 62
     7
 10
158.7692154717
 20
-76.2790423144
 30
0.0
 11
138.7354647887
 21
-76.2790423144
 31
0.0
  0
LINE
  5
38B
  8
0
  6
CONTINUOUS
 62
     7
 10
158.7692154717
 20
-67.2790427018
 30
0.0
 11
138.7354647887
 21
-67.2790427018
 31
0.0
  0
LINE
  5
38C
  8
0
  6
CONTINUOUS
 62
     8
 10
35.7854357135
 20
-54.2470328767
 30
0.0
 11
35.7854357135
 21
-64.906930111
 31
0.0
  0
LINE
  5
38D
  8
0
  6
CONTINUOUS
 62
     8
 10
35.7854357135
 20
-78.6511549052
 30
0.0
 11
35.7854357135
 21
-89.3110521395
 31
0.0
  0
LINE
  5
38E
  8
0
  6
CONTINUOUS
 62
     8
 10
126.7529940378
 20
-54.2470328767
 30
0.0
 11
126.7529940378
 21
-64.906930111
 31
0.0
  0
LINE
  5
38F
  8
0
  6
CONTINUOUS
 62
     8
 10
126.7529940378
 20
-78.6511549052
 30
0.0
 11
126.7529940378
 21
-89.3110521395
 31
0.0
  0
LINE
  5
390
  8
0
  6
CONTINUOUS
 62
     8
 10
122.7609617781
 20
-3.3978224058
 30
0.0
 11
122.8542989266
 21
-3.0977800746
 31
0.0
  0
LINE
  5
391
  8
0
  6
CONTINUOUS
 62
     8
 10
39.7774679732
 20
-3.3978224058
 30
0.0
 11
39.6841308248
 21
-3.0977800746
 31
0.0
  0
LINE
  5
392
  8
0
  6
CONTINUOUS
 62
     8
 10
31.2225511443
 20
-12.4992095191
 30
0.0
 11
30.9173045826
 21
-12.4246068556
 31
0.0
  0
LINE
  5
393
  8
0
  6
CONTINUOUS
 62
     8
 10
131.315878607
 20
-12.4992095191
 30
0.0
 11
131.6211251688
 21
-12.4246068556
 31
0.0
  0
LINE
  5
394
  8
0
  6
CONTINUOUS
 62
     8
 10
31.2225511443
 20
-131.0588754971
 30
0.0
 11
30.9173045826
 21
-131.1334781606
 31
0.0
  0
LINE
  5
395
  8
0
  6
CONTINUOUS
 62
     8
 10
131.315878607
 20
-131.0588754971
 30
0.0
 11
131.6211251688
 21
-131.1334781606
 31
0.0
  0
LINE
  5
396
  8
0
  6
CONTINUOUS
 62
     8
 10
122.7609617781
 20
-140.1602626104
 30
0.0
 11
122.8542989266
 21
-140.4603049416
 31
0.0
  0
LINE
  5
397
  8
0
  6
CONTINUOUS
 62
     8
 10
39.7774679732
 20
-140.1602626104
 30
0.0
 11
39.6841308248
 21
-140.4603049416
 31
0.0
  0
LINE
  5
398
  8
FORMAT
  6
CENTERX2
 10
81.2692148757
 20
-152.3184952072
 30
0.0
 11
81.2692148757
 21
8.3423842218
 31
0.0
  0
LINE
  5
399
  8
FORMAT
  6
CENTERX2
 10
191.6328365149
 20
-71.7790425081
 30
0.0
 11
-27.7642784042
 21
-71.7790425081
 31
0.0
  0
ENDSEC
  0
EOF
