  0
SECTION
  2
HEADER
  9
$ACADVER
  1
AC1015
  9
$ACADMAINTVER
 70
     6
  9
$DWGCODEPAGE
  3
ANSI_1252
  9
$INSBASE
 10
0.0
 20
0.0
 30
0.0
  9
$EXTMIN
 10
0.0
 20
0.0
 30
0.0
  9
$EXTMAX
 10
841.0
 20
594.0
 30
0.0
  9
$LIMMIN
 10
0.0
 20
0.0
  9
$LIMMAX
 10
841.0
 20
594.0
  9
$ORTHOMODE
 70
     0
  9
$REGENMODE
 70
     1
  9
$FILLMODE
 70
     1
  9
$QTEXTMODE
 70
     0
  9
$MIRRTEXT
 70
     1
  9
$LTSCALE
 40
1.0
  9
$ATTMODE
 70
     1
  9
$TEXTSIZE
 40
2.5
  9
$TRACEWID
 40
1.0
  9
$TEXTSTYLE
  7
Standard
  9
$CLAYER
  8
0
  9
$CELTYPE
  6
ByLayer
  9
$CECOLOR
 62
   256
  9
$CELTSCALE
 40
1.0
  9
$DISPSILH
 70
     0
  9
$DIMSCALE
 40
1.0
  9
$DIMASZ
 40
2.5
  9
$DIMEXO
 40
1.0
  9
$DIMDLI
 40
3.75
  9
$DIMRND
 40
0.0
  9
$DIMDLE
 40
0.0
  9
$DIMEXE
 40
1.0
  9
$DIMTP
 40
0.0
  9
$DIMTM
 40
0.0
  9
$DIMTXT
 40
2.5
  9
$DIMCEN
 40
2.5
  9
$DIMTSZ
 40
0.0
  9
$DIMTOL
 70
     0
  9
$DIMLIM
 70
     0
  9
$DIMTIH
 70
     1
  9
$DIMTOH
 70
     1
  9
$DIMSE1
 70
     0
  9
$DIMSE2
 70
     0
  9
$DIMTAD
 70
     1
  9
$DIMZIN
 70
     0
  9
$DIMBLK
  1

  9
$DIMASO
 70
     1
  9
$DIMSHO
 70
     1
  9
$DIMPOST
  1

  9
$DIMAPOST
  1

  9
$DIMALT
 70
     0
  9
$DIMALTD
 70
     3
  9
$DIMALTF
 40
0.0393700787
  9
$DIMLFAC
 40
1.0
  9
$DIMTOFL
 70
     1
  9
$DIMTVP
 40
0.0
  9
$DIMTIX
 70
     0
  9
$DIMSOXD
 70
     0
  9
$DIMSAH
 70
     0
  9
$DIMBLK1
  1

  9
$DIMBLK2
  1

  9
$DIMSTYLE
  2
ISO-25
  9
$DIMCLRD
 70
     0
  9
$DIMCLRE
 70
     0
  9
$DIMCLRT
 70
     0
  9
$DIMTFAC
 40
1.0
  9
$DIMGAP
 40
1.524
  9
$DIMJUST
 70
     0
  9
$DIMSD1
 70
     0
  9
$DIMSD2
 70
     0
  9
$DIMTOLJ
 70
     0
  9
$DIMTZIN
 70
     0
  9
$DIMALTZ
 70
     0
  9
$DIMALTTZ
 70
     0
  9
$DIMUPT
 70
     0
  9
$DIMDEC
 70
     2
  9
$DIMTDEC
 70
     2
  9
$DIMALTU
 70
     2
  9
$DIMALTTD
 70
     3
  9
$DIMTXSTY
  7
Standard
  9
$DIMAUNIT
 70
     0
  9
$DIMADEC
 70
     2
  9
$DIMALTRND
 40
0.0
  9
$DIMAZIN
 70
     0
  9
$DIMDSEP
 70
    44
  9
$DIMATFIT
 70
     3
  9
$DIMFRAC
 70
     0
  9
$DIMLDRBLK
  1

  9
$DIMLUNIT
 70
     2
  9
$DIMLWD
 70
    -2
  9
$DIMLWE
 70
    -2
  9
$DIMTMOVE
 70
     0
  9
$LUNITS
 70
     2
  9
$LUPREC
 70
     2
  9
$SKETCHINC
 40
1.0
  9
$FILLETRAD
 40
10.0
  9
$AUNITS
 70
     0
  9
$AUPREC
 70
     2
  9
$MENU
  1
.
  9
$ELEVATION
 40
0.0
  9
$PELEVATION
 40
0.0
  9
$THICKNESS
 40
0.0
  9
$LIMCHECK
 70
     0
  9
$CHAMFERA
 40
10.0
  9
$CHAMFERB
 40
10.0
  9
$CHAMFERC
 40
20.0
  9
$CHAMFERD
 40
0.0
  9
$SKPOLY
 70
     0
  9
$TDCREATE
 40
2457189.553799491
  9
$TDUCREATE
 40
2457189.220466157
  9
$TDUPDATE
 40
2457189.553800393
  9
$TDUUPDATE
 40
2457189.22046706
  9
$TDINDWG
 40
0.0000000116
  9
$TDUSRTIMER
 40
0.0000000116
  9
$USRTIMER
 70
     1
  9
$ANGBASE
 50
0.0
  9
$ANGDIR
 70
     0
  9
$PDMODE
 70
     0
  9
$PDSIZE
 40
-1.0
  9
$PLINEWID
 40
0.0
  9
$SPLFRAME
 70
     0
  9
$SPLINETYPE
 70
     6
  9
$SPLINESEGS
 70
     8
  9
$HANDSEED
  5
313
  9
$SURFTAB1
 70
     6
  9
$SURFTAB2
 70
     6
  9
$SURFTYPE
 70
     6
  9
$SURFU
 70
     6
  9
$SURFV
 70
     6
  9
$UCSBASE
  2

  9
$UCSNAME
  2

  9
$UCSORG
 10
0.0
 20
0.0
 30
0.0
  9
$UCSXDIR
 10
1.0
 20
0.0
 30
0.0
  9
$UCSYDIR
 10
0.0
 20
1.0
 30
0.0
  9
$UCSORTHOREF
  2

  9
$UCSORTHOVIEW
 70
     0
  9
$UCSORGTOP
 10
0.0
 20
0.0
 30
0.0
  9
$UCSORGBOTTOM
 10
0.0
 20
0.0
 30
0.0
  9
$UCSORGLEFT
 10
0.0
 20
0.0
 30
0.0
  9
$UCSORGRIGHT
 10
0.0
 20
0.0
 30
0.0
  9
$UCSORGFRONT
 10
0.0
 20
0.0
 30
0.0
  9
$UCSORGBACK
 10
0.0
 20
0.0
 30
0.0
  9
$PUCSBASE
  2

  9
$PUCSNAME
  2

  9
$PUCSORG
 10
0.0
 20
0.0
 30
0.0
  9
$PUCSXDIR
 10
1.0
 20
0.0
 30
0.0
  9
$PUCSYDIR
 10
0.0
 20
1.0
 30
0.0
  9
$PUCSORTHOREF
  2

  9
$PUCSORTHOVIEW
 70
     0
  9
$PUCSORGTOP
 10
0.0
 20
0.0
 30
0.0
  9
$PUCSORGBOTTOM
 10
0.0
 20
0.0
 30
0.0
  9
$PUCSORGLEFT
 10
0.0
 20
0.0
 30
0.0
  9
$PUCSORGRIGHT
 10
0.0
 20
0.0
 30
0.0
  9
$PUCSORGFRONT
 10
0.0
 20
0.0
 30
0.0
  9
$PUCSORGBACK
 10
0.0
 20
0.0
 30
0.0
  9
$USERI1
 70
     0
  9
$USERI2
 70
     0
  9
$USERI3
 70
     0
  9
$USERI4
 70
     0
  9
$USERI5
 70
     0
  9
$USERR1
 40
0.0
  9
$USERR2
 40
0.0
  9
$USERR3
 40
0.0
  9
$USERR4
 40
0.0
  9
$USERR5
 40
0.0
  9
$WORLDVIEW
 70
     1
  9
$SHADEDGE
 70
     3
  9
$SHADEDIF
 70
    70
  9
$TILEMODE
 70
     1
  9
$MAXACTVP
 70
    64
  9
$PINSBASE
 10
0.0
 20
0.0
 30
0.0
  9
$PLIMCHECK
 70
     0
  9
$PEXTMIN
 10
1.0000000000E+20
 20
1.0000000000E+20
 30
1.0000000000E+20
  9
$PEXTMAX
 10
-1.0000000000E+20
 20
-1.0000000000E+20
 30
-1.0000000000E+20
  9
$PLIMMIN
 10
0.0
 20
0.0
  9
$PLIMMAX
 10
420.0
 20
297.0
  9
$UNITMODE
 70
     0
  9
$VISRETAIN
 70
     1
  9
$PLINEGEN
 70
     0
  9
$PSLTSCALE
 70
     1
  9
$TREEDEPTH
 70
  3020
  9
$CMLSTYLE
  2
Standard
  9
$CMLJUST
 70
     0
  9
$CMLSCALE
 40
20.0
  9
$PROXYGRAPHICS
 70
     1
  9
$MEASUREMENT
 70
     1
  9
$CELWEIGHT
370
    -1
  9
$ENDCAPS
280
     0
  9
$JOINSTYLE
280
     0
  9
$LWDISPLAY
290
     1
  9
$INSUNITS
 70
     4
  9
$HYPERLINKBASE
  1

  9
$STYLESHEET
  1

  9
$XEDIT
290
     1
  9
$CEPSNTYPE
380
     0
  9
$PSTYLEMODE
290
     1
  9
$FINGERPRINTGUID
  2
{89E0DD4B-B90F-4AD7-89F0-E09E2D40160E}
  9
$VERSIONGUID
  2
{FAEB1C32-E019-11D5-929B-00C0DF256EC4}
  9
$EXTNAMES
290
     1
  9
$PSVPSCALE
 40
0.0
  9
$OLESTARTUP
290
     0
  0
ENDSEC
  0
SECTION
  2
CLASSES
  0
CLASS
  1
ACDBDICTIONARYWDFLT
  2
AcDbDictionaryWithDefault
  3
ObjectDBX Classes
 90
        0
280
     0
281
     0
  0
CLASS
  1
VISUALSTYLE
  2
AcDbVisualStyle
  3
ObjectDBX Classes
 90
     4095
280
     0
281
     0
  0
CLASS
  1
MATERIAL
  2
AcDbMaterial
  3
ObjectDBX Classes
 90
     1153
280
     0
281
     0
  0
CLASS
  1
ACDBPLACEHOLDER
  2
AcDbPlaceHolder
  3
ObjectDBX Classes
 90
        0
280
     0
281
     0
  0
CLASS
  1
LAYOUT
  2
AcDbLayout
  3
ObjectDBX Classes
 90
        0
280
     0
281
     0
  0
ENDSEC
  0
SECTION
  2
TABLES
  0
TABLE
  2
VPORT
  5
8
330
0
100
AcDbSymbolTable
 70
     1
  0
VPORT
  5
29
330
8
100
AcDbSymbolTableRecord
100
AcDbViewportTableRecord
  2
*Active
 70
     0
 10
0.0
 20
0.0
 11
1.0
 21
1.0
 12
420.5
 22
297.0
 13
0.0
 23
0.0
 14
10.0
 24
10.0
 15
10.0
 25
10.0
 16
0.0
 26
0.0
 36
1.0
 17
0.0
 27
0.0
 37
0.0
 40
594.0
 41
1.4158249158
 42
50.0
 43
0.0
 44
0.0
 50
0.0
 51
0.0
 71
     0
 72
  2000
 73
     1
 74
     3
 75
     0
 76
     0
 77
     0
 78
     0
281
     0
 65
     1
110
0.0
120
0.0
130
0.0
111
1.0
121
0.0
131
0.0
112
0.0
122
1.0
132
0.0
 79
     0
146
0.0
  0
ENDTAB
  0
TABLE
  2
LTYPE
  5
5
330
0
100
AcDbSymbolTable
 70
     6
  0
LTYPE
  5
14
330
5
100
AcDbSymbolTableRecord
100
AcDbLinetypeTableRecord
  2
ByBlock
 70
     0
  3

 72
    65
 73
     0
 40
0.0
  0
LTYPE
  5
15
330
5
100
AcDbSymbolTableRecord
100
AcDbLinetypeTableRecord
  2
ByLayer
 70
     0
  3

 72
    65
 73
     0
 40
0.0
  0
LTYPE
  5
16
330
5
100
AcDbSymbolTableRecord
100
AcDbLinetypeTableRecord
  2
Continuous
 70
     0
  3
Solid line
 72
    65
 73
     0
 40
0.0
  0
LTYPE
  5
3F
330
5
100
AcDbSymbolTableRecord
100
AcDbLinetypeTableRecord
  2
HIDDEN
 70
     0
  3
Hidden __ __ __ __ __ __ __ __ __ __ __ __ __ __
 72
    65
 73
     2
 40
1.905
 49
1.27
 74
     0
 49
-0.635
 74
     0
  0
LTYPE
  5
40
330
5
100
AcDbSymbolTableRecord
100
AcDbLinetypeTableRecord
  2
PHANTOM
 70
     0
  3
Phantom ______  __  __  ______  __  __  ______
 72
    65
 73
     6
 40
12.7
 49
6.35
 74
     0
 49
-1.27
 74
     0
 49
1.27
 74
     0
 49
-1.27
 74
     0
 49
1.27
 74
     0
 49
-1.27
 74
     0
  0
LTYPE
  5
41
330
5
100
AcDbSymbolTableRecord
100
AcDbLinetypeTableRecord
  2
CENTER
 70
     0
  3
Center ____ _ ____ _ ____ _ ____ _ ____ _ ____
 72
    65
 73
     4
 40
10.16
 49
6.35
 74
     0
 49
-1.27
 74
     0
 49
1.27
 74
     0
 49
-1.27
 74
     0
  0
LTYPE
  5
42
330
5
100
AcDbSymbolTableRecord
100
AcDbLinetypeTableRecord
  2
CENTERX2
 70
     0
  3
Center (2x) ________  __  ________  __  _____
 72
    65
 73
     4
 40
20.32
 49
12.7
 74
     0
 49
-2.54
 74
     0
 49
2.54
 74
     0
 49
-2.54
 74
     0
  0
LTYPE
  5
43
330
5
100
AcDbSymbolTableRecord
100
AcDbLinetypeTableRecord
  2
DOT2
 70
     0
  3
Dot (.5x) ........................................
 72
    65
 73
     2
 40
0.635
 49
0.0
 74
     0
 49
-0.635
 74
     0
  0
ENDTAB
  0
TABLE
  2
LAYER
  5
2
330
0
100
AcDbSymbolTable
 70
     3
  0
LAYER
  5
10
330
2
100
AcDbSymbolTableRecord
100
AcDbLayerTableRecord
  2
0
 70
     0
 62
     7
  6
Continuous
370
    -3
390
F
  0
LAYER
  5
44
330
2
100
AcDbSymbolTableRecord
100
AcDbLayerTableRecord
  2
FORMAT
 70
     0
 62
     7
  6
Continuous
370
    -3
390
F
  0
LAYER
  5
45
330
2
100
AcDbSymbolTableRecord
100
AcDbLayerTableRecord
  2
PROTOTYPE
 70
     0
 62
     7
  6
Continuous
370
    -3
390
F
  0
ENDTAB
  0
TABLE
  2
STYLE
  5
3
330
0
100
AcDbSymbolTable
 70
     1
  0
STYLE
  5
11
330
3
100
AcDbSymbolTableRecord
100
AcDbTextStyleTableRecord
  2
Standard
 70
     0
 40
0.0
 41
1.0
 50
0.0
 71
     0
 42
2.5
  3
txt
  4

  0
ENDTAB
  0
TABLE
  2
VIEW
  5
6
330
0
100
AcDbSymbolTable
 70
     0
  0
ENDTAB
  0
TABLE
  2
UCS
  5
7
330
0
100
AcDbSymbolTable
 70
     0
  0
ENDTAB
  0
TABLE
  2
APPID
  5
9
330
0
100
AcDbSymbolTable
 70
     1
  0
APPID
  5
12
330
9
100
AcDbSymbolTableRecord
100
AcDbRegAppTableRecord
  2
ACAD
 70
     0
  0
ENDTAB
  0
TABLE
  2
DIMSTYLE
  5
A
330
0
100
AcDbSymbolTable
 70
     1
100
AcDbDimStyleTable
  0
DIMSTYLE
105
27
330
A
100
AcDbSymbolTableRecord
100
AcDbDimStyleTableRecord
  2
ISO-25
 70
     0
 41
2.5
 42
0.625
 43
3.75
 44
1.25
 73
     0
 74
     0
 77
     1
 78
     8
140
2.5
141
2.5
143
0.0393700787
147
0.625
171
     3
172
     1
178
     0
271
     2
272
     2
274
     3
278
    44
283
     0
284
     8
340
11
  0
ENDTAB
  0
TABLE
  2
BLOCK_RECORD
  5
1
330
0
100
AcDbSymbolTable
 70
     2
  0
BLOCK_RECORD
  5
1F
330
1
100
AcDbSymbolTableRecord
100
AcDbBlockTableRecord
  2
*Model_Space
340
22
  0
BLOCK_RECORD
  5
1B
330
1
100
AcDbSymbolTableRecord
100
AcDbBlockTableRecord
  2
*Paper_Space
340
1E
  0
BLOCK_RECORD
  5
23
330
1
100
AcDbSymbolTableRecord
100
AcDbBlockTableRecord
  2
*Paper_Space0
340
26
  0
BLOCK_RECORD
  5
90
330
1
100
AcDbSymbolTableRecord
100
AcDbBlockTableRecord
  2
SW_CENTERMARKSYMBOL_0
340
0
102
{BLKREFS
331
143
102
}
  0
ENDTAB
  0
ENDSEC
  0
SECTION
  2
BLOCKS
  0
BLOCK
  5
20
330
1F
100
AcDbEntity
  8
0
100
AcDbBlockBegin
  2
*Model_Space
 70
     0
 10
0.0
 20
0.0
 30
0.0
  3
*Model_Space
  1

  0
ENDBLK
  5
21
330
1F
100
AcDbEntity
  8
0
100
AcDbBlockEnd
  0
BLOCK
  5
1C
330
1B
100
AcDbEntity
 67
     1
  8
0
100
AcDbBlockBegin
  2
*Paper_Space
 70
     0
 10
0.0
 20
0.0
 30
0.0
  3
*Paper_Space
  1

  0
ENDBLK
  5
1D
330
1B
100
AcDbEntity
 67
     1
  8
0
100
AcDbBlockEnd
  0
BLOCK
  5
24
330
23
100
AcDbEntity
  8
0
100
AcDbBlockBegin
  2
*Paper_Space0
 70
     0
 10
0.0
 20
0.0
 30
0.0
  3
*Paper_Space0
  1

  0
ENDBLK
  5
25
330
23
100
AcDbEntity
  8
0
100
AcDbBlockEnd
  0
BLOCK
  5
91
330
90
100
AcDbEntity
  8
0
100
AcDbBlockBegin
  2
SW_CENTERMARKSYMBOL_0
 70
     0
 10
0.0
 20
0.0
 30
0.0
  3
SW_CENTERMARKSYMBOL_0
  1

  0
ARC
  5
93
330
90
100
AcDbEntity
  8
FORMAT
 62
     0
100
AcDbCircle
 10
-160.7270415933
 20
-388.0294036547
 30
0.0
 40
420.0000000000006
100
AcDbArc
 50
67.5
 51
67.8410463066
  0
ARC
  5
94
330
90
100
AcDbEntity
  8
FORMAT
 62
     0
100
AcDbCircle
 10
-160.7270415933
 20
-388.0294036547
 30
0.0
 40
420.0000000000007
100
AcDbArc
 50
67.1589536934
 51
67.5
  0
ARC
  5
95
330
90
100
AcDbEntity
  8
FORMAT
 62
     0
100
AcDbCircle
 10
-160.7270415933
 20
-388.0294036547
 30
0.0
 40
420.0000000000007
100
AcDbArc
 50
82.5
 51
82.8410463066
  0
ARC
  5
96
330
90
100
AcDbEntity
  8
FORMAT
 62
     0
100
AcDbCircle
 10
-160.7270415933
 20
-388.0294036547
 30
0.0
 40
420.0000000000006
100
AcDbArc
 50
82.1589536934
 51
82.5
  0
ARC
  5
97
330
90
100
AcDbEntity
  8
FORMAT
 62
     0
100
AcDbCircle
 10
-160.7270415933
 20
-388.0294036547
 30
0.0
 40
420.0000000000008
100
AcDbArc
 50
97.5
 51
97.8410463066
  0
ARC
  5
98
330
90
100
AcDbEntity
  8
FORMAT
 62
     0
100
AcDbCircle
 10
-160.7270415933
 20
-388.0294036547
 30
0.0
 40
420.0000000000008
100
AcDbArc
 50
97.1589536934
 51
97.5
  0
ARC
  5
99
330
90
100
AcDbEntity
  8
FORMAT
 62
     0
100
AcDbCircle
 10
-160.7270415933
 20
-388.0294036547
 30
0.0
 40
420.0000000000008
100
AcDbArc
 50
112.5
 51
112.8410463066
  0
ARC
  5
9A
330
90
100
AcDbEntity
  8
FORMAT
 62
     0
100
AcDbCircle
 10
-160.7270415933
 20
-388.0294036547
 30
0.0
 40
420.0000000000008
100
AcDbArc
 50
112.1589536934
 51
112.5
  0
ARC
  5
9B
330
90
100
AcDbEntity
  8
FORMAT
 62
     0
100
AcDbCircle
 10
-160.7270415933
 20
-388.0294036547
 30
0.0
 40
420.000000000001
100
AcDbArc
 50
127.5
 51
127.8410463066
  0
ARC
  5
9C
330
90
100
AcDbEntity
  8
FORMAT
 62
     0
100
AcDbCircle
 10
-160.7270415933
 20
-388.0294036547
 30
0.0
 40
420.000000000001
100
AcDbArc
 50
127.1589536934
 51
127.5
  0
ARC
  5
9D
330
90
100
AcDbEntity
  8
FORMAT
 62
     0
100
AcDbCircle
 10
-160.7270415933
 20
-388.0294036547
 30
0.0
 40
420.0000000000011
100
AcDbArc
 50
142.5
 51
142.8410463066
  0
ARC
  5
9E
330
90
100
AcDbEntity
  8
FORMAT
 62
     0
100
AcDbCircle
 10
-160.7270415933
 20
-388.0294036547
 30
0.0
 40
420.0000000000011
100
AcDbArc
 50
142.1589536934
 51
142.5
  0
ARC
  5
9F
330
90
100
AcDbEntity
  8
FORMAT
 62
     0
100
AcDbCircle
 10
-160.7270415933
 20
-388.0294036547
 30
0.0
 40
420.0000000000014
100
AcDbArc
 50
157.5
 51
157.8410463066
  0
ARC
  5
A0
330
90
100
AcDbEntity
  8
FORMAT
 62
     0
100
AcDbCircle
 10
-160.7270415933
 20
-388.0294036547
 30
0.0
 40
420.0000000000014
100
AcDbArc
 50
157.1589536934
 51
157.5
  0
ARC
  5
A1
330
90
100
AcDbEntity
  8
FORMAT
 62
     0
100
AcDbCircle
 10
-160.7270415933
 20
-388.0294036547
 30
0.0
 40
420.0000000000015
100
AcDbArc
 50
172.5
 51
172.8410463066
  0
ARC
  5
A2
330
90
100
AcDbEntity
  8
FORMAT
 62
     0
100
AcDbCircle
 10
-160.7270415933
 20
-388.0294036547
 30
0.0
 40
420.0000000000015
100
AcDbArc
 50
172.1589536934
 51
172.5
  0
ARC
  5
A3
330
90
100
AcDbEntity
  8
FORMAT
 62
     0
100
AcDbCircle
 10
-160.7270415933
 20
-388.0294036547
 30
0.0
 40
420.0000000000017
100
AcDbArc
 50
187.5
 51
187.8410463066
  0
ARC
  5
A4
330
90
100
AcDbEntity
  8
FORMAT
 62
     0
100
AcDbCircle
 10
-160.7270415933
 20
-388.0294036547
 30
0.0
 40
420.0000000000017
100
AcDbArc
 50
187.1589536934
 51
187.5
  0
ARC
  5
A5
330
90
100
AcDbEntity
  8
FORMAT
 62
     0
100
AcDbCircle
 10
-160.7270415933
 20
-388.0294036547
 30
0.0
 40
420.0000000000018
100
AcDbArc
 50
202.5
 51
202.8410463066
  0
ARC
  5
A6
330
90
100
AcDbEntity
  8
FORMAT
 62
     0
100
AcDbCircle
 10
-160.7270415933
 20
-388.0294036547
 30
0.0
 40
420.0000000000017
100
AcDbArc
 50
202.1589536934
 51
202.5
  0
ARC
  5
A7
330
90
100
AcDbEntity
  8
FORMAT
 62
     0
100
AcDbCircle
 10
-160.7270415933
 20
-388.0294036547
 30
0.0
 40
420.0000000000019
100
AcDbArc
 50
217.5
 51
217.8410463066
  0
ARC
  5
A8
330
90
100
AcDbEntity
  8
FORMAT
 62
     0
100
AcDbCircle
 10
-160.7270415933
 20
-388.0294036547
 30
0.0
 40
420.0000000000019
100
AcDbArc
 50
217.1589536934
 51
217.5
  0
ARC
  5
A9
330
90
100
AcDbEntity
  8
FORMAT
 62
     0
100
AcDbCircle
 10
-160.7270415933
 20
-388.0294036547
 30
0.0
 40
420.0000000000019
100
AcDbArc
 50
232.5
 51
232.8410463066
  0
ARC
  5
AA
330
90
100
AcDbEntity
  8
FORMAT
 62
     0
100
AcDbCircle
 10
-160.7270415933
 20
-388.0294036547
 30
0.0
 40
420.000000000002
100
AcDbArc
 50
232.1589536934
 51
232.5
  0
ARC
  5
AB
330
90
100
AcDbEntity
  8
FORMAT
 62
     0
100
AcDbCircle
 10
-160.7270415933
 20
-388.0294036547
 30
0.0
 40
420.0000000000019
100
AcDbArc
 50
247.5
 51
247.8410463066
  0
ARC
  5
AC
330
90
100
AcDbEntity
  8
FORMAT
 62
     0
100
AcDbCircle
 10
-160.7270415933
 20
-388.0294036547
 30
0.0
 40
420.000000000002
100
AcDbArc
 50
247.1589536934
 51
247.5
  0
ARC
  5
AD
330
90
100
AcDbEntity
  8
FORMAT
 62
     0
100
AcDbCircle
 10
-160.7270415933
 20
-388.0294036547
 30
0.0
 40
420.0000000000019
100
AcDbArc
 50
262.5
 51
262.8410463066
  0
ARC
  5
AE
330
90
100
AcDbEntity
  8
FORMAT
 62
     0
100
AcDbCircle
 10
-160.7270415933
 20
-388.0294036547
 30
0.0
 40
420.0000000000019
100
AcDbArc
 50
262.1589536934
 51
262.5
  0
ARC
  5
AF
330
90
100
AcDbEntity
  8
FORMAT
 62
     0
100
AcDbCircle
 10
-160.7270415933
 20
-388.0294036547
 30
0.0
 40
420.0000000000019
100
AcDbArc
 50
277.5
 51
277.8410463066
  0
ARC
  5
B0
330
90
100
AcDbEntity
  8
FORMAT
 62
     0
100
AcDbCircle
 10
-160.7270415933
 20
-388.0294036547
 30
0.0
 40
420.0000000000019
100
AcDbArc
 50
277.1589536934
 51
277.5
  0
ARC
  5
B1
330
90
100
AcDbEntity
  8
FORMAT
 62
     0
100
AcDbCircle
 10
-160.7270415933
 20
-388.0294036547
 30
0.0
 40
420.0000000000017
100
AcDbArc
 50
292.5
 51
292.8410463066
  0
ARC
  5
B2
330
90
100
AcDbEntity
  8
FORMAT
 62
     0
100
AcDbCircle
 10
-160.7270415933
 20
-388.0294036547
 30
0.0
 40
420.0000000000017
100
AcDbArc
 50
292.1589536934
 51
292.5
  0
ARC
  5
B3
330
90
100
AcDbEntity
  8
FORMAT
 62
     0
100
AcDbCircle
 10
-160.7270415933
 20
-388.0294036547
 30
0.0
 40
420.0000000000016
100
AcDbArc
 50
307.5
 51
307.8410463066
  0
ARC
  5
B4
330
90
100
AcDbEntity
  8
FORMAT
 62
     0
100
AcDbCircle
 10
-160.7270415933
 20
-388.0294036547
 30
0.0
 40
420.0000000000016
100
AcDbArc
 50
307.1589536934
 51
307.5
  0
ARC
  5
B5
330
90
100
AcDbEntity
  8
FORMAT
 62
     0
100
AcDbCircle
 10
-160.7270415933
 20
-388.0294036547
 30
0.0
 40
420.0000000000015
100
AcDbArc
 50
322.5
 51
322.8410463066
  0
ARC
  5
B6
330
90
100
AcDbEntity
  8
FORMAT
 62
     0
100
AcDbCircle
 10
-160.7270415933
 20
-388.0294036547
 30
0.0
 40
420.0000000000015
100
AcDbArc
 50
322.1589536934
 51
322.5
  0
ARC
  5
B7
330
90
100
AcDbEntity
  8
FORMAT
 62
     0
100
AcDbCircle
 10
-160.7270415933
 20
-388.0294036547
 30
0.0
 40
420.0000000000013
100
AcDbArc
 50
337.5
 51
337.8410463066
  0
ARC
  5
B8
330
90
100
AcDbEntity
  8
FORMAT
 62
     0
100
AcDbCircle
 10
-160.7270415933
 20
-388.0294036547
 30
0.0
 40
420.0000000000013
100
AcDbArc
 50
337.1589536934
 51
337.5
  0
ARC
  5
B9
330
90
100
AcDbEntity
  8
FORMAT
 62
     0
100
AcDbCircle
 10
-160.7270415933
 20
-388.0294036547
 30
0.0
 40
420.0000000000011
100
AcDbArc
 50
352.5
 51
352.8410463066
  0
ARC
  5
BA
330
90
100
AcDbEntity
  8
FORMAT
 62
     0
100
AcDbCircle
 10
-160.7270415933
 20
-388.0294036547
 30
0.0
 40
420.0000000000011
100
AcDbArc
 50
352.1589536934
 51
352.5
  0
ARC
  5
BB
330
90
100
AcDbEntity
  8
FORMAT
 62
     0
100
AcDbCircle
 10
-160.7270415933
 20
-388.0294036547
 30
0.0
 40
420.0000000000009
100
AcDbArc
 50
7.5
 51
7.8410463066
  0
ARC
  5
BC
330
90
100
AcDbEntity
  8
FORMAT
 62
     0
100
AcDbCircle
 10
-160.7270415933
 20
-388.0294036547
 30
0.0
 40
420.0000000000009
100
AcDbArc
 50
7.1589536934
 51
7.5
  0
ARC
  5
BD
330
90
100
AcDbEntity
  8
FORMAT
 62
     0
100
AcDbCircle
 10
-160.7270415933
 20
-388.0294036547
 30
0.0
 40
420.0000000000009
100
AcDbArc
 50
22.5
 51
22.8410463066
  0
ARC
  5
BE
330
90
100
AcDbEntity
  8
FORMAT
 62
     0
100
AcDbCircle
 10
-160.7270415933
 20
-388.0294036547
 30
0.0
 40
420.0000000000009
100
AcDbArc
 50
22.1589536934
 51
22.5
  0
ARC
  5
BF
330
90
100
AcDbEntity
  8
FORMAT
 62
     0
100
AcDbCircle
 10
-160.7270415933
 20
-388.0294036547
 30
0.0
 40
420.0000000000007
100
AcDbArc
 50
37.5
 51
37.8410463066
  0
ARC
  5
C0
330
90
100
AcDbEntity
  8
FORMAT
 62
     0
100
AcDbCircle
 10
-160.7270415933
 20
-388.0294036547
 30
0.0
 40
420.0000000000007
100
AcDbArc
 50
37.1589536934
 51
37.5
  0
ARC
  5
C1
330
90
100
AcDbEntity
  8
FORMAT
 62
     0
100
AcDbCircle
 10
-160.7270415933
 20
-388.0294036547
 30
0.0
 40
420.0000000000007
100
AcDbArc
 50
52.5
 51
52.8410463066
  0
ARC
  5
C2
330
90
100
AcDbEntity
  8
FORMAT
 62
     0
100
AcDbCircle
 10
-160.7270415933
 20
-388.0294036547
 30
0.0
 40
420.0000000000007
100
AcDbArc
 50
52.1589536934
 51
52.5
  0
ARC
  5
C3
330
90
100
AcDbEntity
  8
FORMAT
 62
     0
100
AcDbCircle
 10
-160.7270415933
 20
-388.0294036547
 30
0.0
 40
420.0000000000007
100
AcDbArc
 50
68.1820926132
 51
81.8179073867
  0
ARC
  5
C4
330
90
100
AcDbEntity
  8
FORMAT
 62
     0
100
AcDbCircle
 10
-160.7270415933
 20
-388.0294036547
 30
0.0
 40
420.0000000000007
100
AcDbArc
 50
83.1820926132
 51
96.8179073867
  0
ARC
  5
C5
330
90
100
AcDbEntity
  8
FORMAT
 62
     0
100
AcDbCircle
 10
-160.7270415933
 20
-388.0294036547
 30
0.0
 40
420.0000000000009
100
AcDbArc
 50
98.1820926132
 51
111.8179073867
  0
ARC
  5
C6
330
90
100
AcDbEntity
  8
FORMAT
 62
     0
100
AcDbCircle
 10
-160.7270415933
 20
-388.0294036547
 30
0.0
 40
420.0000000000009
100
AcDbArc
 50
113.1820926132
 51
126.8179073867
  0
ARC
  5
C7
330
90
100
AcDbEntity
  8
FORMAT
 62
     0
100
AcDbCircle
 10
-160.7270415933
 20
-388.0294036547
 30
0.0
 40
420.0000000000012
100
AcDbArc
 50
128.1820926132
 51
141.8179073867
  0
ARC
  5
C8
330
90
100
AcDbEntity
  8
FORMAT
 62
     0
100
AcDbCircle
 10
-160.7270415933
 20
-388.0294036547
 30
0.0
 40
420.0000000000013
100
AcDbArc
 50
143.1820926132
 51
156.8179073867
  0
ARC
  5
C9
330
90
100
AcDbEntity
  8
FORMAT
 62
     0
100
AcDbCircle
 10
-160.7270415933
 20
-388.0294036547
 30
0.0
 40
420.0000000000014
100
AcDbArc
 50
158.1820926132
 51
171.8179073867
  0
ARC
  5
CA
330
90
100
AcDbEntity
  8
FORMAT
 62
     0
100
AcDbCircle
 10
-160.7270415933
 20
-388.0294036547
 30
0.0
 40
420.0000000000016
100
AcDbArc
 50
173.1820926132
 51
186.8179073867
  0
ARC
  5
CB
330
90
100
AcDbEntity
  8
FORMAT
 62
     0
100
AcDbCircle
 10
-160.7270415933
 20
-388.0294036547
 30
0.0
 40
420.0000000000017
100
AcDbArc
 50
188.1820926133
 51
201.8179073867
  0
ARC
  5
CC
330
90
100
AcDbEntity
  8
FORMAT
 62
     0
100
AcDbCircle
 10
-160.7270415933
 20
-388.0294036547
 30
0.0
 40
420.0000000000019
100
AcDbArc
 50
203.1820926133
 51
216.8179073867
  0
ARC
  5
CD
330
90
100
AcDbEntity
  8
FORMAT
 62
     0
100
AcDbCircle
 10
-160.7270415933
 20
-388.0294036547
 30
0.0
 40
420.0000000000019
100
AcDbArc
 50
218.1820926133
 51
231.8179073867
  0
ARC
  5
CE
330
90
100
AcDbEntity
  8
FORMAT
 62
     0
100
AcDbCircle
 10
-160.7270415933
 20
-388.0294036547
 30
0.0
 40
420.000000000002
100
AcDbArc
 50
233.1820926133
 51
246.8179073867
  0
ARC
  5
CF
330
90
100
AcDbEntity
  8
FORMAT
 62
     0
100
AcDbCircle
 10
-160.7270415933
 20
-388.0294036547
 30
0.0
 40
420.000000000002
100
AcDbArc
 50
248.1820926133
 51
261.8179073867
  0
ARC
  5
D0
330
90
100
AcDbEntity
  8
FORMAT
 62
     0
100
AcDbCircle
 10
-160.7270415933
 20
-388.0294036547
 30
0.0
 40
420.0000000000019
100
AcDbArc
 50
263.1820926133
 51
276.8179073867
  0
ARC
  5
D1
330
90
100
AcDbEntity
  8
FORMAT
 62
     0
100
AcDbCircle
 10
-160.7270415933
 20
-388.0294036547
 30
0.0
 40
420.0000000000017
100
AcDbArc
 50
278.1820926133
 51
291.8179073867
  0
ARC
  5
D2
330
90
100
AcDbEntity
  8
FORMAT
 62
     0
100
AcDbCircle
 10
-160.7270415933
 20
-388.0294036547
 30
0.0
 40
420.0000000000016
100
AcDbArc
 50
293.1820926133
 51
306.8179073867
  0
ARC
  5
D3
330
90
100
AcDbEntity
  8
FORMAT
 62
     0
100
AcDbCircle
 10
-160.7270415933
 20
-388.0294036547
 30
0.0
 40
420.0000000000016
100
AcDbArc
 50
308.1820926133
 51
321.8179073867
  0
ARC
  5
D4
330
90
100
AcDbEntity
  8
FORMAT
 62
     0
100
AcDbCircle
 10
-160.7270415933
 20
-388.0294036547
 30
0.0
 40
420.0000000000014
100
AcDbArc
 50
323.1820926133
 51
336.8179073867
  0
ARC
  5
D5
330
90
100
AcDbEntity
  8
FORMAT
 62
     0
100
AcDbCircle
 10
-160.7270415933
 20
-388.0294036547
 30
0.0
 40
420.0000000000013
100
AcDbArc
 50
338.1820926133
 51
351.8179073867
  0
ARC
  5
D6
330
90
100
AcDbEntity
  8
FORMAT
 62
     0
100
AcDbCircle
 10
-160.7270415933
 20
-388.0294036547
 30
0.0
 40
420.000000000001
100
AcDbArc
 50
353.1820926133
 51
6.8179073867
  0
ARC
  5
D7
330
90
100
AcDbEntity
  8
FORMAT
 62
     0
100
AcDbCircle
 10
-160.7270415933
 20
-388.0294036547
 30
0.0
 40
420.0000000000008
100
AcDbArc
 50
8.1820926132
 51
21.8179073867
  0
ARC
  5
D8
330
90
100
AcDbEntity
  8
FORMAT
 62
     0
100
AcDbCircle
 10
-160.7270415933
 20
-388.0294036547
 30
0.0
 40
420.0000000000008
100
AcDbArc
 50
23.1820926132
 51
36.8179073867
  0
ARC
  5
D9
330
90
100
AcDbEntity
  8
FORMAT
 62
     0
100
AcDbCircle
 10
-160.7270415933
 20
-388.0294036547
 30
0.0
 40
420.0000000000007
100
AcDbArc
 50
38.1820926132
 51
51.8179073867
  0
ARC
  5
DA
330
90
100
AcDbEntity
  8
FORMAT
 62
     0
100
AcDbCircle
 10
-160.7270415933
 20
-388.0294036547
 30
0.0
 40
420.0000000000007
100
AcDbArc
 50
53.1820926132
 51
66.8179073867
  0
LINE
  5
DB
330
90
100
AcDbEntity
  8
FORMAT
 62
     0
100
AcDbLine
 10
0.0
 20
0.0
 30
0.0
 11
0.9567085809
 21
2.3096988313
 31
0.0
  0
LINE
  5
DC
330
90
100
AcDbEntity
  8
FORMAT
 62
     0
100
AcDbLine
 10
0.0
 20
0.0
 30
0.0
 11
-0.9567085809
 21
-2.3096988313
 31
0.0
  0
LINE
  5
DD
330
90
100
AcDbEntity
  8
FORMAT
 62
     0
100
AcDbLine
 10
1.9134171618
 20
4.6193976626
 30
0.0
 11
8.0363520797
 21
19.4014701827
 31
0.0
  0
LINE
  5
DE
330
90
100
AcDbEntity
  8
FORMAT
 62
     0
100
AcDbLine
 10
-1.9134171618
 20
-4.6193976626
 30
0.0
 11
-8.0363520797
 21
-19.4014701827
 31
0.0
  0
LINE
  5
DF
330
90
100
AcDbEntity
  8
FORMAT
 62
     0
100
AcDbLine
 10
-105.9060408609
 20
28.3774381223
 30
0.0
 11
-105.5797253804
 21
30.8560502757
 31
0.0
  0
LINE
  5
E0
330
90
100
AcDbEntity
  8
FORMAT
 62
     0
100
AcDbLine
 10
-105.9060408609
 20
28.3774381223
 30
0.0
 11
-106.2323563415
 21
25.8988259688
 31
0.0
  0
LINE
  5
E1
330
90
100
AcDbEntity
  8
FORMAT
 62
     0
100
AcDbLine
 10
-105.2534098998
 20
33.3346624291
 30
0.0
 11
-103.1649908243
 21
49.1977802111
 31
0.0
  0
LINE
  5
E2
330
90
100
AcDbEntity
  8
FORMAT
 62
     0
100
AcDbLine
 10
-106.558671822
 20
23.4202138154
 30
0.0
 11
-108.6470908975
 21
7.5570960334
 31
0.0
  0
LINE
  5
E3
330
90
100
AcDbEntity
  8
FORMAT
 62
     0
100
AcDbLine
 10
-215.5480423258
 20
28.3774381223
 30
0.0
 11
-215.8743578063
 21
30.8560502757
 31
0.0
  0
LINE
  5
E4
330
90
100
AcDbEntity
  8
FORMAT
 62
     0
100
AcDbLine
 10
-215.5480423258
 20
28.3774381223
 30
0.0
 11
-215.2217268452
 21
25.8988259688
 31
0.0
  0
LINE
  5
E5
330
90
100
AcDbEntity
  8
FORMAT
 62
     0
100
AcDbLine
 10
-216.2006732869
 20
33.3346624291
 30
0.0
 11
-218.2890923624
 21
49.1977802111
 31
0.0
  0
LINE
  5
E6
330
90
100
AcDbEntity
  8
FORMAT
 62
     0
100
AcDbLine
 10
-214.8954113647
 20
23.4202138154
 30
0.0
 11
-212.8069922891
 21
7.5570960334
 31
0.0
  0
LINE
  5
E7
330
90
100
AcDbEntity
  8
FORMAT
 62
     0
100
AcDbLine
 10
-160.7270415933
 20
-388.0294036547
 30
0.0
 11
-160.7270415933
 21
-385.5294036547
 31
0.0
  0
LINE
  5
E8
330
90
100
AcDbEntity
  8
FORMAT
 62
     0
100
AcDbLine
 10
-160.7270415933
 20
-388.0294036547
 30
0.0
 11
-163.2270415933
 21
-388.0294036547
 31
0.0
  0
LINE
  5
E9
330
90
100
AcDbEntity
  8
FORMAT
 62
     0
100
AcDbLine
 10
-160.7270415933
 20
-388.0294036547
 30
0.0
 11
-160.7270415933
 21
-390.5294036547
 31
0.0
  0
LINE
  5
EA
330
90
100
AcDbEntity
  8
FORMAT
 62
     0
100
AcDbLine
 10
-160.7270415933
 20
-388.0294036547
 30
0.0
 11
-158.2270415933
 21
-388.0294036547
 31
0.0
  0
LINE
  5
EB
330
90
100
AcDbEntity
  8
FORMAT
 62
     0
100
AcDbLine
 10
-160.7270415933
 20
-383.0294036547
 30
0.0
 11
-160.7270415933
 21
74.0896547923
 31
0.0
  0
LINE
  5
EC
330
90
100
AcDbEntity
  8
FORMAT
 62
     0
100
AcDbLine
 10
-165.7270415933
 20
-388.0294036547
 30
0.0
 11
-620.8077984592
 21
-388.0294036547
 31
0.0
  0
LINE
  5
ED
330
90
100
AcDbEntity
  8
FORMAT
 62
     0
100
AcDbLine
 10
-160.7270415933
 20
-393.0294036547
 30
0.0
 11
-160.7270415933
 21
-853.3203113571
 31
0.0
  0
LINE
  5
EE
330
90
100
AcDbEntity
  8
FORMAT
 62
     0
100
AcDbLine
 10
-155.7270415933
 20
-388.0294036547
 30
0.0
 11
296.1964457699
 21
-388.0294036547
 31
0.0
  0
LINE
  5
EF
330
90
100
AcDbEntity
  8
FORMAT
 62
     0
100
AcDbLine
 10
-321.4540831867
 20
0.0
 30
0.0
 11
-322.4107917676
 21
2.3096988313
 31
0.0
  0
LINE
  5
F0
330
90
100
AcDbEntity
  8
FORMAT
 62
     0
100
AcDbLine
 10
-321.4540831867
 20
0.0
 30
0.0
 11
-320.4973746058
 21
-2.3096988313
 31
0.0
  0
LINE
  5
F1
330
90
100
AcDbEntity
  8
FORMAT
 62
     0
100
AcDbLine
 10
-323.3675003485
 20
4.6193976626
 30
0.0
 11
-329.4904352663
 21
19.4014701827
 31
0.0
  0
LINE
  5
F2
330
90
100
AcDbEntity
  8
FORMAT
 62
     0
100
AcDbLine
 10
-319.5406660249
 20
-4.6193976625
 30
0.0
 11
-313.417731107
 21
-19.4014701827
 31
0.0
  0
LINE
  5
F3
330
90
100
AcDbEntity
  8
FORMAT
 62
     0
100
AcDbLine
 10
-416.406841777
 20
-54.8210007324
 30
0.0
 11
-417.9287453495
 21
-52.8376173817
 31
0.0
  0
LINE
  5
F4
330
90
100
AcDbEntity
  8
FORMAT
 62
     0
100
AcDbLine
 10
-416.406841777
 20
-54.8210007324
 30
0.0
 11
-414.8849382045
 21
-56.8043840831
 31
0.0
  0
LINE
  5
F5
330
90
100
AcDbEntity
  8
FORMAT
 62
     0
100
AcDbLine
 10
-419.450648922
 20
-50.854234031
 30
0.0
 11
-429.1908317862
 21
-38.1605805863
 31
0.0
  0
LINE
  5
F6
330
90
100
AcDbEntity
  8
FORMAT
 62
     0
100
AcDbLine
 10
-413.363034632
 20
-58.7877674339
 30
0.0
 11
-403.6228517678
 21
-71.4814208785
 31
0.0
  0
LINE
  5
F7
330
90
100
AcDbEntity
  8
FORMAT
 62
     0
100
AcDbLine
 10
-493.9354445157
 20
-132.3496034711
 30
0.0
 11
-495.9188278664
 21
-130.8276998985
 31
0.0
  0
LINE
  5
F8
330
90
100
AcDbEntity
  8
FORMAT
 62
     0
100
AcDbLine
 10
-493.9354445157
 20
-132.3496034711
 30
0.0
 11
-491.9520611649
 21
-133.8715070436
 31
0.0
  0
LINE
  5
F9
330
90
100
AcDbEntity
  8
FORMAT
 62
     0
100
AcDbLine
 10
-497.9022112171
 20
-129.305796326
 30
0.0
 11
-510.5958646618
 21
-119.5656134619
 31
0.0
  0
LINE
  5
FA
330
90
100
AcDbEntity
  8
FORMAT
 62
     0
100
AcDbLine
 10
-489.9686778142
 20
-135.3934106161
 30
0.0
 11
-477.2750243695
 21
-145.1335934803
 31
0.0
  0
LINE
  5
FB
330
90
100
AcDbEntity
  8
FORMAT
 62
     0
100
AcDbLine
 10
-548.7564452481
 20
-227.3023620614
 30
0.0
 11
-551.0661440794
 21
-226.3456534805
 31
0.0
  0
LINE
  5
FC
330
90
100
AcDbEntity
  8
FORMAT
 62
     0
100
AcDbLine
 10
-548.7564452481
 20
-227.3023620614
 30
0.0
 11
-546.4467464168
 21
-228.2590706423
 31
0.0
  0
LINE
  5
FD
330
90
100
AcDbEntity
  8
FORMAT
 62
     0
100
AcDbLine
 10
-553.3758429106
 20
-225.3889448996
 30
0.0
 11
-568.1579154308
 21
-219.2660099817
 31
0.0
  0
LINE
  5
FE
330
90
100
AcDbEntity
  8
FORMAT
 62
     0
100
AcDbLine
 10
-544.1370475855
 20
-229.2157792232
 30
0.0
 11
-529.3549750653
 21
-235.3387141411
 31
0.0
  0
LINE
  5
FF
330
90
100
AcDbEntity
  8
FORMAT
 62
     0
100
AcDbLine
 10
-577.1338833703
 20
-333.2084029223
 30
0.0
 11
-579.6124955238
 21
-332.8820874418
 31
0.0
  0
LINE
  5
100
330
90
100
AcDbEntity
  8
FORMAT
 62
     0
100
AcDbLine
 10
-577.1338833703
 20
-333.2084029223
 30
0.0
 11
-574.6552712169
 21
-333.5347184029
 31
0.0
  0
LINE
  5
101
330
90
100
AcDbEntity
  8
FORMAT
 62
     0
100
AcDbLine
 10
-582.0911076772
 20
-332.5557719612
 30
0.0
 11
-597.9542254592
 21
-330.4673528857
 31
0.0
  0
LINE
  5
102
330
90
100
AcDbEntity
  8
FORMAT
 62
     0
100
AcDbLine
 10
-572.1766590635
 20
-333.8610338834
 30
0.0
 11
-556.3135412815
 21
-335.9494529589
 31
0.0
  0
LINE
  5
103
330
90
100
AcDbEntity
  8
FORMAT
 62
     0
100
AcDbLine
 10
-577.1338833703
 20
-442.8504043872
 30
0.0
 11
-579.6124955238
 21
-443.1767198677
 31
0.0
  0
LINE
  5
104
330
90
100
AcDbEntity
  8
FORMAT
 62
     0
100
AcDbLine
 10
-577.1338833703
 20
-442.8504043872
 30
0.0
 11
-574.6552712169
 21
-442.5240889066
 31
0.0
  0
LINE
  5
105
330
90
100
AcDbEntity
  8
FORMAT
 62
     0
100
AcDbLine
 10
-582.0911076772
 20
-443.5030353483
 30
0.0
 11
-597.9542254592
 21
-445.5914544238
 31
0.0
  0
LINE
  5
106
330
90
100
AcDbEntity
  8
FORMAT
 62
     0
100
AcDbLine
 10
-572.1766590635
 20
-442.1977734261
 30
0.0
 11
-556.3135412815
 21
-440.1093543505
 31
0.0
  0
LINE
  5
107
330
90
100
AcDbEntity
  8
FORMAT
 62
     0
100
AcDbLine
 10
-548.7564452481
 20
-548.7564452481
 30
0.0
 11
-551.0661440794
 21
-549.713153829
 31
0.0
  0
LINE
  5
108
330
90
100
AcDbEntity
  8
FORMAT
 62
     0
100
AcDbLine
 10
-548.7564452481
 20
-548.7564452481
 30
0.0
 11
-546.4467464168
 21
-547.7997366672
 31
0.0
  0
LINE
  5
109
330
90
100
AcDbEntity
  8
FORMAT
 62
     0
100
AcDbLine
 10
-553.3758429106
 20
-550.6698624099
 30
0.0
 11
-568.1579154308
 21
-556.7927973277
 31
0.0
  0
LINE
  5
10A
330
90
100
AcDbEntity
  8
FORMAT
 62
     0
100
AcDbLine
 10
-544.1370475855
 20
-546.8430280862
 30
0.0
 11
-529.3549750654
 21
-540.7200931684
 31
0.0
  0
LINE
  5
10B
330
90
100
AcDbEntity
  8
FORMAT
 62
     0
100
AcDbLine
 10
-493.9354445157
 20
-643.7092038384
 30
0.0
 11
-495.9188278664
 21
-645.2311074109
 31
0.0
  0
LINE
  5
10C
330
90
100
AcDbEntity
  8
FORMAT
 62
     0
100
AcDbLine
 10
-493.9354445157
 20
-643.7092038384
 30
0.0
 11
-491.9520611649
 21
-642.1873002659
 31
0.0
  0
LINE
  5
10D
330
90
100
AcDbEntity
  8
FORMAT
 62
     0
100
AcDbLine
 10
-497.9022112171
 20
-646.7530109834
 30
0.0
 11
-510.5958646618
 21
-656.4931938476
 31
0.0
  0
LINE
  5
10E
330
90
100
AcDbEntity
  8
FORMAT
 62
     0
100
AcDbLine
 10
-489.9686778142
 20
-640.6653966934
 30
0.0
 11
-477.2750243696
 21
-630.9252138292
 31
0.0
  0
LINE
  5
10F
330
90
100
AcDbEntity
  8
FORMAT
 62
     0
100
AcDbLine
 10
-416.406841777
 20
-721.2378065771
 30
0.0
 11
-417.9287453495
 21
-723.2211899278
 31
0.0
  0
LINE
  5
110
330
90
100
AcDbEntity
  8
FORMAT
 62
     0
100
AcDbLine
 10
-416.406841777
 20
-721.2378065771
 30
0.0
 11
-414.8849382045
 21
-719.2544232263
 31
0.0
  0
LINE
  5
111
330
90
100
AcDbEntity
  8
FORMAT
 62
     0
100
AcDbLine
 10
-419.4506489221
 20
-725.2045732785
 30
0.0
 11
-429.1908317862
 21
-737.8982267232
 31
0.0
  0
LINE
  5
112
330
90
100
AcDbEntity
  8
FORMAT
 62
     0
100
AcDbLine
 10
-413.363034632
 20
-717.2710398756
 30
0.0
 11
-403.6228517678
 21
-704.5773864309
 31
0.0
  0
LINE
  5
113
330
90
100
AcDbEntity
  8
FORMAT
 62
     0
100
AcDbLine
 10
-321.4540831867
 20
-776.0588073095
 30
0.0
 11
-322.4107917676
 21
-778.3685061408
 31
0.0
  0
LINE
  5
114
330
90
100
AcDbEntity
  8
FORMAT
 62
     0
100
AcDbLine
 10
-321.4540831867
 20
-776.0588073095
 30
0.0
 11
-320.4973746058
 21
-773.7491084782
 31
0.0
  0
LINE
  5
115
330
90
100
AcDbEntity
  8
FORMAT
 62
     0
100
AcDbLine
 10
-323.3675003485
 20
-780.678204972
 30
0.0
 11
-329.4904352664
 21
-795.4602774922
 31
0.0
  0
LINE
  5
116
330
90
100
AcDbEntity
  8
FORMAT
 62
     0
100
AcDbLine
 10
-319.5406660249
 20
-771.4394096469
 30
0.0
 11
-313.417731107
 21
-756.6573371267
 31
0.0
  0
LINE
  5
117
330
90
100
AcDbEntity
  8
FORMAT
 62
     0
100
AcDbLine
 10
-215.5480423258
 20
-804.4362454317
 30
0.0
 11
-215.8743578063
 21
-806.9148575852
 31
0.0
  0
LINE
  5
118
330
90
100
AcDbEntity
  8
FORMAT
 62
     0
100
AcDbLine
 10
-215.5480423258
 20
-804.4362454317
 30
0.0
 11
-215.2217268452
 21
-801.9576332783
 31
0.0
  0
LINE
  5
119
330
90
100
AcDbEntity
  8
FORMAT
 62
     0
100
AcDbLine
 10
-216.2006732869
 20
-809.3934697386
 30
0.0
 11
-218.2890923624
 21
-825.2565875206
 31
0.0
  0
LINE
  5
11A
330
90
100
AcDbEntity
  8
FORMAT
 62
     0
100
AcDbLine
 10
-214.8954113647
 20
-799.4790211249
 30
0.0
 11
-212.8069922892
 21
-783.6159033429
 31
0.0
  0
LINE
  5
11B
330
90
100
AcDbEntity
  8
FORMAT
 62
     0
100
AcDbLine
 10
-105.9060408609
 20
-804.4362454317
 30
0.0
 11
-105.5797253804
 21
-806.9148575852
 31
0.0
  0
LINE
  5
11C
330
90
100
AcDbEntity
  8
FORMAT
 62
     0
100
AcDbLine
 10
-105.9060408609
 20
-804.4362454317
 30
0.0
 11
-106.2323563415
 21
-801.9576332783
 31
0.0
  0
LINE
  5
11D
330
90
100
AcDbEntity
  8
FORMAT
 62
     0
100
AcDbLine
 10
-105.2534098998
 20
-809.3934697386
 30
0.0
 11
-103.1649908243
 21
-825.2565875206
 31
0.0
  0
LINE
  5
11E
330
90
100
AcDbEntity
  8
FORMAT
 62
     0
100
AcDbLine
 10
-106.558671822
 20
-799.4790211249
 30
0.0
 11
-108.6470908976
 21
-783.6159033429
 31
0.0
  0
LINE
  5
11F
330
90
100
AcDbEntity
  8
FORMAT
 62
     0
100
AcDbLine
 10
0.0
 20
-776.0588073095
 30
0.0
 11
0.9567085809
 21
-778.3685061408
 31
0.0
  0
LINE
  5
120
330
90
100
AcDbEntity
  8
FORMAT
 62
     0
100
AcDbLine
 10
0.0
 20
-776.0588073095
 30
0.0
 11
-0.9567085809
 21
-773.7491084782
 31
0.0
  0
LINE
  5
121
330
90
100
AcDbEntity
  8
FORMAT
 62
     0
100
AcDbLine
 10
1.9134171618
 20
-780.678204972
 30
0.0
 11
8.0363520797
 21
-795.4602774922
 31
0.0
  0
LINE
  5
122
330
90
100
AcDbEntity
  8
FORMAT
 62
     0
100
AcDbLine
 10
-1.9134171618
 20
-771.4394096469
 30
0.0
 11
-8.0363520797
 21
-756.6573371267
 31
0.0
  0
LINE
  5
123
330
90
100
AcDbEntity
  8
FORMAT
 62
     0
100
AcDbLine
 10
94.9527585903
 20
-721.2378065771
 30
0.0
 11
96.4746621628
 21
-723.2211899278
 31
0.0
  0
LINE
  5
124
330
90
100
AcDbEntity
  8
FORMAT
 62
     0
100
AcDbLine
 10
94.9527585903
 20
-721.2378065771
 30
0.0
 11
93.4308550178
 21
-719.2544232263
 31
0.0
  0
LINE
  5
125
330
90
100
AcDbEntity
  8
FORMAT
 62
     0
100
AcDbLine
 10
97.9965657354
 20
-725.2045732785
 30
0.0
 11
107.7367485995
 21
-737.8982267232
 31
0.0
  0
LINE
  5
126
330
90
100
AcDbEntity
  8
FORMAT
 62
     0
100
AcDbLine
 10
91.9089514453
 20
-717.2710398756
 30
0.0
 11
82.1687685811
 21
-704.5773864309
 31
0.0
  0
LINE
  5
127
330
90
100
AcDbEntity
  8
FORMAT
 62
     0
100
AcDbLine
 10
172.481361329
 20
-643.7092038384
 30
0.0
 11
174.4647446797
 21
-645.2311074109
 31
0.0
  0
LINE
  5
128
330
90
100
AcDbEntity
  8
FORMAT
 62
     0
100
AcDbLine
 10
172.481361329
 20
-643.7092038384
 30
0.0
 11
170.4979779782
 21
-642.1873002659
 31
0.0
  0
LINE
  5
129
330
90
100
AcDbEntity
  8
FORMAT
 62
     0
100
AcDbLine
 10
176.4481280304
 20
-646.7530109835
 30
0.0
 11
189.1417814751
 21
-656.4931938476
 31
0.0
  0
LINE
  5
12A
330
90
100
AcDbEntity
  8
FORMAT
 62
     0
100
AcDbLine
 10
168.5145946275
 20
-640.6653966934
 30
0.0
 11
155.8209411829
 21
-630.9252138292
 31
0.0
  0
LINE
  5
12B
330
90
100
AcDbEntity
  8
FORMAT
 62
     0
100
AcDbLine
 10
227.3023620614
 20
-548.7564452481
 30
0.0
 11
229.6120608927
 21
-549.713153829
 31
0.0
  0
LINE
  5
12C
330
90
100
AcDbEntity
  8
FORMAT
 62
     0
100
AcDbLine
 10
227.3023620614
 20
-548.7564452481
 30
0.0
 11
224.9926632301
 21
-547.7997366672
 31
0.0
  0
LINE
  5
12D
330
90
100
AcDbEntity
  8
FORMAT
 62
     0
100
AcDbLine
 10
231.9217597239
 20
-550.6698624099
 30
0.0
 11
246.7038322441
 21
-556.7927973278
 31
0.0
  0
LINE
  5
12E
330
90
100
AcDbEntity
  8
FORMAT
 62
     0
100
AcDbLine
 10
222.6829643988
 20
-546.8430280863
 30
0.0
 11
207.9008918787
 21
-540.7200931684
 31
0.0
  0
LINE
  5
12F
330
90
100
AcDbEntity
  8
FORMAT
 62
     0
100
AcDbLine
 10
255.6798001837
 20
-442.8504043872
 30
0.0
 11
258.1584123371
 21
-443.1767198677
 31
0.0
  0
LINE
  5
130
330
90
100
AcDbEntity
  8
FORMAT
 62
     0
100
AcDbLine
 10
255.6798001837
 20
-442.8504043872
 30
0.0
 11
253.2011880302
 21
-442.5240889066
 31
0.0
  0
LINE
  5
131
330
90
100
AcDbEntity
  8
FORMAT
 62
     0
100
AcDbLine
 10
260.6370244905
 20
-443.5030353483
 30
0.0
 11
276.5001422725
 21
-445.5914544238
 31
0.0
  0
LINE
  5
132
330
90
100
AcDbEntity
  8
FORMAT
 62
     0
100
AcDbLine
 10
250.7225758768
 20
-442.1977734261
 30
0.0
 11
234.8594580948
 21
-440.1093543505
 31
0.0
  0
LINE
  5
133
330
90
100
AcDbEntity
  8
FORMAT
 62
     0
100
AcDbLine
 10
255.6798001837
 20
-333.2084029223
 30
0.0
 11
258.1584123371
 21
-332.8820874418
 31
0.0
  0
LINE
  5
134
330
90
100
AcDbEntity
  8
FORMAT
 62
     0
100
AcDbLine
 10
255.6798001837
 20
-333.2084029223
 30
0.0
 11
253.2011880302
 21
-333.5347184029
 31
0.0
  0
LINE
  5
135
330
90
100
AcDbEntity
  8
FORMAT
 62
     0
100
AcDbLine
 10
260.6370244905
 20
-332.5557719612
 30
0.0
 11
276.5001422725
 21
-330.4673528857
 31
0.0
  0
LINE
  5
136
330
90
100
AcDbEntity
  8
FORMAT
 62
     0
100
AcDbLine
 10
250.7225758768
 20
-333.8610338834
 30
0.0
 11
234.8594580948
 21
-335.9494529589
 31
0.0
  0
LINE
  5
137
330
90
100
AcDbEntity
  8
FORMAT
 62
     0
100
AcDbLine
 10
227.3023620614
 20
-227.3023620614
 30
0.0
 11
229.6120608927
 21
-226.3456534805
 31
0.0
  0
LINE
  5
138
330
90
100
AcDbEntity
  8
FORMAT
 62
     0
100
AcDbLine
 10
227.3023620614
 20
-227.3023620614
 30
0.0
 11
224.9926632301
 21
-228.2590706423
 31
0.0
  0
LINE
  5
139
330
90
100
AcDbEntity
  8
FORMAT
 62
     0
100
AcDbLine
 10
231.921759724
 20
-225.3889448996
 30
0.0
 11
246.7038322441
 21
-219.2660099817
 31
0.0
  0
LINE
  5
13A
330
90
100
AcDbEntity
  8
FORMAT
 62
     0
100
AcDbLine
 10
222.6829643988
 20
-229.2157792232
 30
0.0
 11
207.9008918787
 21
-235.3387141411
 31
0.0
  0
LINE
  5
13B
330
90
100
AcDbEntity
  8
FORMAT
 62
     0
100
AcDbLine
 10
172.481361329
 20
-132.3496034711
 30
0.0
 11
174.4647446797
 21
-130.8276998986
 31
0.0
  0
LINE
  5
13C
330
90
100
AcDbEntity
  8
FORMAT
 62
     0
100
AcDbLine
 10
172.481361329
 20
-132.3496034711
 30
0.0
 11
170.4979779783
 21
-133.8715070436
 31
0.0
  0
LINE
  5
13D
330
90
100
AcDbEntity
  8
FORMAT
 62
     0
100
AcDbLine
 10
176.4481280304
 20
-129.305796326
 30
0.0
 11
189.1417814751
 21
-119.5656134619
 31
0.0
  0
LINE
  5
13E
330
90
100
AcDbEntity
  8
FORMAT
 62
     0
100
AcDbLine
 10
168.5145946275
 20
-135.3934106161
 30
0.0
 11
155.8209411829
 21
-145.1335934803
 31
0.0
  0
LINE
  5
13F
330
90
100
AcDbEntity
  8
FORMAT
 62
     0
100
AcDbLine
 10
94.9527585903
 20
-54.8210007324
 30
0.0
 11
96.4746621628
 21
-52.8376173817
 31
0.0
  0
LINE
  5
140
330
90
100
AcDbEntity
  8
FORMAT
 62
     0
100
AcDbLine
 10
94.9527585903
 20
-54.8210007324
 30
0.0
 11
93.4308550178
 21
-56.8043840832
 31
0.0
  0
LINE
  5
141
330
90
100
AcDbEntity
  8
FORMAT
 62
     0
100
AcDbLine
 10
97.9965657354
 20
-50.854234031
 30
0.0
 11
107.7367485995
 21
-38.1605805863
 31
0.0
  0
LINE
  5
142
330
90
100
AcDbEntity
  8
FORMAT
 62
     0
100
AcDbLine
 10
91.9089514453
 20
-58.7877674339
 30
0.0
 11
82.1687685811
 21
-71.4814208785
 31
0.0
  0
ENDBLK
  5
92
330
90
100
AcDbEntity
  8
0
100
AcDbBlockEnd
  0
ENDSEC
  0
SECTION
  2
ENTITIES
  0
CIRCLE
  5
46
330
1F
100
AcDbEntity
  8
0
  6
Continuous
 62
     7
370
    15
100
AcDbCircle
 10
88.9892889325
 20
1016.0808002702
 30
0.0
 40
18.50000000000003
  0
CIRCLE
  5
47
330
1F
100
AcDbEntity
  8
0
  6
Continuous
 62
     7
370
    15
100
AcDbCircle
 10
289.8480883837
 20
932.8823614156
 30
0.0
 40
18.5
  0
CIRCLE
  5
48
330
1F
100
AcDbEntity
  8
0
  6
Continuous
 62
     7
370
    15
100
AcDbCircle
 10
422.1976918548
 20
760.4010000866
 30
0.0
 40
18.49999999999989
  0
CIRCLE
  5
49
330
1F
100
AcDbEntity
  8
0
  6
Continuous
 62
     7
370
    15
100
AcDbCircle
 10
450.575129977
 20
544.8529577608
 30
0.0
 40
18.50000000000006
  0
CIRCLE
  5
4A
330
1F
100
AcDbEntity
  8
0
  6
Continuous
 62
     7
370
    15
100
AcDbCircle
 10
367.3766911224
 20
343.9941583096
 30
0.0
 40
18.49999999999994
  0
CIRCLE
  5
4B
330
1F
100
AcDbEntity
  8
0
  6
Continuous
 62
     7
370
    15
100
AcDbCircle
 10
194.8953297934
 20
211.6445548385
 30
0.0
 40
18.49999999999994
  0
CIRCLE
  5
4C
330
1F
100
AcDbEntity
  8
0
  6
Continuous
 62
     7
370
    15
100
AcDbCircle
 10
-126.5587533933
 20
211.6445548385
 30
0.0
 40
18.50000000000001
  0
CIRCLE
  5
4D
330
1F
100
AcDbEntity
  8
0
  6
Continuous
 62
     7
370
    15
100
AcDbCircle
 10
-299.0401147223
 20
343.9941583096
 30
0.0
 40
18.50000000000006
  0
CIRCLE
  5
4E
330
1F
100
AcDbEntity
  8
0
  6
Continuous
 62
     7
370
    15
100
AcDbCircle
 10
-382.238553577
 20
544.8529577608
 30
0.0
 40
18.50000000000006
  0
CIRCLE
  5
4F
330
1F
100
AcDbEntity
  8
0
  6
Continuous
 62
     7
370
    15
100
AcDbCircle
 10
-353.8611154547
 20
760.4010000866
 30
0.0
 40
18.5
  0
CIRCLE
  5
50
330
1F
100
AcDbEntity
  8
0
  6
Continuous
 62
     7
370
    15
100
AcDbCircle
 10
-221.5115119836
 20
932.8823614156
 30
0.0
 40
18.50000000000003
  0
CIRCLE
  5
51
330
1F
100
AcDbEntity
  8
0
  6
Continuous
 62
     7
370
    15
100
AcDbCircle
 10
88.9892889325
 20
183.2671167162
 30
0.0
 40
18.49999999999997
  0
CIRCLE
  5
52
330
1F
100
AcDbEntity
  8
0
  6
Continuous
 62
     7
370
    15
100
AcDbCircle
 10
34.1682882001
 20
599.6739584932
 30
0.0
 40
350.0
  0
CIRCLE
  5
53
330
1F
100
AcDbEntity
  8
0
  6
Continuous
 62
     7
370
    15
100
AcDbCircle
 10
34.1682882001
 20
599.6739584932
 30
0.0
 40
455.0000000000001
  0
CIRCLE
  5
54
330
1F
100
AcDbEntity
  8
0
  6
Continuous
 62
     7
370
    15
100
AcDbCircle
 10
-20.6527125324
 20
1016.0808002702
 30
0.0
 40
18.50000000000002
  0
CIRCLE
  5
55
330
1F
100
AcDbEntity
  8
0
  6
Continuous
 62
     7
370
    15
100
AcDbCircle
 10
-126.5587533933
 20
987.703362148
 30
0.0
 40
18.50000000000003
  0
CIRCLE
  5
56
330
1F
100
AcDbEntity
  8
0
  6
Continuous
 62
     7
370
    15
100
AcDbCircle
 10
-299.0401147223
 20
855.3537586769
 30
0.0
 40
18.49999999999994
  0
CIRCLE
  5
57
330
1F
100
AcDbEntity
  8
0
  6
Continuous
 62
     7
370
    15
100
AcDbCircle
 10
-382.238553577
 20
654.4949592257
 30
0.0
 40
18.49999999999994
  0
CIRCLE
  5
58
330
1F
100
AcDbEntity
  8
0
  6
Continuous
 62
     7
370
    15
100
AcDbCircle
 10
-353.8611154547
 20
438.9469168999
 30
0.0
 40
18.50000000000006
  0
CIRCLE
  5
59
330
1F
100
AcDbEntity
  8
0
  6
Continuous
 62
     7
370
    15
100
AcDbCircle
 10
-221.5115119836
 20
266.4655555709
 30
0.0
 40
18.49999999999994
  0
CIRCLE
  5
5A
330
1F
100
AcDbEntity
  8
0
  6
Continuous
 62
     7
370
    15
100
AcDbCircle
 10
-20.6527125324
 20
183.2671167162
 30
0.0
 40
18.49999999999996
  0
CIRCLE
  5
5B
330
1F
100
AcDbEntity
  8
0
  6
Continuous
 62
     7
370
    15
100
AcDbCircle
 10
289.8480883837
 20
266.4655555709
 30
0.0
 40
18.5
  0
CIRCLE
  5
5C
330
1F
100
AcDbEntity
  8
0
  6
Continuous
 62
     7
370
    15
100
AcDbCircle
 10
422.1976918548
 20
438.9469168999
 30
0.0
 40
18.5
  0
CIRCLE
  5
5D
330
1F
100
AcDbEntity
  8
0
  6
Continuous
 62
     7
370
    15
100
AcDbCircle
 10
450.575129977
 20
654.4949592257
 30
0.0
 40
18.50000000000006
  0
CIRCLE
  5
5E
330
1F
100
AcDbEntity
  8
0
  6
Continuous
 62
     7
370
    15
100
AcDbCircle
 10
367.3766911224
 20
855.3537586769
 30
0.0
 40
18.50000000000006
  0
CIRCLE
  5
5F
330
1F
100
AcDbEntity
  8
0
  6
Continuous
 62
     7
370
    15
100
AcDbCircle
 10
194.8953297934
 20
987.703362148
 30
0.0
 40
18.50000000000009
  0
ARC
  5
60
330
1F
100
AcDbEntity
  8
0
  6
Continuous
 62
     7
370
    15
100
AcDbCircle
 10
34.1682882001
 20
599.6739584932
 30
0.0
 40
410.9999999999999
100
AcDbArc
 50
170.2708842715
 51
174.7291157285
  0
ARC
  5
61
330
1F
100
AcDbEntity
  8
0
  6
Continuous
 62
     7
370
    15
100
AcDbCircle
 10
34.1682882001
 20
599.6739584932
 30
0.0
 40
411.0000000000001
100
AcDbArc
 50
155.2708842715
 51
159.7291157285
  0
ARC
  5
62
330
1F
100
AcDbEntity
  8
0
  6
Continuous
 62
     7
370
    15
100
AcDbCircle
 10
34.1682882001
 20
599.6739584932
 30
0.0
 40
411.0000000000001
100
AcDbArc
 50
140.2708842715
 51
144.7291157285
  0
ARC
  5
63
330
1F
100
AcDbEntity
  8
0
  6
Continuous
 62
     7
370
    15
100
AcDbCircle
 10
34.1682882001
 20
599.6739584932
 30
0.0
 40
411.0
100
AcDbArc
 50
125.2708842715
 51
129.7291157285
  0
ARC
  5
64
330
1F
100
AcDbEntity
  8
0
  6
Continuous
 62
     7
370
    15
100
AcDbCircle
 10
34.1682882001
 20
599.6739584932
 30
0.0
 40
411.0000000000001
100
AcDbArc
 50
110.2708842715
 51
114.7291157285
  0
ARC
  5
65
330
1F
100
AcDbEntity
  8
0
  6
Continuous
 62
     7
370
    15
100
AcDbCircle
 10
34.1682882001
 20
599.6739584932
 30
0.0
 40
410.9999999999999
100
AcDbArc
 50
95.2708842715
 51
99.7291157285
  0
ARC
  5
66
330
1F
100
AcDbEntity
  8
0
  6
Continuous
 62
     7
370
    15
100
AcDbCircle
 10
34.1682882001
 20
599.6739584932
 30
0.0
 40
410.9999999999999
100
AcDbArc
 50
80.2708842715
 51
84.7291157285
  0
ARC
  5
67
330
1F
100
AcDbEntity
  8
0
  6
Continuous
 62
     7
370
    15
100
AcDbCircle
 10
34.1682882001
 20
599.6739584932
 30
0.0
 40
411.0000000000001
100
AcDbArc
 50
65.2708842715
 51
69.7291157285
  0
ARC
  5
68
330
1F
100
AcDbEntity
  8
0
  6
Continuous
 62
     7
370
    15
100
AcDbCircle
 10
34.1682882001
 20
599.6739584932
 30
0.0
 40
411.0
100
AcDbArc
 50
50.2708842715
 51
54.7291157285
  0
ARC
  5
69
330
1F
100
AcDbEntity
  8
0
  6
Continuous
 62
     7
370
    15
100
AcDbCircle
 10
34.1682882001
 20
599.6739584932
 30
0.0
 40
411.0000000000001
100
AcDbArc
 50
35.2708842715
 51
39.7291157285
  0
ARC
  5
6A
330
1F
100
AcDbEntity
  8
0
  6
Continuous
 62
     7
370
    15
100
AcDbCircle
 10
34.1682882001
 20
599.6739584932
 30
0.0
 40
410.9999999999999
100
AcDbArc
 50
20.2708842715
 51
24.7291157285
  0
ARC
  5
6B
330
1F
100
AcDbEntity
  8
0
  6
Continuous
 62
     7
370
    15
100
AcDbCircle
 10
34.1682882001
 20
599.6739584932
 30
0.0
 40
410.9999999999999
100
AcDbArc
 50
5.2708842715
 51
9.7291157285
  0
ARC
  5
6C
330
1F
100
AcDbEntity
  8
0
  6
Continuous
 62
     7
370
    15
100
AcDbCircle
 10
34.1682882001
 20
599.6739584932
 30
0.0
 40
410.9999999999999
100
AcDbArc
 50
350.2708842715
 51
354.7291157285
  0
ARC
  5
6D
330
1F
100
AcDbEntity
  8
0
  6
Continuous
 62
     7
370
    15
100
AcDbCircle
 10
34.1682882001
 20
599.6739584932
 30
0.0
 40
410.9999999999999
100
AcDbArc
 50
335.2708842715
 51
339.7291157285
  0
ARC
  5
6E
330
1F
100
AcDbEntity
  8
0
  6
Continuous
 62
     7
370
    15
100
AcDbCircle
 10
34.1682882001
 20
599.6739584932
 30
0.0
 40
411.0
100
AcDbArc
 50
320.2708842715
 51
324.7291157285
  0
ARC
  5
6F
330
1F
100
AcDbEntity
  8
0
  6
Continuous
 62
     7
370
    15
100
AcDbCircle
 10
34.1682882001
 20
599.6739584932
 30
0.0
 40
410.9999999999999
100
AcDbArc
 50
305.2708842715
 51
309.7291157285
  0
ARC
  5
70
330
1F
100
AcDbEntity
  8
0
  6
Continuous
 62
     7
370
    15
100
AcDbCircle
 10
34.1682882001
 20
599.6739584932
 30
0.0
 40
410.9999999999999
100
AcDbArc
 50
290.2708842715
 51
294.7291157285
  0
ARC
  5
71
330
1F
100
AcDbEntity
  8
0
  6
Continuous
 62
     7
370
    15
100
AcDbCircle
 10
34.1682882001
 20
599.6739584932
 30
0.0
 40
410.9999999999999
100
AcDbArc
 50
275.2708842715
 51
279.7291157285
  0
ARC
  5
72
330
1F
100
AcDbEntity
  8
0
  6
Continuous
 62
     7
370
    15
100
AcDbCircle
 10
34.1682882001
 20
599.6739584932
 30
0.0
 40
411.0000000000001
100
AcDbArc
 50
260.2708842715
 51
264.7291157285
  0
ARC
  5
73
330
1F
100
AcDbEntity
  8
0
  6
Continuous
 62
     7
370
    15
100
AcDbCircle
 10
34.1682882001
 20
599.6739584932
 30
0.0
 40
410.9999999999999
100
AcDbArc
 50
245.2708842715
 51
249.7291157285
  0
ARC
  5
74
330
1F
100
AcDbEntity
  8
0
  6
Continuous
 62
     7
370
    15
100
AcDbCircle
 10
34.1682882001
 20
599.6739584932
 30
0.0
 40
411.0
100
AcDbArc
 50
230.2708842715
 51
234.7291157285
  0
ARC
  5
75
330
1F
100
AcDbEntity
  8
0
  6
Continuous
 62
     7
370
    15
100
AcDbCircle
 10
34.1682882001
 20
599.6739584932
 30
0.0
 40
411.0
100
AcDbArc
 50
215.2708842715
 51
219.7291157285
  0
ARC
  5
76
330
1F
100
AcDbEntity
  8
0
  6
Continuous
 62
     7
370
    15
100
AcDbCircle
 10
34.1682882001
 20
599.6739584932
 30
0.0
 40
411.0
100
AcDbArc
 50
200.2708842715
 51
204.7291157285
  0
ARC
  5
77
330
1F
100
AcDbEntity
  8
0
  6
Continuous
 62
     7
370
    15
100
AcDbCircle
 10
34.1682882001
 20
599.6739584932
 30
0.0
 40
411.0
100
AcDbArc
 50
185.2708842715
 51
189.7291157285
  0
ARC
  5
78
330
1F
100
AcDbEntity
  8
0
  6
Continuous
 62
     7
370
     0
100
AcDbCircle
 10
34.1682882001
 20
599.6739584932
 30
0.0
 40
408.261467228243
100
AcDbArc
 50
170.5214309952
 51
174.4785690048
  0
ARC
  5
79
330
1F
100
AcDbEntity
  8
0
  6
Continuous
 62
     7
370
     0
100
AcDbCircle
 10
34.1682882001
 20
599.6739584932
 30
0.0
 40
408.261467228243
100
AcDbArc
 50
155.5214309952
 51
159.4785690048
  0
ARC
  5
7A
330
1F
100
AcDbEntity
  8
0
  6
Continuous
 62
     7
370
     0
100
AcDbCircle
 10
34.1682882001
 20
599.6739584932
 30
0.0
 40
408.261467228243
100
AcDbArc
 50
140.5214309952
 51
144.4785690048
  0
ARC
  5
7B
330
1F
100
AcDbEntity
  8
0
  6
Continuous
 62
     7
370
     0
100
AcDbCircle
 10
34.1682882001
 20
599.6739584932
 30
0.0
 40
408.261467228243
100
AcDbArc
 50
125.5214309952
 51
129.4785690048
  0
ARC
  5
7C
330
1F
100
AcDbEntity
  8
0
  6
Continuous
 62
     7
370
     0
100
AcDbCircle
 10
34.1682882001
 20
599.6739584932
 30
0.0
 40
408.261467228243
100
AcDbArc
 50
110.5214309952
 51
114.4785690048
  0
ARC
  5
7D
330
1F
100
AcDbEntity
  8
0
  6
Continuous
 62
     7
370
     0
100
AcDbCircle
 10
34.1682882001
 20
599.6739584932
 30
0.0
 40
408.2614672282429
100
AcDbArc
 50
95.5214309952
 51
99.4785690048
  0
ARC
  5
7E
330
1F
100
AcDbEntity
  8
0
  6
Continuous
 62
     7
370
     0
100
AcDbCircle
 10
34.1682882001
 20
599.6739584932
 30
0.0
 40
408.2614672282429
100
AcDbArc
 50
80.5214309952
 51
84.4785690048
  0
ARC
  5
7F
330
1F
100
AcDbEntity
  8
0
  6
Continuous
 62
     7
370
     0
100
AcDbCircle
 10
34.1682882001
 20
599.6739584932
 30
0.0
 40
408.2614672282431
100
AcDbArc
 50
65.5214309952
 51
69.4785690048
  0
ARC
  5
80
330
1F
100
AcDbEntity
  8
0
  6
Continuous
 62
     7
370
     0
100
AcDbCircle
 10
34.1682882001
 20
599.6739584932
 30
0.0
 40
408.261467228243
100
AcDbArc
 50
50.5214309952
 51
54.4785690048
  0
ARC
  5
81
330
1F
100
AcDbEntity
  8
0
  6
Continuous
 62
     7
370
     0
100
AcDbCircle
 10
34.1682882001
 20
599.6739584932
 30
0.0
 40
408.2614672282429
100
AcDbArc
 50
35.5214309952
 51
39.4785690048
  0
ARC
  5
82
330
1F
100
AcDbEntity
  8
0
  6
Continuous
 62
     7
370
     0
100
AcDbCircle
 10
34.1682882001
 20
599.6739584932
 30
0.0
 40
408.261467228243
100
AcDbArc
 50
20.5214309952
 51
24.4785690048
  0
ARC
  5
83
330
1F
100
AcDbEntity
  8
0
  6
Continuous
 62
     7
370
     0
100
AcDbCircle
 10
34.1682882001
 20
599.6739584932
 30
0.0
 40
408.261467228243
100
AcDbArc
 50
5.5214309952
 51
9.4785690048
  0
ARC
  5
84
330
1F
100
AcDbEntity
  8
0
  6
Continuous
 62
     7
370
     0
100
AcDbCircle
 10
34.1682882001
 20
599.6739584932
 30
0.0
 40
408.2614672282429
100
AcDbArc
 50
350.5214309952
 51
354.4785690048
  0
ARC
  5
85
330
1F
100
AcDbEntity
  8
0
  6
Continuous
 62
     7
370
     0
100
AcDbCircle
 10
34.1682882001
 20
599.6739584932
 30
0.0
 40
408.2614672282429
100
AcDbArc
 50
335.5214309952
 51
339.4785690048
  0
ARC
  5
86
330
1F
100
AcDbEntity
  8
0
  6
Continuous
 62
     7
370
     0
100
AcDbCircle
 10
34.1682882001
 20
599.6739584932
 30
0.0
 40
408.261467228243
100
AcDbArc
 50
320.5214309952
 51
324.4785690048
  0
ARC
  5
87
330
1F
100
AcDbEntity
  8
0
  6
Continuous
 62
     7
370
     0
100
AcDbCircle
 10
34.1682882001
 20
599.6739584932
 30
0.0
 40
408.261467228243
100
AcDbArc
 50
305.5214309952
 51
309.4785690048
  0
ARC
  5
88
330
1F
100
AcDbEntity
  8
0
  6
Continuous
 62
     7
370
     0
100
AcDbCircle
 10
34.1682882001
 20
599.6739584932
 30
0.0
 40
408.2614672282429
100
AcDbArc
 50
290.5214309952
 51
294.4785690048
  0
ARC
  5
89
330
1F
100
AcDbEntity
  8
0
  6
Continuous
 62
     7
370
     0
100
AcDbCircle
 10
34.1682882001
 20
599.6739584932
 30
0.0
 40
408.2614672282429
100
AcDbArc
 50
275.5214309952
 51
279.4785690048
  0
ARC
  5
8A
330
1F
100
AcDbEntity
  8
0
  6
Continuous
 62
     7
370
     0
100
AcDbCircle
 10
34.1682882001
 20
599.6739584932
 30
0.0
 40
408.2614672282429
100
AcDbArc
 50
260.5214309952
 51
264.4785690048
  0
ARC
  5
8B
330
1F
100
AcDbEntity
  8
0
  6
Continuous
 62
     7
370
     0
100
AcDbCircle
 10
34.1682882001
 20
599.6739584932
 30
0.0
 40
408.2614672282429
100
AcDbArc
 50
245.5214309952
 51
249.4785690048
  0
ARC
  5
8C
330
1F
100
AcDbEntity
  8
0
  6
Continuous
 62
     7
370
     0
100
AcDbCircle
 10
34.1682882001
 20
599.6739584932
 30
0.0
 40
408.2614672282429
100
AcDbArc
 50
230.5214309952
 51
234.4785690048
  0
ARC
  5
8D
330
1F
100
AcDbEntity
  8
0
  6
Continuous
 62
     7
370
     0
100
AcDbCircle
 10
34.1682882001
 20
599.6739584932
 30
0.0
 40
408.2614672282429
100
AcDbArc
 50
215.5214309952
 51
219.4785690048
  0
ARC
  5
8E
330
1F
100
AcDbEntity
  8
0
  6
Continuous
 62
     7
370
     0
100
AcDbCircle
 10
34.1682882001
 20
599.6739584932
 30
0.0
 40
408.2614672282429
100
AcDbArc
 50
200.5214309952
 51
204.4785690048
  0
ARC
  5
8F
330
1F
100
AcDbEntity
  8
0
  6
Continuous
 62
     7
370
     0
100
AcDbCircle
 10
34.1682882001
 20
599.6739584932
 30
0.0
 40
408.261467228243
100
AcDbArc
 50
185.5214309952
 51
189.4785690048
  0
INSERT
  5
143
330
1F
100
AcDbEntity
  8
FORMAT
100
AcDbBlockReference
  2
SW_CENTERMARKSYMBOL_0
 10
194.8953297934
 20
987.703362148
 30
0.0
  0
LINE
  5
144
330
1F
100
AcDbEntity
  8
0
  6
Continuous
 62
     7
370
    15
100
AcDbLine
 10
828.1599458077
 20
1054.6739716063
 30
0.0
 11
803.1599454352
 21
1054.6739716063
 31
0.0
  0
LINE
  5
145
330
1F
100
AcDbEntity
  8
0
  6
Continuous
 62
     7
370
    15
100
AcDbLine
 10
803.1599454352
 20
144.6739453802
 30
0.0
 11
828.1599458077
 21
144.6739453802
 31
0.0
  0
LINE
  5
146
330
1F
100
AcDbEntity
  8
0
  6
Continuous
 62
     7
370
    15
100
AcDbLine
 10
698.1599505761
 20
188.6739451418
 30
0.0
 11
701.4109518149
 21
188.6739451418
 31
0.0
  0
LINE
  5
147
330
1F
100
AcDbEntity
  8
0
  6
Continuous
 62
     7
370
    15
100
AcDbLine
 10
701.4109518149
 20
1010.6739718447
 30
0.0
 11
698.1599505761
 21
1010.6739718447
 31
0.0
  0
ARC
  5
148
330
1F
100
AcDbEntity
  8
0
  6
Continuous
 62
     7
370
    15
100
AcDbCircle
 10
701.4109522856
 20
191.6739584932
 30
0.0
 40
3.0
100
AcDbArc
 50
270.0
 51
355.0
  0
ARC
  5
149
330
1F
100
AcDbEntity
  8
0
  6
Continuous
 62
     7
370
    15
100
AcDbCircle
 10
701.4109522856
 20
1007.6739584932
 30
0.0
 40
2.999999999999974
100
AcDbArc
 50
5.0
 51
90.0
  0
LINE
  5
14A
330
1F
100
AcDbEntity
  8
0
  6
Continuous
 62
     7
370
    15
100
AcDbLine
 10
695.6599529602
 20
587.6739583889
 30
0.0
 11
698.1599505761
 21
587.6739583889
 31
0.0
  0
LINE
  5
14B
330
1F
100
AcDbEntity
  8
0
  6
Continuous
 62
     7
370
    15
100
AcDbLine
 10
698.1599505761
 20
611.6739585976
 30
0.0
 11
695.6599529602
 21
611.6739585976
 31
0.0
  0
LINE
  5
14C
330
1F
100
AcDbEntity
  8
0
  6
Continuous
 62
     7
370
    15
100
AcDbLine
 10
704.3995361545
 20
191.412480546
 30
0.0
 11
704.8608835556
 21
196.6857332716
 31
0.0
  0
LINE
  5
14D
330
1F
100
AcDbEntity
  8
0
  6
Continuous
 62
     7
370
    15
100
AcDbLine
 10
704.8608835556
 20
1002.6621837149
 30
0.0
 11
704.3995361545
 21
1007.9354364405
 31
0.0
  0
LINE
  5
14E
330
1F
100
AcDbEntity
  8
0
  6
Continuous
 62
     7
370
    15
100
AcDbLine
 10
685.6929536679
 20
608.6739581058
 30
0.0
 11
685.2599408247
 21
607.9239584485
 31
0.0
  0
LINE
  5
14F
330
1F
100
AcDbEntity
  8
0
  6
Continuous
 62
     7
370
    15
100
AcDbLine
 10
685.2599408247
 20
591.4239585379
 30
0.0
 11
685.6929536679
 21
590.6739588807
 31
0.0
  0
LINE
  5
150
330
1F
100
AcDbEntity
  8
0
  6
Continuous
 62
     7
370
    15
100
AcDbLine
 10
695.2269401171
 20
590.6739588807
 30
0.0
 11
695.6599529602
 21
591.4239585379
 31
0.0
  0
LINE
  5
151
330
1F
100
AcDbEntity
  8
0
  6
Continuous
 62
     7
370
    15
100
AcDbLine
 10
695.6599529602
 20
607.9239584485
 30
0.0
 11
695.2269401171
 21
608.6739581058
 31
0.0
  0
LINE
  5
152
330
1F
100
AcDbEntity
  8
0
  6
Continuous
 62
     7
370
    15
100
AcDbLine
 10
685.2599408247
 20
605.6739585454
 30
0.0
 11
650.1599427082
 21
605.6739585454
 31
0.0
  0
LINE
  5
153
330
1F
100
AcDbEntity
  8
0
  6
Continuous
 62
     7
370
    15
100
AcDbLine
 10
650.1599427082
 20
593.6739584411
 30
0.0
 11
685.2599408247
 21
593.6739584411
 31
0.0
  0
LINE
  5
154
330
1F
100
AcDbEntity
  8
0
  6
Continuous
 62
     7
370
    15
100
AcDbLine
 10
803.1599454352
 20
605.6739585454
 30
0.0
 11
705.3807776191
 21
605.6739585454
 31
0.0
  0
LINE
  5
155
330
1F
100
AcDbEntity
  8
0
  6
Continuous
 62
     7
370
    15
100
AcDbLine
 10
705.3808446743
 20
593.6739584411
 30
0.0
 11
803.1599454352
 21
593.6739584411
 31
0.0
  0
ARC
  5
156
330
1F
100
AcDbEntity
  8
0
  6
Continuous
 62
     7
370
    15
100
AcDbCircle
 10
710.8027829825
 20
207.2333686121
 30
0.0
 40
5.000000000000036
100
AcDbArc
 50
93.0
 51
163.5220155804
  0
ARC
  5
157
330
1F
100
AcDbEntity
  8
0
  6
Continuous
 62
     7
370
    15
100
AcDbCircle
 10
710.8027829825
 20
992.1145483744
 30
0.0
 40
5.00000000000015
100
AcDbArc
 50
196.4776222802
 51
267.0
  0
LINE
  5
158
330
1F
100
AcDbEntity
  8
0
  6
Continuous
 62
     7
370
    15
100
AcDbLine
 10
710.5411018946
 20
212.2265119085
 30
0.0
 11
735.7907842615
 21
213.5497946272
 31
0.0
  0
LINE
  5
159
330
1F
100
AcDbEntity
  8
0
  6
Continuous
 62
     7
370
    15
100
AcDbLine
 10
735.7907842615
 20
985.7981223593
 30
0.0
 11
710.5411018946
 21
987.1214050779
 31
0.0
  0
ARC
  5
15A
330
1F
100
AcDbEntity
  8
0
  6
Continuous
 62
     7
370
    15
100
AcDbCircle
 10
735.6599458077
 20
216.04636991
 30
0.0
 40
2.5
100
AcDbArc
 50
273.0
 51
0.0
  0
ARC
  5
15B
330
1F
100
AcDbEntity
  8
0
  6
Continuous
 62
     7
370
    15
100
AcDbCircle
 10
735.6599458077
 20
983.3015470765
 30
0.0
 40
2.5
100
AcDbArc
 50
0.0
 51
87.0
  0
LINE
  5
15C
330
1F
100
AcDbEntity
  8
0
  6
Continuous
 62
     7
370
    15
100
AcDbLine
 10
803.1599454352
 20
966.1739487181
 30
0.0
 11
738.1599422314
 21
966.1739487181
 31
0.0
  0
LINE
  5
15D
330
1F
100
AcDbEntity
  8
0
  6
Continuous
 62
     7
370
    15
100
AcDbLine
 10
738.1599422314
 20
233.1739682684
 30
0.0
 11
803.1599454352
 21
233.1739682684
 31
0.0
  0
LINE
  5
15E
330
1F
100
AcDbEntity
  8
0
  6
Continuous
 62
     7
370
    15
100
AcDbLine
 10
695.6599529602
 20
786.1739564667
 30
0.0
 11
698.1599505761
 21
786.1739564667
 31
0.0
  0
LINE
  5
15F
330
1F
100
AcDbEntity
  8
0
  6
Continuous
 62
     7
370
    15
100
AcDbLine
 10
698.1599505761
 20
810.1739604006
 30
0.0
 11
695.6599529602
 21
810.1739604006
 31
0.0
  0
LINE
  5
160
330
1F
100
AcDbEntity
  8
0
  6
Continuous
 62
     7
370
    15
100
AcDbLine
 10
695.6599529602
 20
389.1739565859
 30
0.0
 11
698.1599505761
 21
389.1739565859
 31
0.0
  0
LINE
  5
161
330
1F
100
AcDbEntity
  8
0
  6
Continuous
 62
     7
370
    15
100
AcDbLine
 10
698.1599505761
 20
413.1739605198
 30
0.0
 11
695.6599529602
 21
413.1739605198
 31
0.0
  0
LINE
  5
162
330
1F
100
AcDbEntity
  8
0
  6
Continuous
 62
     7
370
    15
100
AcDbLine
 10
686.4968117096
 20
808.5662592182
 30
0.0
 11
685.2599408247
 21
806.4239639769
 31
0.0
  0
LINE
  5
163
330
1F
100
AcDbEntity
  8
0
  6
Continuous
 62
     7
370
    15
100
AcDbLine
 10
685.2599408247
 20
789.9239528904
 30
0.0
 11
686.4968117096
 21
787.7816576491
 31
0.0
  0
LINE
  5
164
330
1F
100
AcDbEntity
  8
0
  6
Continuous
 62
     7
370
    15
100
AcDbLine
 10
694.4230820753
 20
787.7816576491
 30
0.0
 11
695.6599529602
 21
789.9239528904
 31
0.0
  0
LINE
  5
165
330
1F
100
AcDbEntity
  8
0
  6
Continuous
 62
     7
370
    15
100
AcDbLine
 10
695.6599529602
 20
806.4239639769
 30
0.0
 11
694.4230820753
 21
808.5662592182
 31
0.0
  0
LINE
  5
166
330
1F
100
AcDbEntity
  8
0
  6
Continuous
 62
     7
370
    15
100
AcDbLine
 10
686.4968117096
 20
411.5662593374
 30
0.0
 11
685.2599408247
 21
409.4239640961
 31
0.0
  0
LINE
  5
167
330
1F
100
AcDbEntity
  8
0
  6
Continuous
 62
     7
370
    15
100
AcDbLine
 10
685.2599408247
 20
392.9239530096
 30
0.0
 11
686.4968117096
 21
390.7816577683
 31
0.0
  0
LINE
  5
168
330
1F
100
AcDbEntity
  8
0
  6
Continuous
 62
     7
370
    15
100
AcDbLine
 10
694.4230820753
 20
390.7816577683
 30
0.0
 11
695.6599529602
 21
392.9239530096
 31
0.0
  0
LINE
  5
169
330
1F
100
AcDbEntity
  8
0
  6
Continuous
 62
     7
370
    15
100
AcDbLine
 10
695.6599529602
 20
409.4239640961
 30
0.0
 11
694.4230820753
 21
411.5662593374
 31
0.0
  0
LINE
  5
16A
330
1F
100
AcDbEntity
  8
0
  6
Continuous
 62
     7
370
    15
100
AcDbLine
 10
685.2599408247
 20
804.1739631424
 30
0.0
 11
650.1599427082
 21
804.1739631424
 31
0.0
  0
LINE
  5
16B
330
1F
100
AcDbEntity
  8
0
  6
Continuous
 62
     7
370
    15
100
AcDbLine
 10
650.1599427082
 20
792.1739537249
 30
0.0
 11
685.2599408247
 21
792.1739537249
 31
0.0
  0
LINE
  5
16C
330
1F
100
AcDbEntity
  8
0
  6
Continuous
 62
     7
370
    15
100
AcDbLine
 10
803.1599454352
 20
804.1739631424
 30
0.0
 11
705.1193739989
 21
804.1739631424
 31
0.0
  0
LINE
  5
16D
330
1F
100
AcDbEntity
  8
0
  6
Continuous
 62
     7
370
    15
100
AcDbLine
 10
705.6434031346
 20
792.1739537249
 30
0.0
 11
803.1599454352
 21
792.1739537249
 31
0.0
  0
LINE
  5
16E
330
1F
100
AcDbEntity
  8
0
  6
Continuous
 62
     7
370
    15
100
AcDbLine
 10
685.2599408247
 20
407.1739632616
 30
0.0
 11
650.1599427082
 21
407.1739632616
 31
0.0
  0
LINE
  5
16F
330
1F
100
AcDbEntity
  8
0
  6
Continuous
 62
     7
370
    15
100
AcDbLine
 10
650.1599427082
 20
395.1739538441
 30
0.0
 11
685.2599408247
 21
395.1739538441
 31
0.0
  0
LINE
  5
170
330
1F
100
AcDbEntity
  8
0
  6
Continuous
 62
     7
370
    15
100
AcDbLine
 10
803.1599454352
 20
407.1739632616
 30
0.0
 11
705.6433584311
 21
407.1739632616
 31
0.0
  0
LINE
  5
171
330
1F
100
AcDbEntity
  8
0
  6
Continuous
 62
     7
370
    15
100
AcDbLine
 10
705.119567714
 20
395.1739538441
 30
0.0
 11
803.1599454352
 21
395.1739538441
 31
0.0
  0
LINE
  5
172
330
1F
100
AcDbEntity
  8
0
  6
Continuous
 62
     7
370
    15
100
AcDbLine
 10
695.6599529602
 20
931.4860422144
 30
0.0
 11
698.1599505761
 21
931.4860422144
 31
0.0
  0
LINE
  5
173
330
1F
100
AcDbEntity
  8
0
  6
Continuous
 62
     7
370
    15
100
AcDbLine
 10
698.1599505761
 20
955.4860312472
 30
0.0
 11
695.6599529602
 21
955.4860312472
 31
0.0
  0
LINE
  5
174
330
1F
100
AcDbEntity
  8
0
  6
Continuous
 62
     7
370
    15
100
AcDbLine
 10
695.6599529602
 20
243.8618857393
 30
0.0
 11
698.1599505761
 21
243.8618857393
 31
0.0
  0
LINE
  5
175
330
1F
100
AcDbEntity
  8
0
  6
Continuous
 62
     7
370
    15
100
AcDbLine
 10
698.1599505761
 20
267.8618747721
 30
0.0
 11
695.6599529602
 21
267.8618747721
 31
0.0
  0
LINE
  5
176
330
1F
100
AcDbEntity
  8
0
  6
Continuous
 62
     7
370
    15
100
AcDbLine
 10
685.6929536679
 20
952.4860400686
 30
0.0
 11
685.2599408247
 21
951.7360348234
 31
0.0
  0
LINE
  5
177
330
1F
100
AcDbEntity
  8
0
  6
Continuous
 62
     7
370
    15
100
AcDbLine
 10
685.2599408247
 20
935.2360386381
 30
0.0
 11
685.6929536679
 21
934.4860333929
 31
0.0
  0
LINE
  5
178
330
1F
100
AcDbEntity
  8
0
  6
Continuous
 62
     7
370
    15
100
AcDbLine
 10
695.2269401171
 20
934.4860333929
 30
0.0
 11
695.6599529602
 21
935.2360386381
 31
0.0
  0
LINE
  5
179
330
1F
100
AcDbEntity
  8
0
  6
Continuous
 62
     7
370
    15
100
AcDbLine
 10
695.6599529602
 20
951.7360348234
 30
0.0
 11
695.2269401171
 21
952.4860400686
 31
0.0
  0
LINE
  5
17A
330
1F
100
AcDbEntity
  8
0
  6
Continuous
 62
     7
370
    15
100
AcDbLine
 10
695.2269401171
 20
246.8618769179
 30
0.0
 11
695.6599529602
 21
247.6118821631
 31
0.0
  0
LINE
  5
17B
330
1F
100
AcDbEntity
  8
0
  6
Continuous
 62
     7
370
    15
100
AcDbLine
 10
695.6599529602
 20
264.1118783484
 30
0.0
 11
695.2269401171
 21
264.8618835936
 31
0.0
  0
LINE
  5
17C
330
1F
100
AcDbEntity
  8
0
  6
Continuous
 62
     7
370
    15
100
AcDbLine
 10
685.6929536679
 20
264.8618835936
 30
0.0
 11
685.2599408247
 21
264.1118783484
 31
0.0
  0
LINE
  5
17D
330
1F
100
AcDbEntity
  8
0
  6
Continuous
 62
     7
370
    15
100
AcDbLine
 10
685.2599408247
 20
247.6118821631
 30
0.0
 11
685.6929536679
 21
246.8618769179
 31
0.0
  0
LINE
  5
17E
330
1F
100
AcDbEntity
  8
0
  6
Continuous
 62
     7
370
    15
100
AcDbLine
 10
685.2599408247
 20
949.4860488901
 30
0.0
 11
650.1599427082
 21
949.4860488901
 31
0.0
  0
LINE
  5
17F
330
1F
100
AcDbEntity
  8
0
  6
Continuous
 62
     7
370
    15
100
AcDbLine
 10
650.1599427082
 20
937.4860543738
 30
0.0
 11
685.2599408247
 21
937.4860543738
 31
0.0
  0
LINE
  5
180
330
1F
100
AcDbEntity
  8
0
  6
Continuous
 62
     7
370
    15
100
AcDbLine
 10
803.1599454352
 20
949.4860488901
 30
0.0
 11
704.9304719784
 21
949.4860488901
 31
0.0
  0
LINE
  5
181
330
1F
100
AcDbEntity
  8
0
  6
Continuous
 62
     7
370
    15
100
AcDbLine
 10
705.8454405286
 20
937.4860543738
 30
0.0
 11
803.1599454352
 21
937.4860543738
 31
0.0
  0
LINE
  5
182
330
1F
100
AcDbEntity
  8
0
  6
Continuous
 62
     7
370
    15
100
AcDbLine
 10
685.2599408247
 20
261.8618626127
 30
0.0
 11
650.1599427082
 21
261.8618626127
 31
0.0
  0
LINE
  5
183
330
1F
100
AcDbEntity
  8
0
  6
Continuous
 62
     7
370
    15
100
AcDbLine
 10
650.1599427082
 20
249.8618680964
 30
0.0
 11
685.2599408247
 21
249.8618680964
 31
0.0
  0
LINE
  5
184
330
1F
100
AcDbEntity
  8
0
  6
Continuous
 62
     7
370
    15
100
AcDbLine
 10
803.1599454352
 20
261.8618626127
 30
0.0
 11
705.8454852321
 21
261.8618626127
 31
0.0
  0
LINE
  5
185
330
1F
100
AcDbEntity
  8
0
  6
Continuous
 62
     7
370
    15
100
AcDbLine
 10
704.930568836
 20
249.8618680964
 30
0.0
 11
803.1599454352
 21
249.8618680964
 31
0.0
  0
LINE
  5
186
330
1F
100
AcDbEntity
  8
0
  6
Continuous
 62
     7
370
    15
100
AcDbLine
 10
695.6599529602
 20
984.6739489565
 30
0.0
 11
698.1599505761
 21
984.6739489565
 31
0.0
  0
LINE
  5
187
330
1F
100
AcDbEntity
  8
0
  6
Continuous
 62
     7
370
    15
100
AcDbLine
 10
698.1599505761
 20
1008.6739677916
 30
0.0
 11
695.6599529602
 21
1008.6739677916
 31
0.0
  0
LINE
  5
188
330
1F
100
AcDbEntity
  8
0
  6
Continuous
 62
     7
370
    15
100
AcDbLine
 10
695.6599529602
 20
190.6739491949
 30
0.0
 11
698.1599505761
 21
190.6739491949
 31
0.0
  0
LINE
  5
189
330
1F
100
AcDbEntity
  8
0
  6
Continuous
 62
     7
370
    15
100
AcDbLine
 10
698.1599505761
 20
214.67396803
 30
0.0
 11
695.6599529602
 21
214.67396803
 31
0.0
  0
LINE
  5
18A
330
1F
100
AcDbEntity
  8
0
  6
Continuous
 62
     7
370
    15
100
AcDbLine
 10
686.4968117096
 20
1007.066251708
 30
0.0
 11
685.2599408247
 21
1004.9239713678
 31
0.0
  0
LINE
  5
18B
330
1F
100
AcDbEntity
  8
0
  6
Continuous
 62
     7
370
    15
100
AcDbLine
 10
685.2599408247
 20
988.4239453802
 30
0.0
 11
686.4968117096
 21
986.28166504
 31
0.0
  0
LINE
  5
18C
330
1F
100
AcDbEntity
  8
0
  6
Continuous
 62
     7
370
    15
100
AcDbLine
 10
694.4230820753
 20
986.28166504
 30
0.0
 11
695.6599529602
 21
988.4239453802
 31
0.0
  0
LINE
  5
18D
330
1F
100
AcDbEntity
  8
0
  6
Continuous
 62
     7
370
    15
100
AcDbLine
 10
695.6599529602
 20
1004.9239713678
 30
0.0
 11
694.4230820753
 21
1007.066251708
 31
0.0
  0
LINE
  5
18E
330
1F
100
AcDbEntity
  8
0
  6
Continuous
 62
     7
370
    15
100
AcDbLine
 10
686.4968117096
 20
213.0662519465
 30
0.0
 11
685.2599408247
 21
210.9239716063
 31
0.0
  0
LINE
  5
18F
330
1F
100
AcDbEntity
  8
0
  6
Continuous
 62
     7
370
    15
100
AcDbLine
 10
685.2599408247
 20
194.4239456186
 30
0.0
 11
686.4968117096
 21
192.2816652784
 31
0.0
  0
LINE
  5
190
330
1F
100
AcDbEntity
  8
0
  6
Continuous
 62
     7
370
    15
100
AcDbLine
 10
694.4230820753
 20
192.2816652784
 30
0.0
 11
695.6599529602
 21
194.4239456186
 31
0.0
  0
LINE
  5
191
330
1F
100
AcDbEntity
  8
0
  6
Continuous
 62
     7
370
    15
100
AcDbLine
 10
695.6599529602
 20
210.9239716063
 30
0.0
 11
694.4230820753
 21
213.0662519465
 31
0.0
  0
LINE
  5
192
330
1F
100
AcDbEntity
  8
0
  6
Continuous
 62
     7
370
    15
100
AcDbLine
 10
685.2599408247
 20
1002.6739556322
 30
0.0
 11
650.1599427082
 21
1002.6739556322
 31
0.0
  0
LINE
  5
193
330
1F
100
AcDbEntity
  8
0
  6
Continuous
 62
     7
370
    15
100
AcDbLine
 10
650.1599427082
 20
990.6739611158
 30
0.0
 11
685.2599408247
 21
990.6739611158
 31
0.0
  0
LINE
  5
194
330
1F
100
AcDbEntity
  8
0
  6
Continuous
 62
     7
370
    15
100
AcDbLine
 10
803.1599454352
 20
1002.6739556322
 30
0.0
 11
704.8598553755
 21
1002.6739556322
 31
0.0
  0
LINE
  5
195
330
1F
100
AcDbEntity
  8
0
  6
Continuous
 62
     7
370
    15
100
AcDbLine
 10
706.0148071267
 20
990.6739611158
 30
0.0
 11
803.1599454352
 21
990.6739611158
 31
0.0
  0
LINE
  5
196
330
1F
100
AcDbEntity
  8
0
  6
Continuous
 62
     7
370
    15
100
AcDbLine
 10
685.2599408247
 20
208.6739558706
 30
0.0
 11
650.1599427082
 21
208.6739558706
 31
0.0
  0
LINE
  5
197
330
1F
100
AcDbEntity
  8
0
  6
Continuous
 62
     7
370
    15
100
AcDbLine
 10
650.1599427082
 20
196.6739613543
 30
0.0
 11
685.2599408247
 21
196.6739613543
 31
0.0
  0
LINE
  5
198
330
1F
100
AcDbEntity
  8
0
  6
Continuous
 62
     7
370
    15
100
AcDbLine
 10
803.1599454352
 20
208.6739558706
 30
0.0
 11
706.0148071267
 21
208.6739558706
 31
0.0
  0
LINE
  5
199
330
1F
100
AcDbEntity
  8
0
  6
Continuous
 62
     7
370
    15
100
AcDbLine
 10
704.8598553755
 20
196.6739613543
 30
0.0
 11
803.1599454352
 21
196.6739613543
 31
0.0
  0
LINE
  5
19A
330
1F
100
AcDbEntity
  8
0
  6
Continuous
 62
     7
370
    15
100
AcDbLine
 10
828.1599458077
 20
599.6739584932
 30
0.0
 11
828.1599458077
 21
1054.6739716063
 31
0.0
  0
LINE
  5
19B
330
1F
100
AcDbEntity
  8
0
  6
Continuous
 62
     7
370
    15
100
AcDbLine
 10
828.1599458077
 20
144.6739453802
 30
0.0
 11
828.1599458077
 21
599.6739584932
 31
0.0
  0
LINE
  5
19C
330
1F
100
AcDbEntity
  8
0
  6
Continuous
 62
     7
370
    15
100
AcDbLine
 10
803.1599454352
 20
599.6739584932
 30
0.0
 11
803.1599454352
 21
1054.6739716063
 31
0.0
  0
LINE
  5
19D
330
1F
100
AcDbEntity
  8
0
  6
Continuous
 62
     7
370
    15
100
AcDbLine
 10
803.1599454352
 20
144.6739453802
 30
0.0
 11
803.1599454352
 21
599.6739584932
 31
0.0
  0
LINE
  5
19E
330
1F
100
AcDbEntity
  8
0
  6
Continuous
 62
     7
370
    15
100
AcDbLine
 10
698.1599505761
 20
599.6739584932
 30
0.0
 11
698.1599505761
 21
1010.6739718447
 31
0.0
  0
LINE
  5
19F
330
1F
100
AcDbEntity
  8
0
  6
Continuous
 62
     7
370
    15
100
AcDbLine
 10
698.1599505761
 20
188.6739451418
 30
0.0
 11
698.1599505761
 21
599.6739584932
 31
0.0
  0
LINE
  5
1A0
330
1F
100
AcDbEntity
  8
0
  6
Continuous
 62
     7
370
    15
100
AcDbLine
 10
695.6599529602
 20
587.6739583889
 30
0.0
 11
695.6599529602
 21
611.6739585976
 31
0.0
  0
SPLINE
  5
1A1
330
1F
100
AcDbEntity
  8
0
  6
Continuous
 62
     7
370
    15
100
AcDbSpline
210
0.0
220
0.0
230
1.0
 70
     8
 71
     3
 72
    23
 73
    19
 74
     0
 42
0.00000001
 43
0.00000001
 12
1.0
 22
0.0
 32
0.0
 13
1.0
 23
0.0
 33
0.0
 40
0.0
 40
0.0
 40
0.0
 40
0.0
 40
0.0558872763136366
 40
0.1204939899380344
 40
0.186971404420054
 40
0.2516418974412721
 40
0.318177536546595
 40
0.3830359717283478
 40
0.4497633853034361
 40
0.5148602232069145
 40
0.5818318451185873
 40
0.6471104271372796
 40
0.7142780498286778
 40
0.7796022110901543
 40
0.8468281480508237
 40
0.9120410564959306
 40
0.9791564324391989
 40
0.9999999999999999
 40
0.9999999999999999
 40
0.9999999999999999
 40
0.9999999999999999
 10
704.8608686544758
 20
1002.662183714879
 30
0.0
 10
704.8614816543405
 20
1002.655062583306
 30
0.0
 10
704.8628032932605
 20
1002.639709293386
 30
0.0
 10
704.8825441730132
 20
1002.410775138757
 30
0.0
 10
704.9155917093549
 20
1002.027633060907
 30
0.0
 10
704.9624821287999
 20
1001.484875467436
 30
0.0
 10
705.0205852973123
 20
1000.812943081843
 30
0.0
 10
705.089571150343
 20
1000.017087579684
 30
0.0
 10
705.1663260766387
 20
999.1330940390148
 30
0.0
 10
705.2501234698436
 20
998.1704065562802
 30
0.0
 10
705.3372130858896
 20
997.1722825297485
 30
0.0
 10
705.4266558190052
 20
996.1499883493115
 30
0.0
 10
705.5143086111067
 20
995.1504428069528
 30
0.0
 10
705.5992023915129
 20
994.185073738277
 30
0.0
 10
705.6773164190516
 20
993.2987505528466
 30
0.0
 10
705.747620638544
 20
992.5027653263959
 30
0.0
 10
705.793989213969
 20
991.9789875374456
 30
0.0
 10
705.8164781095563
 20
991.7250370073352
 30
0.0
 10
705.821807286964
 20
991.6648585329176
 30
0.0
  0
SPLINE
  5
1A2
330
1F
100
AcDbEntity
  8
0
  6
Continuous
 62
     7
370
    15
100
AcDbSpline
210
0.0
220
0.0
230
1.0
 70
     8
 71
     3
 72
    26
 73
    22
 74
     0
 42
0.00000001
 43
0.00000001
 12
1.0
 22
0.0
 32
0.0
 13
1.0
 23
0.0
 33
0.0
 40
0.0
 40
0.0
 40
0.0
 40
0.0
 40
0.0147559674048378
 40
0.0695048344460152
 40
0.1240616226518245
 40
0.1786180750981653
 40
0.2330561104121962
 40
0.287495284897817
 40
0.3419384169842747
 40
0.3963846884915991
 40
0.450954933831353
 40
0.5055274046802657
 40
0.5602933094576966
 40
0.6150600101290606
 40
0.6700077768838253
 40
0.7249547002042728
 40
0.779989739062556
 40
0.8350253283266378
 40
0.8900140360493642
 40
0.945001733746499
 40
1.0
 40
1.0
 40
1.0
 40
1.0
 10
704.9304719784122
 20
949.468763543141
 30
0.0
 10
704.9261801733613
 20
949.4736622719289
 30
0.0
 10
704.905964541857
 20
949.4967366881333
 30
0.0
 10
704.8826005912825
 20
949.3690057115472
 30
0.0
 10
704.8624726196965
 20
949.0788365260144
 30
0.0
 10
704.8576032925357
 20
948.6210409812159
 30
0.0
 10
704.8674409102831
 20
948.0190957378671
 30
0.0
 10
704.8914387494465
 20
947.2916121797742
 30
0.0
 10
704.9293880493375
 20
946.4552698072399
 30
0.0
 10
704.9797868682955
 20
945.5367448085121
 30
0.0
 10
705.0417539281756
 20
944.5590940881998
 30
0.0
 10
705.1132459308068
 20
943.5504802047001
 30
0.0
 10
705.1926710425334
 20
942.5393459707601
 30
0.0
 10
705.2776163960791
 20
941.5526630540234
 30
0.0
 10
705.3658690558476
 20
940.6212241134234
 30
0.0
 10
705.4548887025294
 20
939.7682956838336
 30
0.0
 10
705.5420461150644
 20
939.0233698227595
 30
0.0
 10
705.624977593569
 20
938.4021700313463
 30
0.0
 10
705.7007341970651
 20
937.9324845127486
 30
0.0
 10
705.7685202554912
 20
937.6065680951269
 30
0.0
 10
705.8040438053199
 20
937.5332613103121
 30
0.0
 10
705.821807286964
 20
937.4966043958785
 30
0.0
  0
SPLINE
  5
1A3
330
1F
100
AcDbEntity
  8
0
  6
Continuous
 62
     7
370
    15
100
AcDbSpline
210
0.0
220
0.0
230
1.0
 70
     8
 71
     3
 72
    27
 73
    23
 74
     0
 42
0.00000001
 43
0.00000001
 12
1.0
 22
0.0
 32
0.0
 13
1.0
 23
0.0
 33
0.0
 40
0.0
 40
0.0
 40
0.0
 40
0.0
 40
0.0000891169596311
 40
0.0540142709774903
 40
0.1079388283441582
 40
0.1616927324188
 40
0.2154445799928869
 40
0.2690026423099334
 40
0.3225588761643945
 40
0.3759833953302432
 40
0.4294069812939818
 40
0.4828131966003831
 40
0.5362203285846663
 40
0.5897319450837374
 40
0.6432451324993386
 40
0.6969412599067222
 40
0.7506380924985796
 40
0.8045218528636419
 40
0.8584048522207933
 40
0.912395605148399
 40
0.9663845148978545
 40
1.0
 40
1.0
 40
1.0
 40
1.0
 10
705.1193739988666
 20
804.1738141307951
 30
0.0
 10
705.1193292916813
 20
804.1738638754221
 30
0.0
 10
705.0922320248793
 20
804.2040143627919
 30
0.0
 10
705.0462353895484
 20
804.1010935868474
 30
0.0
 10
704.9823507986114
 20
803.864231782604
 30
0.0
 10
704.9313170055005
 20
803.4393622807585
 30
0.0
 10
704.8925731658697
 20
802.8743340227669
 30
0.0
 10
704.8680304250571
 20
802.171846961253
 30
0.0
 10
704.8576428873157
 20
801.3601341650509
 30
0.0
 10
704.8622456802816
 20
800.4570590767659
 30
0.0
 10
704.8810658738012
 20
799.4919444338366
 30
0.0
 10
704.9141793855888
 20
798.4893955692875
 30
0.0
 10
704.9600950476411
 20
797.4781085519637
 30
0.0
 10
705.0181423387219
 20
796.4867545271218
 30
0.0
 10
705.0863266765141
 20
795.5408936652402
 30
0.0
 10
705.1631599819214
 20
794.6704430185023
 30
0.0
 10
705.2463550763135
 20
793.8955722909091
 30
0.0
 10
705.3336786136214
 20
793.2445716915302
 30
0.0
 10
705.4227923393356
 20
792.7281269862484
 30
0.0
 10
705.510657733807
 20
792.3771314276245
 30
0.0
 10
705.5855535781957
 20
792.1884352776007
 30
0.0
 10
705.6273608740007
 20
792.1928522519435
 30
0.0
 10
705.6434031345707
 20
792.1945471296431
 30
0.0
  0
SPLINE
  5
1A4
330
1F
100
AcDbEntity
  8
0
  6
Continuous
 62
     7
370
    15
100
AcDbSpline
210
0.0
220
0.0
230
1.0
 70
     8
 71
     3
 72
    27
 73
    23
 74
     0
 42
0.00000001
 43
0.00000001
 12
1.0
 22
0.0
 32
0.0
 13
1.0
 23
0.0
 33
0.0
 40
0.0
 40
0.0
 40
0.0
 40
0.0
 40
0.0076845338896796
 40
0.0616725000453875
 40
0.115659580199155
 40
0.1696371155958075
 40
0.2236129480311291
 40
0.2774568437262623
 40
0.3313004580677189
 40
0.3849493415757082
 40
0.4385977979983214
 40
0.4920745579015445
 40
0.5455512105838612
 40
0.598950989175519
 40
0.6523513868739755
 40
0.7058007375571411
 40
0.759251065829704
 40
0.8128549213942399
 40
0.8664601170740228
 40
0.9202611393363304
 40
0.9740624561447903
 40
1.0
 40
1.0
 40
1.0
 40
1.0
 10
705.3807776191097
 20
605.6634224931122
 30
0.0
 10
705.3765702622359
 20
605.666811068441
 30
0.0
 10
705.3428039700017
 20
605.6940062002625
 30
0.0
 10
705.2795743017552
 20
605.578753136513
 30
0.0
 10
705.1941365108145
 20
605.3137522758672
 30
0.0
 10
705.1143017375084
 20
604.8674027750762
 30
0.0
 10
705.0420815446668
 20
604.2800523168793
 30
0.0
 10
704.9798580977706
 20
603.5571960030733
 30
0.0
 10
704.9289461199356
 20
602.7271534722536
 30
0.0
 10
704.8911852088861
 20
601.8087934947941
 30
0.0
 10
704.8670405934605
 20
600.8328059803347
 30
0.0
 10
704.8576669251073
 20
599.8241379717379
 30
0.0
 10
704.8626832832531
 20
598.8128407770623
 30
0.0
 10
704.8825194245912
 20
597.8270315054284
 30
0.0
 10
704.9159952639676
 20
596.8926935129248
 30
0.0
 10
704.9627909733593
 20
596.0385300823477
 30
0.0
 10
705.0211575835626
 20
595.2839760582588
 30
0.0
 10
705.0899814476446
 20
594.6561709337522
 30
0.0
 10
705.1670604765919
 20
594.163912446204
 30
0.0
 10
705.2505736352805
 20
593.8398081168657
 30
0.0
 10
705.3228495204644
 20
593.6771545722446
 30
0.0
 10
705.3666101642403
 20
593.6911240341205
 30
0.0
 10
705.3808446743351
 20
593.6956680359663
 30
0.0
  0
SPLINE
  5
1A5
330
1F
100
AcDbEntity
  8
0
  6
Continuous
 62
     7
370
    15
100
AcDbSpline
210
0.0
220
0.0
230
1.0
 70
     8
 71
     3
 72
    27
 73
    23
 74
     0
 42
0.00000001
 43
0.00000001
 12
1.0
 22
0.0
 32
0.0
 13
1.0
 23
0.0
 33
0.0
 40
0.0
 40
0.0
 40
0.0
 40
0.0
 40
0.0299802873319361
 40
0.0837860011451287
 40
0.1375927969428357
 40
0.1915513665921656
 40
0.2455107281483108
 40
0.2995068645599001
 40
0.3535007927652449
 40
0.4074008352697862
 40
0.4613004473865629
 40
0.5150172989498846
 40
0.5687335487890174
 40
0.6222613425875587
 40
0.6757888069593837
 40
0.7292000876618808
 40
0.7826124860500768
 40
0.8360287673948857
 40
0.8894481289480122
 40
0.9429891260657847
 40
0.9965323067174356
 40
1.0
 40
1.0
 40
1.0
 40
1.0
 10
705.6433584310871
 20
407.152714205754
 30
0.0
 10
705.629121937968
 20
407.1558908808826
 30
0.0
 10
705.589335166895
 20
407.1647687446273
 30
0.0
 10
705.5167701737593
 20
406.9892654901142
 30
0.0
 10
705.4292464130378
 20
406.6512433965581
 30
0.0
 10
705.3401411160281
 20
406.1456801089093
 30
0.0
 10
705.2523659611995
 20
405.5024974667525
 30
0.0
 10
705.1684837990839
 20
404.7320606212815
 30
0.0
 10
705.0906969500734
 20
403.8619238678301
 30
0.0
 10
705.0215231523318
 20
402.9132580517937
 30
0.0
 10
704.9625299546684
 20
401.9169432964942
 30
0.0
 10
704.9157690397795
 20
400.8995250930469
 30
0.0
 10
704.8819939552815
 20
399.8915665438502
 30
0.0
 10
704.8626351003924
 20
398.9216186043286
 30
0.0
 10
704.8575592496945
 20
398.0157467285104
 30
0.0
 10
704.8674549774613
 20
397.2017162838594
 30
0.0
 10
704.8914264816076
 20
396.497759943089
 30
0.0
 10
704.9294230560155
 20
395.929835679467
 30
0.0
 10
704.9796589792522
 20
395.5013944087038
 30
0.0
 10
705.0422316557323
 20
395.2548667386905
 30
0.0
 10
705.0898222996831
 20
395.1492958484006
 30
0.0
 10
705.1178621845817
 20
395.1774282890808
 30
0.0
 10
705.1195677139622
 20
395.179139448178
 30
0.0
  0
SPLINE
  5
1A6
330
1F
100
AcDbEntity
  8
0
  6
Continuous
 62
     7
370
    15
100
AcDbSpline
210
0.0
220
0.0
230
1.0
 70
     8
 71
     3
 72
    26
 73
    22
 74
     0
 42
0.00000001
 43
0.00000001
 12
1.0
 22
0.0
 32
0.0
 13
1.0
 23
0.0
 33
0.0
 40
0.0
 40
0.0
 40
0.0
 40
0.0
 40
0.0522064626230197
 40
0.106802170798225
 40
0.1613986626691751
 40
0.2162019508267917
 40
0.271005389618724
 40
0.3259808274755057
 40
0.3809554244623786
 40
0.4359925260114909
 40
0.4910284618731589
 40
0.545990427571598
 40
0.6009517851471137
 40
0.6557392083027193
 40
0.7105245354177104
 40
0.7651123513925981
 40
0.8196983037492965
 40
0.874150008956787
 40
0.9286007630196158
 40
0.983033812441816
 40
1.0
 40
1.0
 40
1.0
 40
1.0
 10
705.821807286964
 20
261.8513125906111
 30
0.0
 10
705.8050044451398
 20
261.8172833251728
 30
0.0
 10
705.7706297740312
 20
261.7476674340189
 30
0.0
 10
705.7048630432215
 20
261.4378613082676
 30
0.0
 10
705.6300684228862
 20
260.9803864958099
 30
0.0
 10
705.5479542628725
 20
260.371656767744
 30
0.0
 10
705.4612615086182
 20
259.6371146858078
 30
0.0
 10
705.3723910835837
 20
258.7920443345993
 30
0.0
 10
705.2838276207139
 20
257.863876536574
 30
0.0
 10
705.1982712914253
 20
256.8767032424555
 30
0.0
 10
705.1179790923168
 20
255.8607273019423
 30
0.0
 10
705.0454922221562
 20
254.8446760483139
 30
0.0
 10
704.9825494244682
 20
253.8579912172114
 30
0.0
 10
704.9312631256016
 20
252.9301428229595
 30
0.0
 10
704.892590249248
 20
252.0856921784892
 30
0.0
 10
704.8680158060662
 20
251.3512398812156
 30
0.0
 10
704.8576842711722
 20
250.744104547843
 30
0.0
 10
704.862095155429
 20
250.2818601699186
 30
0.0
 10
704.8816266592471
 20
249.9864121130709
 30
0.0
 10
704.9050992695898
 20
249.8540949714191
 30
0.0
 10
704.9256786717095
 20
249.8753535805954
 30
0.0
 10
704.93056883596
 20
249.8804051408888
 30
0.0
  0
SPLINE
  5
1A7
330
1F
100
AcDbEntity
  8
0
  6
Continuous
 62
     7
370
    15
100
AcDbSpline
210
0.0
220
0.0
230
1.0
 70
     8
 71
     3
 72
    23
 73
    19
 74
     0
 42
0.00000001
 43
0.00000001
 12
1.0
 22
0.0
 32
0.0
 13
1.0
 23
0.0
 33
0.0
 40
0.0
 40
0.0
 40
0.0
 40
0.0
 40
0.0648771204040637
 40
0.1316320400811704
 40
0.1966352805569525
 40
0.2635139590514866
 40
0.3286877249765461
 40
0.3957446546317758
 40
0.4610576261537631
 40
0.5282656511455094
 40
0.5935608672368654
 40
0.660760016945195
 40
0.7258934433662808
 40
0.7929284155713324
 40
0.8578259794540762
 40
0.9246177981383196
 40
0.9893107591908663
 40
1.0
 40
1.0
 40
1.0
 40
1.0
 10
705.821807286964
 20
207.6830584535719
 30
0.0
 10
705.8044246003587
 20
207.4867803366589
 30
0.0
 10
705.7691561037655
 20
207.0885430414208
 30
0.0
 10
705.7022766415023
 20
206.3320028291317
 30
0.0
 10
705.6266690715371
 20
205.474651510047
 30
0.0
 10
705.5446154182044
 20
204.5424160572473
 30
0.0
 10
705.4573858242962
 20
203.5486275070252
 30
0.0
 10
705.368830257478
 20
202.5373798019432
 30
0.0
 10
705.279996486776
 20
201.520075129599
 30
0.0
 10
705.1949413747011
 20
200.5438525978844
 30
0.0
 10
705.1146143704905
 20
199.6195574808204
 30
0.0
 10
705.0427653155358
 20
198.7909839310124
 30
0.0
 10
704.9800362048841
 20
198.0662238407508
 30
0.0
 10
704.9294806208245
 20
197.4811070276045
 30
0.0
 10
704.891003922276
 20
197.0353226259093
 30
0.0
 10
704.8681277407452
 20
196.7699478871852
 30
0.0
 10
704.8582634981448
 20
196.6554266135528
 30
0.0
 10
704.8605451192532
 20
196.6819694777665
 30
0.0
 10
704.8608686544758
 20
196.6857332716109
 30
0.0
  0
LINE
  5
1A8
330
1F
100
AcDbEntity
  8
0
  6
Continuous
 62
     7
370
    15
100
AcDbLine
 10
686.4968117096
 20
608.6739581058
 30
0.0
 11
694.4230820753
 21
608.6739581058
 31
0.0
  0
SPLINE
  5
1A9
330
1F
100
AcDbEntity
  8
0
  6
Continuous
 62
     7
370
    15
100
AcDbSpline
210
0.0
220
0.0
230
1.0
 70
     8
 71
     3
 72
    15
 73
    11
 74
     0
 42
0.00000001
 43
0.00000001
 12
1.0
 22
0.0
 32
0.0
 13
1.0
 23
0.0
 33
0.0
 40
0.0
 40
0.0
 40
0.0
 40
0.0
 40
0.1323067423269599
 40
0.2645738547552812
 40
0.3998013553938646
 40
0.5350040083858975
 40
0.6501937281112822
 40
0.7654022249182901
 40
0.882689734786698
 40
1.0
 40
1.0
 40
1.0
 40
1.0
 10
694.4230820753437
 20
608.6739581058146
 30
0.0
 10
694.5454547841526
 20
608.2851236706933
 30
0.0
 10
694.7901635474171
 20
607.5075712682057
 30
0.0
 10
695.0534370158355
 20
606.3101710040132
 30
0.0
 10
695.2117663811629
 20
605.0902341289689
 30
0.0
 10
695.2431071666243
 20
603.9144801320487
 30
0.0
 10
695.1617725920051
 20
602.8022341854162
 30
0.0
 10
694.9950948360944
 20
601.7525643080314
 30
0.0
 10
694.7506120252692
 20
600.7076349404845
 30
0.0
 10
694.5322657849824
 20
600.0185395891142
 30
0.0
 10
694.4230820753437
 20
599.6739584932435
 30
0.0
  0
LINE
  5
1AA
330
1F
100
AcDbEntity
  8
0
  6
Continuous
 62
     7
370
    15
100
AcDbLine
 10
686.4968117096
 20
599.6739584932
 30
0.0
 11
694.4230820753
 21
599.6739584932
 31
0.0
  0
SPLINE
  5
1AB
330
1F
100
AcDbEntity
  8
0
  6
Continuous
 62
     7
370
    15
100
AcDbSpline
210
0.0
220
0.0
230
1.0
 70
     8
 71
     3
 72
    15
 73
    11
 74
     0
 42
0.00000001
 43
0.00000001
 12
1.0
 22
0.0
 32
0.0
 13
1.0
 23
0.0
 33
0.0
 40
0.0
 40
0.0
 40
0.0
 40
0.0
 40
0.1323053784330808
 40
0.2645725134371564
 40
0.3998000083634594
 40
0.5350026174257343
 40
0.6501937611669381
 40
0.7654022720477991
 40
0.8826897582309492
 40
1.0
 40
1.0
 40
1.0
 40
1.0
 10
686.4968117096287
 20
599.6739584932435
 30
0.0
 10
686.3744387599182
 20
600.0627940245317
 30
0.0
 10
686.1297282329157
 20
600.8403526925542
 30
0.0
 10
685.8664571346832
 20
602.0377455278636
 30
0.0
 10
685.7081271757016
 20
603.2576815023626
 30
0.0
 10
685.6767870747022
 20
604.4334464194885
 30
0.0
 10
685.7581203087402
 20
605.5456737964362
 30
0.0
 10
685.924798965904
 20
606.5953539267192
 30
0.0
 10
686.1692817491904
 20
607.6402815694577
 30
0.0
 10
686.3876279964095
 20
608.3293769799963
 30
0.0
 10
686.4968117096287
 20
608.6739581058146
 30
0.0
  0
SPLINE
  5
1AC
330
1F
100
AcDbEntity
  8
0
  6
Continuous
 62
     7
370
    15
100
AcDbSpline
210
0.0
220
0.0
230
1.0
 70
     8
 71
     3
 72
    15
 73
    11
 74
     0
 42
0.00000001
 43
0.00000001
 12
1.0
 22
0.0
 32
0.0
 13
1.0
 23
0.0
 33
0.0
 40
0.0
 40
0.0
 40
0.0
 40
0.0
 40
0.1323053784328908
 40
0.2645725134369952
 40
0.3998000083633279
 40
0.5350026174256324
 40
0.6501937611668613
 40
0.7654022720477477
 40
0.8826897582309234
 40
1.0
 40
1.0
 40
1.0
 40
1.0
 10
694.4230820753437
 20
599.6739584932435
 30
0.0
 10
694.5454550250543
 20
599.2851229619561
 30
0.0
 10
694.7901655520569
 20
598.5075642939349
 30
0.0
 10
695.0534366502893
 20
597.3101714586259
 30
0.0
 10
695.211766609271
 20
596.090235484127
 30
0.0
 10
695.2431067102702
 20
594.9144705670011
 30
0.0
 10
695.1617734762324
 20
593.8022431900533
 30
0.0
 10
694.9950948190685
 20
592.7525630597703
 30
0.0
 10
694.7506120357821
 20
591.7076354170318
 30
0.0
 10
694.5322657885631
 20
591.0185400064934
 30
0.0
 10
694.4230820753437
 20
590.673958880675
 30
0.0
  0
LINE
  5
1AD
330
1F
100
AcDbEntity
  8
0
  6
Continuous
 62
     7
370
    15
100
AcDbLine
 10
686.4968117096
 20
590.6739588807
 30
0.0
 11
694.4230820753
 21
590.6739588807
 31
0.0
  0
SPLINE
  5
1AE
330
1F
100
AcDbEntity
  8
0
  6
Continuous
 62
     7
370
    15
100
AcDbSpline
210
0.0
220
0.0
230
1.0
 70
     8
 71
     3
 72
    15
 73
    11
 74
     0
 42
0.00000001
 43
0.00000001
 12
1.0
 22
0.0
 32
0.0
 13
1.0
 23
0.0
 33
0.0
 40
0.0
 40
0.0
 40
0.0
 40
0.0
 40
0.1323067423269889
 40
0.2645738547553391
 40
0.3998013553939521
 40
0.5350040083860146
 40
0.6501937281114245
 40
0.7654022249184577
 40
0.8826897347868912
 40
1.0
 40
1.0
 40
1.0
 40
1.0
 10
686.4968117096287
 20
590.673958880675
 30
0.0
 10
686.37443900082
 20
591.0627933157963
 30
0.0
 10
686.1297302375555
 20
591.840345718284
 30
0.0
 10
685.866456769137
 20
593.0377459824764
 30
0.0
 10
685.7081274038096
 20
594.2576828575206
 30
0.0
 10
685.6767866183483
 20
595.433436854441
 30
0.0
 10
685.7581211929673
 20
596.5456828010733
 30
0.0
 10
685.9247989488782
 20
597.5953526784581
 30
0.0
 10
686.1692817597032
 20
598.6402820460046
 30
0.0
 10
686.3876279999901
 20
599.3293773973736
 30
0.0
 10
686.4968117096287
 20
599.6739584932435
 30
0.0
  0
SPLINE
  5
1AF
330
1F
100
AcDbEntity
  8
0
  6
Continuous
 62
     7
370
    15
100
AcDbSpline
210
0.0
220
0.0
230
1.0
 70
    24
 71
     3
 72
    11
 73
     7
 74
     0
 42
0.00000001
 43
0.00000001
 12
1.0
 22
0.0
 32
0.0
 13
1.0
 23
0.0
 33
0.0
 40
0.0
 40
0.0
 40
0.0
 40
0.0
 40
0.0202051898151249
 40
0.2756730991124138
 40
0.6360693773230929
 40
1.0
 40
1.0
 40
1.0
 40
1.0
 10
685.6976624348026
 20
590.673958880675
 30
0.0
 10
685.6962912955893
 20
590.673958880675
 30
0.0
 10
685.6775839139834
 20
590.673958880675
 30
0.0
 10
685.7627230803238
 20
590.673958880675
 30
0.0
 10
686.0002858311058
 20
590.673958880675
 30
0.0
 10
686.3307655594912
 20
590.673958880675
 30
0.0
 10
686.4968117096287
 20
590.673958880675
 30
0.0
  0
SPLINE
  5
1B0
330
1F
100
AcDbEntity
  8
0
  6
Continuous
 62
     7
370
    15
100
AcDbSpline
210
0.0
220
0.0
230
1.0
 70
    24
 71
     3
 72
    11
 73
     7
 74
     0
 42
0.00000001
 43
0.00000001
 12
1.0
 22
0.0
 32
0.0
 13
1.0
 23
0.0
 33
0.0
 40
0.0
 40
0.0
 40
0.0
 40
0.0
 40
0.3606672480359183
 40
0.7243174015490932
 40
0.9733627175060876
 40
1.0
 40
1.0
 40
1.0
 40
1.0
 10
686.4968117096287
 20
608.6739581058146
 30
0.0
 10
686.3322209496812
 20
608.6739581058146
 30
0.0
 10
686.0016781787101
 20
608.6739581058146
 30
0.0
 10
685.7640335032528
 20
608.6739581058146
 30
0.0
 10
685.6794319026959
 20
608.6739581058146
 30
0.0
 10
685.6969529728984
 20
608.6739581058146
 30
0.0
 10
685.6986459114414
 20
608.6739581058146
 30
0.0
  0
LINE
  5
1B1
330
1F
100
AcDbEntity
  8
0
  6
Continuous
 62
     7
370
    15
100
AcDbLine
 10
685.2599408247
 20
591.4239585379
 30
0.0
 11
685.2599408247
 21
607.9239584485
 31
0.0
  0
SPLINE
  5
1B2
330
1F
100
AcDbEntity
  8
0
  6
Continuous
 62
     7
370
    15
100
AcDbSpline
210
0.0
220
0.0
230
1.0
 70
    24
 71
     3
 72
    11
 73
     7
 74
     0
 42
0.00000001
 43
0.00000001
 12
1.0
 22
0.0
 32
0.0
 13
1.0
 23
0.0
 33
0.0
 40
0.0
 40
0.0
 40
0.0
 40
0.0
 40
0.0202051898151249
 40
0.2756730991124138
 40
0.6360693773230929
 40
1.0
 40
1.0
 40
1.0
 40
1.0
 10
695.2222313501697
 20
608.6739581058146
 30
0.0
 10
695.2236024893833
 20
608.6739581058146
 30
0.0
 10
695.2423098709891
 20
608.6739581058146
 30
0.0
 10
695.1571707046487
 20
608.6739581058146
 30
0.0
 10
694.919607953867
 20
608.6739581058146
 30
0.0
 10
694.5891282254813
 20
608.6739581058146
 30
0.0
 10
694.4230820753437
 20
608.6739581058146
 30
0.0
  0
SPLINE
  5
1B3
330
1F
100
AcDbEntity
  8
0
  6
Continuous
 62
     7
370
    15
100
AcDbSpline
210
0.0
220
0.0
230
1.0
 70
    24
 71
     3
 72
    11
 73
     7
 74
     0
 42
0.00000001
 43
0.00000001
 12
1.0
 22
0.0
 32
0.0
 13
1.0
 23
0.0
 33
0.0
 40
0.0
 40
0.0
 40
0.0
 40
0.0
 40
0.3606672480359183
 40
0.7243174015490932
 40
0.9733627175060876
 40
1.0
 40
1.0
 40
1.0
 40
1.0
 10
694.4230820753437
 20
590.673958880675
 30
0.0
 10
694.5876728352914
 20
590.673958880675
 30
0.0
 10
694.9182156062624
 20
590.673958880675
 30
0.0
 10
695.1558602817198
 20
590.673958880675
 30
0.0
 10
695.2404618822766
 20
590.673958880675
 30
0.0
 10
695.2229408120742
 20
590.673958880675
 30
0.0
 10
695.221247873531
 20
590.673958880675
 30
0.0
  0
LINE
  5
1B4
330
1F
100
AcDbEntity
  8
0
  6
Continuous
 62
     7
370
    15
100
AcDbLine
 10
650.1599427082
 20
599.6739584932
 30
0.0
 11
650.1599427082
 21
605.6739585454
 31
0.0
  0
LINE
  5
1B5
330
1F
100
AcDbEntity
  8
0
  6
Continuous
 62
     7
370
    15
100
AcDbLine
 10
650.1599427082
 20
593.6739584411
 30
0.0
 11
650.1599427082
 21
599.6739584932
 31
0.0
  0
SPLINE
  5
1B6
330
1F
100
AcDbEntity
  8
0
  6
Continuous
 62
     7
370
    15
100
AcDbSpline
210
0.0
220
0.0
230
1.0
 70
     8
 71
     3
 72
    11
 73
     7
 74
     0
 42
0.00000001
 43
0.00000001
 12
1.0
 22
0.0
 32
0.0
 13
1.0
 23
0.0
 33
0.0
 40
0.0
 40
0.0
 40
0.0
 40
0.0
 40
0.1541716666589962
 40
0.4293167234571508
 40
0.7121016670176221
 40
0.9999999999999999
 40
0.9999999999999999
 40
0.9999999999999999
 40
0.9999999999999999
 10
706.0081612088543
 20
208.652021361363
 30
0.0
 10
706.0092966695902
 20
208.6559344467555
 30
0.0
 10
706.0124585494173
 20
208.6668310857792
 30
0.0
 10
705.9647861733033
 20
208.5032485713735
 30
0.0
 10
705.8855919976046
 20
208.1947128338311
 30
0.0
 10
705.8431954831
 20
207.8546256540635
 30
0.0
 10
705.821807286964
 20
207.6830584535719
 30
0.0
  0
LINE
  5
1B7
330
1F
100
AcDbEntity
  8
0
  6
Continuous
 62
     7
370
    15
100
AcDbLine
 10
705.8454852321
 20
261.8425805102
 30
0.0
 11
705.821807287
 21
261.8513125906
 31
0.0
  0
LINE
  5
1B8
330
1F
100
AcDbEntity
  8
0
  6
Continuous
 62
     7
370
    15
100
AcDbLine
 10
705.821807287
 20
937.4966043959
 30
0.0
 11
705.8454405286
 21
937.5049192438
 31
0.0
  0
SPLINE
  5
1B9
330
1F
100
AcDbEntity
  8
0
  6
Continuous
 62
     7
370
    15
100
AcDbSpline
210
0.0
220
0.0
230
1.0
 70
     8
 71
     3
 72
    11
 73
     7
 74
     0
 42
0.00000001
 43
0.00000001
 12
1.0
 22
0.0
 32
0.0
 13
1.0
 23
0.0
 33
0.0
 40
0.0
 40
0.0
 40
0.0
 40
0.0
 40
0.2840121618367642
 40
0.576186665628477
 40
0.8607624729239515
 40
0.9999999999999999
 40
0.9999999999999999
 40
0.9999999999999999
 40
0.9999999999999999
 10
705.821807286964
 20
991.6648585329176
 30
0.0
 10
705.8428720005654
 20
991.4954255091999
 30
0.0
 10
705.8856068152081
 20
991.1516900566336
 30
0.0
 10
705.9662708670827
 20
990.8389600882336
 30
0.0
 10
706.0137199466262
 20
990.6770325620863
 30
0.0
 10
706.0095358358268
 20
990.6912309555015
 30
0.0
 10
706.0081612088543
 20
990.6958956251265
 30
0.0
  0
LINE
  5
1BA
330
1F
100
AcDbEntity
  8
0
  6
Continuous
 62
     7
370
    15
100
AcDbLine
 10
738.1599422314
 20
605.6739585454
 30
0.0
 11
738.1599422314
 21
792.1739537249
 31
0.0
  0
LINE
  5
1BB
330
1F
100
AcDbEntity
  8
0
  6
Continuous
 62
     7
370
    15
100
AcDbLine
 10
738.1599422314
 20
804.1739631424
 30
0.0
 11
738.1599422314
 21
937.4860543738
 31
0.0
  0
LINE
  5
1BC
330
1F
100
AcDbEntity
  8
0
  6
Continuous
 62
     7
370
    15
100
AcDbLine
 10
738.1599422314
 20
949.4860488901
 30
0.0
 11
738.1599422314
 21
983.3015520105
 31
0.0
  0
LINE
  5
1BD
330
1F
100
AcDbEntity
  8
0
  6
Continuous
 62
     7
370
    15
100
AcDbLine
 10
738.1599422314
 20
216.0463649759
 30
0.0
 11
738.1599422314
 21
249.8618680964
 31
0.0
  0
LINE
  5
1BE
330
1F
100
AcDbEntity
  8
0
  6
Continuous
 62
     7
370
    15
100
AcDbLine
 10
738.1599422314
 20
261.8618626127
 30
0.0
 11
738.1599422314
 21
395.1739538441
 31
0.0
  0
LINE
  5
1BF
330
1F
100
AcDbEntity
  8
0
  6
Continuous
 62
     7
370
    15
100
AcDbLine
 10
738.1599422314
 20
407.1739632616
 30
0.0
 11
738.1599422314
 21
593.6739584411
 31
0.0
  0
LINE
  5
1C0
330
1F
100
AcDbEntity
  8
0
  6
Continuous
 62
     7
370
    15
100
AcDbLine
 10
695.6599529602
 20
786.1739564667
 30
0.0
 11
695.6599529602
 21
810.1739604006
 31
0.0
  0
LINE
  5
1C1
330
1F
100
AcDbEntity
  8
0
  6
Continuous
 62
     7
370
    15
100
AcDbLine
 10
695.6599529602
 20
389.1739565859
 30
0.0
 11
695.6599529602
 21
413.1739605198
 31
0.0
  0
SPLINE
  5
1C2
330
1F
100
AcDbEntity
  8
0
  6
Continuous
 62
     7
370
    15
100
AcDbSpline
210
0.0
220
0.0
230
1.0
 70
     8
 71
     3
 72
    16
 73
    12
 74
     0
 42
0.00000001
 43
0.00000001
 12
1.0
 22
0.0
 32
0.0
 13
1.0
 23
0.0
 33
0.0
 40
0.0
 40
0.0
 40
0.0
 40
0.0
 40
0.2500000000000069
 40
0.2500000000000069
 40
0.5000000000000138
 40
0.5000000000000138
 40
0.6250000000000103
 40
0.6250000000000103
 40
0.7500000000000069
 40
0.7500000000000069
 40
1.0
 40
1.0
 40
1.0
 40
1.0
 10
686.4968060868672
 20
787.7816536478308
 30
0.0
 10
686.2528307903367
 20
788.2042312572132
 30
0.0
 10
686.0481368348458
 20
788.6371452056183
 30
0.0
 10
685.7682830625203
 20
789.5050878762081
 30
0.0
 10
685.6928744882291
 20
789.941407944093
 30
0.0
 10
685.6930006274619
 20
790.6000104124797
 30
0.0
 10
685.7116920936554
 20
790.8202234843884
 30
0.0
 10
685.7858669507125
 20
791.2619890059736
 30
0.0
 10
685.8410431990332
 20
791.4815424952221
 30
0.0
 10
686.0523802391087
 20
792.1323440572797
 30
0.0
 10
686.2543433034782
 20
792.5578482107633
 30
0.0
 10
686.4968060868672
 20
792.9778060705373
 30
0.0
  0
SPLINE
  5
1C3
330
1F
100
AcDbEntity
  8
0
  6
Continuous
 62
     7
370
    15
100
AcDbSpline
210
0.0
220
0.0
230
1.0
 70
     8
 71
     3
 72
    16
 73
    12
 74
     0
 42
0.00000001
 43
0.00000001
 12
1.0
 22
0.0
 32
0.0
 13
1.0
 23
0.0
 33
0.0
 40
0.0
 40
0.0
 40
0.0
 40
0.0
 40
0.2499999999999922
 40
0.2499999999999922
 40
0.4999999999999845
 40
0.4999999999999845
 40
0.6249999999999873
 40
0.6249999999999873
 40
0.7499999999999902
 40
0.7499999999999902
 40
1.0
 40
1.0
 40
1.0
 40
1.0
 10
686.496806086867
 20
803.3701109159506
 30
0.0
 10
686.2518845722844
 20
803.7943274230742
 30
0.0
 10
686.0500248522479
 20
804.2216368288848
 30
0.0
 10
685.770383580651
 20
805.0851675125831
 30
0.0
 10
685.6935244459225
 20
805.5214550427447
 30
0.0
 10
685.6926802847534
 20
806.1841062780553
 30
0.0
 10
685.7114693714235
 20
806.4060293358361
 30
0.0
 10
685.7847368635043
 20
806.8450165548311
 30
0.0
 10
685.8391409151677
 20
807.0630384032793
 30
0.0
 10
686.0492199735197
 20
807.713222367499
 30
0.0
 10
686.2515792666871
 20
808.141518026727
 30
0.0
 10
686.4968060868672
 20
808.5662633386573
 30
0.0
  0
SPLINE
  5
1C4
330
1F
100
AcDbEntity
  8
0
  6
Continuous
 62
     7
370
    15
100
AcDbSpline
210
0.0
220
0.0
230
1.0
 70
     8
 71
     3
 72
    16
 73
    12
 74
     0
 42
0.00000001
 43
0.00000001
 12
1.0
 22
0.0
 32
0.0
 13
1.0
 23
0.0
 33
0.0
 40
0.0
 40
0.0
 40
0.0
 40
0.0
 40
0.2499999999999981
 40
0.2499999999999981
 40
0.4999999999999961
 40
0.4999999999999961
 40
0.6249999999999951
 40
0.6249999999999951
 40
0.7499999999999942
 40
0.7499999999999942
 40
1.0
 40
1.0
 40
1.0
 40
1.0
 10
686.496806086867
 20
792.9778060705372
 30
0.0
 10
686.2518845722844
 20
793.8262390847841
 30
0.0
 10
686.0500248522479
 20
794.6808578964055
 30
0.0
 10
685.7703835806509
 20
796.4079192638022
 30
0.0
 10
685.6935244459225
 20
797.2804943241256
 30
0.0
 10
685.6926802847534
 20
798.6057967947465
 30
0.0
 10
685.7114693714235
 20
799.0496429103083
 30
0.0
 10
685.7847368635043
 20
799.9276173482986
 30
0.0
 10
685.8391409151678
 20
800.3636610451945
 30
0.0
 10
686.0492199735197
 20
801.6640289736343
 30
0.0
 10
686.251579266687
 20
802.52062029209
 30
0.0
 10
686.4968060868672
 20
803.3701109159507
 30
0.0
  0
LINE
  5
1C5
330
1F
100
AcDbEntity
  8
0
  6
Continuous
 62
     7
370
    15
100
AcDbLine
 10
685.2599408247
 20
791.029246522
 30
0.0
 11
685.2599408247
 21
806.4239639769
 31
0.0
  0
LINE
  5
1C6
330
1F
100
AcDbEntity
  8
0
  6
Continuous
 62
     7
370
    15
100
AcDbLine
 10
685.2599408247
 20
789.9239528904
 30
0.0
 11
685.2599408247
 21
791.029246522
 31
0.0
  0
LINE
  5
1C7
330
1F
100
AcDbEntity
  8
0
  6
Continuous
 62
     7
370
    15
100
AcDbLine
 10
686.4968117096
 20
792.9778117666
 30
0.0
 11
694.4230820753
 21
792.9778117666
 31
0.0
  0
SPLINE
  5
1C8
330
1F
100
AcDbEntity
  8
0
  6
Continuous
 62
     7
370
    15
100
AcDbSpline
210
0.0
220
0.0
230
1.0
 70
     8
 71
     3
 72
    16
 73
    12
 74
     0
 42
0.00000001
 43
0.00000001
 12
1.0
 22
0.0
 32
0.0
 13
1.0
 23
0.0
 33
0.0
 40
0.0
 40
0.0
 40
0.0
 40
0.0
 40
0.2499999999999931
 40
0.2499999999999931
 40
0.4999999999999862
 40
0.4999999999999862
 40
0.6249999999999897
 40
0.6249999999999897
 40
0.7499999999999931
 40
0.7499999999999931
 40
1.0
 40
1.0
 40
1.0
 40
1.0
 10
694.4230855284961
 20
787.7816536478307
 30
0.0
 10
694.6670608250266
 20
788.2042312572132
 30
0.0
 10
694.8717547805176
 20
788.6371452056183
 30
0.0
 10
695.1516085528432
 20
789.5050878762082
 30
0.0
 10
695.2270171271342
 20
789.941407944093
 30
0.0
 10
695.2268909879016
 20
790.6000104124797
 30
0.0
 10
695.208199521708
 20
790.8202234843884
 30
0.0
 10
695.134024664651
 20
791.2619890059735
 30
0.0
 10
695.0788484163302
 20
791.481542495222
 30
0.0
 10
694.8675113762546
 20
792.1323440572796
 30
0.0
 10
694.6655483118851
 20
792.5578482107632
 30
0.0
 10
694.4230855284961
 20
792.9778060705373
 30
0.0
  0
LINE
  5
1C9
330
1F
100
AcDbEntity
  8
0
  6
Continuous
 62
     7
370
    15
100
AcDbLine
 10
686.4968117096
 20
787.7816576491
 30
0.0
 11
694.4230820753
 21
787.7816576491
 31
0.0
  0
LINE
  5
1CA
330
1F
100
AcDbEntity
  8
0
  6
Continuous
 62
     7
370
    15
100
AcDbLine
 10
686.4968117096
 20
803.3701051006
 30
0.0
 11
694.4230820753
 21
803.3701051006
 31
0.0
  0
SPLINE
  5
1CB
330
1F
100
AcDbEntity
  8
0
  6
Continuous
 62
     7
370
    15
100
AcDbSpline
210
0.0
220
0.0
230
1.0
 70
     8
 71
     3
 72
    16
 73
    12
 74
     0
 42
0.00000001
 43
0.00000001
 12
1.0
 22
0.0
 32
0.0
 13
1.0
 23
0.0
 33
0.0
 40
0.0
 40
0.0
 40
0.0
 40
0.0
 40
0.2499999999999981
 40
0.2499999999999981
 40
0.4999999999999961
 40
0.4999999999999961
 40
0.6249999999999951
 40
0.6249999999999951
 40
0.7499999999999942
 40
0.7499999999999942
 40
1.0
 40
1.0
 40
1.0
 40
1.0
 10
694.4230855284965
 20
803.3701109159507
 30
0.0
 10
694.668007043079
 20
802.5216779017038
 30
0.0
 10
694.8698667631155
 20
801.6670590900824
 30
0.0
 10
695.1495080347125
 20
799.9399977226857
 30
0.0
 10
695.2263671694409
 20
799.0674226623623
 30
0.0
 10
695.2272113306101
 20
797.7421201917414
 30
0.0
 10
695.2084222439398
 20
797.2982740761797
 30
0.0
 10
695.1351547518591
 20
796.4202996381895
 30
0.0
 10
695.0807507001957
 20
795.9842559412933
 30
0.0
 10
694.8706716418437
 20
794.6838880128537
 30
0.0
 10
694.6683123486763
 20
793.827296694398
 30
0.0
 10
694.4230855284962
 20
792.9778060705372
 30
0.0
  0
LINE
  5
1CC
330
1F
100
AcDbEntity
  8
0
  6
Continuous
 62
     7
370
    15
100
AcDbLine
 10
686.4968117096
 20
808.5662592182
 30
0.0
 11
694.4230820753
 21
808.5662592182
 31
0.0
  0
SPLINE
  5
1CD
330
1F
100
AcDbEntity
  8
0
  6
Continuous
 62
     7
370
    15
100
AcDbSpline
210
0.0
220
0.0
230
1.0
 70
     8
 71
     3
 72
    16
 73
    12
 74
     0
 42
0.00000001
 43
0.00000001
 12
1.0
 22
0.0
 32
0.0
 13
1.0
 23
0.0
 33
0.0
 40
0.0
 40
0.0
 40
0.0
 40
0.0
 40
0.250000000000001
 40
0.250000000000001
 40
0.500000000000002
 40
0.500000000000002
 40
0.6250000000000004
 40
0.6250000000000004
 40
0.749999999999999
 40
0.749999999999999
 40
1.0
 40
1.0
 40
1.0
 40
1.0
 10
694.4230855284965
 20
808.5662633386572
 30
0.0
 10
694.668007043079
 20
808.1420468315339
 30
0.0
 10
694.8698667631155
 20
807.7147374257232
 30
0.0
 10
695.1495080347125
 20
806.8512067420247
 30
0.0
 10
695.2263671694409
 20
806.414919211863
 30
0.0
 10
695.2272113306101
 20
805.7522679765526
 30
0.0
 10
695.2084222439399
 20
805.5303449187718
 30
0.0
 10
695.1351547518591
 20
805.0913576997767
 30
0.0
 10
695.0807507001957
 20
804.8733358513286
 30
0.0
 10
694.8706716418437
 20
804.2231518871088
 30
0.0
 10
694.6683123486763
 20
803.7948562278809
 30
0.0
 10
694.4230855284962
 20
803.3701109159506
 30
0.0
  0
LINE
  5
1CE
330
1F
100
AcDbEntity
  8
0
  6
Continuous
 62
     7
370
    15
100
AcDbLine
 10
686.4968117096
 20
406.3701052199
 30
0.0
 11
694.4230820753
 21
406.3701052199
 31
0.0
  0
SPLINE
  5
1CF
330
1F
100
AcDbEntity
  8
0
  6
Continuous
 62
     7
370
    15
100
AcDbSpline
210
0.0
220
0.0
230
1.0
 70
     8
 71
     3
 72
    16
 73
    12
 74
     0
 42
0.00000001
 43
0.00000001
 12
1.0
 22
0.0
 32
0.0
 13
1.0
 23
0.0
 33
0.0
 40
0.0
 40
0.0
 40
0.0
 40
0.0
 40
0.2500000000000019
 40
0.2500000000000019
 40
0.5000000000000039
 40
0.5000000000000039
 40
0.6250000000000049
 40
0.6250000000000049
 40
0.7500000000000058
 40
0.7500000000000058
 40
1.0
 40
1.0
 40
1.0
 40
1.0
 10
694.4230855284965
 20
406.3701109159498
 30
0.0
 10
694.668007043079
 20
405.5216779017029
 30
0.0
 10
694.8698667631155
 20
404.6670590900815
 30
0.0
 10
695.1495080347125
 20
402.9399977226847
 30
0.0
 10
695.2263671694409
 20
402.0674226623614
 30
0.0
 10
695.2272113306101
 20
400.7421201917405
 30
0.0
 10
695.2084222439399
 20
400.2982740761788
 30
0.0
 10
695.1351547518592
 20
399.4202996381886
 30
0.0
 10
695.0807507001957
 20
398.9842559412925
 30
0.0
 10
694.8706716418437
 20
397.6838880128529
 30
0.0
 10
694.6683123486764
 20
396.8272966943971
 30
0.0
 10
694.4230855284964
 20
395.9778060705365
 30
0.0
  0
LINE
  5
1D0
330
1F
100
AcDbEntity
  8
0
  6
Continuous
 62
     7
370
    15
100
AcDbLine
 10
686.4968117096
 20
395.9778118858
 30
0.0
 11
694.4230820753
 21
395.9778118858
 31
0.0
  0
SPLINE
  5
1D1
330
1F
100
AcDbEntity
  8
0
  6
Continuous
 62
     7
370
    15
100
AcDbSpline
210
0.0
220
0.0
230
1.0
 70
     8
 71
     3
 72
    16
 73
    12
 74
     0
 42
0.00000001
 43
0.00000001
 12
1.0
 22
0.0
 32
0.0
 13
1.0
 23
0.0
 33
0.0
 40
0.0
 40
0.0
 40
0.0
 40
0.0
 40
0.2500000000000019
 40
0.2500000000000019
 40
0.5000000000000039
 40
0.5000000000000039
 40
0.6250000000000049
 40
0.6250000000000049
 40
0.7500000000000058
 40
0.7500000000000058
 40
1.0
 40
1.0
 40
1.0
 40
1.0
 10
686.496806086867
 20
395.9778060705364
 30
0.0
 10
686.2518845722844
 20
396.8262390847832
 30
0.0
 10
686.0500248522479
 20
397.6808578964047
 30
0.0
 10
685.770383580651
 20
399.4079192638015
 30
0.0
 10
685.6935244459225
 20
400.2804943241247
 30
0.0
 10
685.6926802847534
 20
401.6057967947456
 30
0.0
 10
685.7114693714236
 20
402.0496429103074
 30
0.0
 10
685.7847368635043
 20
402.9276173482975
 30
0.0
 10
685.8391409151676
 20
403.3636610451936
 30
0.0
 10
686.0492199735197
 20
404.6640289736334
 30
0.0
 10
686.2515792666873
 20
405.5206202920892
 30
0.0
 10
686.4968060868672
 20
406.3701109159498
 30
0.0
  0
SPLINE
  5
1D2
330
1F
100
AcDbEntity
  8
0
  6
Continuous
 62
     7
370
    15
100
AcDbSpline
210
0.0
220
0.0
230
1.0
 70
     8
 71
     3
 72
    16
 73
    12
 74
     0
 42
0.00000001
 43
0.00000001
 12
1.0
 22
0.0
 32
0.0
 13
1.0
 23
0.0
 33
0.0
 40
0.0
 40
0.0
 40
0.0
 40
0.0
 40
0.2499999999999911
 40
0.2499999999999911
 40
0.4999999999999822
 40
0.4999999999999822
 40
0.6249999999999867
 40
0.6249999999999867
 40
0.7499999999999911
 40
0.7499999999999911
 40
1.0
 40
1.0
 40
1.0
 40
1.0
 10
686.4968060868672
 20
411.5662633386564
 30
0.0
 10
686.2528307903368
 20
411.143685729274
 30
0.0
 10
686.0481368348459
 20
410.710771780869
 30
0.0
 10
685.7682830625204
 20
409.8428291102789
 30
0.0
 10
685.6928744882292
 20
409.406509042394
 30
0.0
 10
685.693000627462
 20
408.7479065740075
 30
0.0
 10
685.7116920936554
 20
408.5276935020987
 30
0.0
 10
685.7858669507126
 20
408.0859279805135
 30
0.0
 10
685.8410431990333
 20
407.8663744912649
 30
0.0
 10
686.0523802391089
 20
407.2155729292074
 30
0.0
 10
686.2543433034784
 20
406.7900687757239
 30
0.0
 10
686.4968060868672
 20
406.3701109159497
 30
0.0
  0
SPLINE
  5
1D3
330
1F
100
AcDbEntity
  8
0
  6
Continuous
 62
     7
370
    15
100
AcDbSpline
210
0.0
220
0.0
230
1.0
 70
     8
 71
     3
 72
    16
 73
    12
 74
     0
 42
0.00000001
 43
0.00000001
 12
1.0
 22
0.0
 32
0.0
 13
1.0
 23
0.0
 33
0.0
 40
0.0
 40
0.0
 40
0.0
 40
0.0
 40
0.2500000000000058
 40
0.2500000000000058
 40
0.5000000000000117
 40
0.5000000000000117
 40
0.6250000000000078
 40
0.6250000000000078
 40
0.7500000000000039
 40
0.7500000000000039
 40
1.0
 40
1.0
 40
1.0
 40
1.0
 10
686.4968060868669
 20
390.7816536478298
 30
0.0
 10
686.2518845722844
 20
391.2058701549533
 30
0.0
 10
686.0500248522479
 20
391.6331795607639
 30
0.0
 10
685.7703835806509
 20
392.4967102444624
 30
0.0
 10
685.6935244459225
 20
392.932997774624
 30
0.0
 10
685.6926802847534
 20
393.5956490099344
 30
0.0
 10
685.7114693714235
 20
393.8175720677153
 30
0.0
 10
685.7847368635043
 20
394.2565592867105
 30
0.0
 10
685.8391409151677
 20
394.4745811351585
 30
0.0
 10
686.0492199735197
 20
395.1247650993784
 30
0.0
 10
686.2515792666871
 20
395.5530607586062
 30
0.0
 10
686.4968060868672
 20
395.9778060705365
 30
0.0
  0
LINE
  5
1D4
330
1F
100
AcDbEntity
  8
0
  6
Continuous
 62
     7
370
    15
100
AcDbLine
 10
685.2599408247
 20
392.9239530096
 30
0.0
 11
685.2599408247
 21
409.4239640961
 31
0.0
  0
LINE
  5
1D5
330
1F
100
AcDbEntity
  8
0
  6
Continuous
 62
     7
370
    15
100
AcDbLine
 10
686.4968117096
 20
411.5662593374
 30
0.0
 11
694.4230820753
 21
411.5662593374
 31
0.0
  0
SPLINE
  5
1D6
330
1F
100
AcDbEntity
  8
0
  6
Continuous
 62
     7
370
    15
100
AcDbSpline
210
0.0
220
0.0
230
1.0
 70
     8
 71
     3
 72
    16
 73
    12
 74
     0
 42
0.00000001
 43
0.00000001
 12
1.0
 22
0.0
 32
0.0
 13
1.0
 23
0.0
 33
0.0
 40
0.0
 40
0.0
 40
0.0
 40
0.0
 40
0.2500000000000049
 40
0.2500000000000049
 40
0.5000000000000098
 40
0.5000000000000098
 40
0.6250000000000073
 40
0.6250000000000073
 40
0.7500000000000049
 40
0.7500000000000049
 40
1.0
 40
1.0
 40
1.0
 40
1.0
 10
694.4230855284962
 20
411.5662633386563
 30
0.0
 10
694.6670608250267
 20
411.1436857292739
 30
0.0
 10
694.8717547805177
 20
410.7107717808689
 30
0.0
 10
695.1516085528432
 20
409.842829110279
 30
0.0
 10
695.2270171271342
 20
409.406509042394
 30
0.0
 10
695.2268909879016
 20
408.7479065740073
 30
0.0
 10
695.208199521708
 20
408.5276935020986
 30
0.0
 10
695.134024664651
 20
408.0859279805134
 30
0.0
 10
695.0788484163302
 20
407.8663744912649
 30
0.0
 10
694.8675113762546
 20
407.2155729292074
 30
0.0
 10
694.6655483118851
 20
406.7900687757239
 30
0.0
 10
694.4230855284961
 20
406.3701109159497
 30
0.0
  0
SPLINE
  5
1D7
330
1F
100
AcDbEntity
  8
0
  6
Continuous
 62
     7
370
    15
100
AcDbSpline
210
0.0
220
0.0
230
1.0
 70
     8
 71
     3
 72
    16
 73
    12
 74
     0
 42
0.00000001
 43
0.00000001
 12
1.0
 22
0.0
 32
0.0
 13
1.0
 23
0.0
 33
0.0
 40
0.0
 40
0.0
 40
0.0
 40
0.0
 40
0.2500000000000058
 40
0.2500000000000058
 40
0.5000000000000117
 40
0.5000000000000117
 40
0.6250000000000078
 40
0.6250000000000078
 40
0.7500000000000039
 40
0.7500000000000039
 40
1.0
 40
1.0
 40
1.0
 40
1.0
 10
694.4230855284965
 20
395.9778060705365
 30
0.0
 10
694.6680070430789
 20
395.5535895634131
 30
0.0
 10
694.8698667631154
 20
395.1262801576023
 30
0.0
 10
695.1495080347125
 20
394.262749473904
 30
0.0
 10
695.2263671694408
 20
393.8264619437424
 30
0.0
 10
695.2272113306101
 20
393.1638107084319
 30
0.0
 10
695.2084222439398
 20
392.941887650651
 30
0.0
 10
695.1351547518592
 20
392.5029004316559
 30
0.0
 10
695.0807507001957
 20
392.2848785832078
 30
0.0
 10
694.8706716418436
 20
391.634694618988
 30
0.0
 10
694.6683123486763
 20
391.2063989597602
 30
0.0
 10
694.4230855284962
 20
390.7816536478298
 30
0.0
  0
LINE
  5
1D8
330
1F
100
AcDbEntity
  8
0
  6
Continuous
 62
     7
370
    15
100
AcDbLine
 10
686.4968117096
 20
390.7816577683
 30
0.0
 11
694.4230820753
 21
390.7816577683
 31
0.0
  0
LINE
  5
1D9
330
1F
100
AcDbEntity
  8
0
  6
Continuous
 62
     7
370
    15
100
AcDbLine
 10
650.1599427082
 20
801.1739570627
 30
0.0
 11
650.1599427082
 21
804.1739631424
 31
0.0
  0
LINE
  5
1DA
330
1F
100
AcDbEntity
  8
0
  6
Continuous
 62
     7
370
    15
100
AcDbLine
 10
650.1599427082
 20
792.1739537249
 30
0.0
 11
650.1599427082
 21
801.1739570627
 31
0.0
  0
LINE
  5
1DB
330
1F
100
AcDbEntity
  8
0
  6
Continuous
 62
     7
370
    15
100
AcDbLine
 10
650.1599427082
 20
398.1739599238
 30
0.0
 11
650.1599427082
 21
407.1739632616
 31
0.0
  0
LINE
  5
1DC
330
1F
100
AcDbEntity
  8
0
  6
Continuous
 62
     7
370
    15
100
AcDbLine
 10
650.1599427082
 20
395.1739538441
 30
0.0
 11
650.1599427082
 21
398.1739599238
 31
0.0
  0
LINE
  5
1DD
330
1F
100
AcDbEntity
  8
0
  6
Continuous
 62
     7
370
    15
100
AcDbLine
 10
695.6599529602
 20
931.4860422144
 30
0.0
 11
695.6599529602
 21
955.4860312472
 31
0.0
  0
LINE
  5
1DE
330
1F
100
AcDbEntity
  8
0
  6
Continuous
 62
     7
370
    15
100
AcDbLine
 10
695.6599529602
 20
243.8618857393
 30
0.0
 11
695.6599529602
 21
267.8618747721
 31
0.0
  0
LINE
  5
1DF
330
1F
100
AcDbEntity
  8
0
  6
Continuous
 62
     7
370
    15
100
AcDbLine
 10
686.4968117096
 20
943.4860367308
 30
0.0
 11
694.4230820753
 21
943.4860367308
 31
0.0
  0
SPLINE
  5
1E0
330
1F
100
AcDbEntity
  8
0
  6
Continuous
 62
     7
370
    15
100
AcDbSpline
210
0.0
220
0.0
230
1.0
 70
     8
 71
     3
 72
    14
 73
    10
 74
     0
 42
0.00000001
 43
0.00000001
 12
1.0
 22
0.0
 32
0.0
 13
1.0
 23
0.0
 33
0.0
 40
0.0
 40
0.0
 40
0.0
 40
0.0
 40
0.180312102441547
 40
0.3621147256671238
 40
0.486621761351024
 40
0.6111266096502611
 40
0.7389500002376036
 40
0.8668077564522713
 40
1.0
 40
1.0
 40
1.0
 40
1.0
 10
694.4230820753437
 20
943.4860367307783
 30
0.0
 10
694.5866827953869
 20
942.9552619703911
 30
0.0
 10
694.9152366143221
 20
941.8893248860462
 30
0.0
 10
695.1663067139837
 20
940.4194963828091
 30
0.0
 10
695.2442045754618
 20
939.1082307069347
 30
0.0
 10
695.2010698773943
 20
937.959821108727
 30
0.0
 10
695.0438143753938
 20
936.80907185913
 30
0.0
 10
694.7878801968573
 20
935.64459084012
 30
0.0
 10
694.546326808933
 20
934.8774446845549
 30
0.0
 10
694.4230820753437
 20
934.4860333929182
 30
0.0
  0
LINE
  5
1E1
330
1F
100
AcDbEntity
  8
0
  6
Continuous
 62
     7
370
    15
100
AcDbLine
 10
686.4968117096
 20
934.4860333929
 30
0.0
 11
694.4230820753
 21
934.4860333929
 31
0.0
  0
SPLINE
  5
1E2
330
1F
100
AcDbEntity
  8
0
  6
Continuous
 62
     7
370
    15
100
AcDbSpline
210
0.0
220
0.0
230
1.0
 70
     8
 71
     3
 72
    14
 73
    10
 74
     0
 42
0.00000001
 43
0.00000001
 12
1.0
 22
0.0
 32
0.0
 13
1.0
 23
0.0
 33
0.0
 40
0.0
 40
0.0
 40
0.0
 40
0.0
 40
0.1331923114503435
 40
0.2578394873241885
 40
0.3824531418695986
 40
0.510167896369958
 40
0.6378845188923437
 40
0.8180588272841716
 40
1.0
 40
1.0
 40
1.0
 40
1.0
 10
686.4968117096287
 20
934.4860333929182
 30
0.0
 10
686.3735569045805
 20
934.8774424875452
 30
0.0
 10
686.1349548756956
 20
935.6351492890393
 30
0.0
 10
685.8821285801675
 20
936.7801721314958
 30
0.0
 10
685.7223382629271
 20
937.9207115066872
 30
0.0
 10
685.67450899678
 20
939.0788465090485
 30
0.0
 10
685.751606699218
 20
940.4048628501757
 30
0.0
 10
686.0034843593776
 20
941.8844258654557
 30
0.0
 10
686.3318352204953
 20
942.9504326589904
 30
0.0
 10
686.4968117096287
 20
943.4860367307783
 30
0.0
  0
SPLINE
  5
1E3
330
1F
100
AcDbEntity
  8
0
  6
Continuous
 62
     7
370
    15
100
AcDbSpline
210
0.0
220
0.0
230
1.0
 70
    24
 71
     3
 72
    12
 73
     8
 74
     0
 42
0.00000001
 43
0.00000001
 12
1.0
 22
0.0
 32
0.0
 13
1.0
 23
0.0
 33
0.0
 40
0.0
 40
0.0
 40
0.0
 40
0.0
 40
0.0699958470717136
 40
0.300378812641235
 40
0.5308007811115424
 40
0.7653789831162836
 40
1.0
 40
1.0
 40
1.0
 40
1.0
 10
685.7055898525578
 20
934.4860333929183
 30
0.0
 10
685.7017382017262
 20
934.4860333929183
 30
0.0
 10
685.6852093024856
 20
934.4860333929181
 30
0.0
 10
685.7633831274572
 20
934.4860333929183
 30
0.0
 10
685.9233667519416
 20
934.4860333929182
 30
0.0
 10
686.1696404621871
 20
934.4860333929181
 30
0.0
 10
686.3877479929743
 20
934.4860333929182
 30
0.0
 10
686.4968117096287
 20
934.4860333929183
 30
0.0
  0
SPLINE
  5
1E4
330
1F
100
AcDbEntity
  8
0
  6
Continuous
 62
     7
370
    15
100
AcDbSpline
210
0.0
220
0.0
230
1.0
 70
    24
 71
     3
 72
    11
 73
     7
 74
     0
 42
0.00000001
 43
0.00000001
 12
1.0
 22
0.0
 32
0.0
 13
1.0
 23
0.0
 33
0.0
 40
0.0
 40
0.0
 40
0.0
 40
0.0
 40
0.2646064514524133
 40
0.5291391139331774
 40
0.7995911288649309
 40
1.0
 40
1.0
 40
1.0
 40
1.0
 10
686.4968117096287
 20
952.4860400686384
 30
0.0
 10
686.3742171077232
 20
952.4860400686384
 30
0.0
 10
686.1290620910212
 20
952.4860400686384
 30
0.0
 10
685.8691385750678
 20
952.4860400686383
 30
0.0
 10
685.7127126216864
 20
952.4860400686384
 30
0.0
 10
685.7077163689173
 20
952.4860400686385
 30
0.0
 10
685.7055898525578
 20
952.4860400686384
 30
0.0
  0
SPLINE
  5
1E5
330
1F
100
AcDbEntity
  8
0
  6
Continuous
 62
     7
370
    15
100
AcDbSpline
210
0.0
220
0.0
230
1.0
 70
     8
 71
     3
 72
    16
 73
    12
 74
     0
 42
0.00000001
 43
0.00000001
 12
1.0
 22
0.0
 32
0.0
 13
1.0
 23
0.0
 33
0.0
 40
0.0
 40
0.0
 40
0.0
 40
0.0
 40
0.2500000000000058
 40
0.2500000000000058
 40
0.5000000000000117
 40
0.5000000000000117
 40
0.6250000000000078
 40
0.6250000000000078
 40
0.7500000000000039
 40
0.7500000000000039
 40
1.0
 40
1.0
 40
1.0
 40
1.0
 10
686.4968060868669
 20
943.4860437956667
 30
0.0
 10
686.2518845722844
 20
944.2208083394139
 30
0.0
 10
686.0500248522479
 20
944.9609299408302
 30
0.0
 10
685.7703835806509
 20
946.4566089588903
 30
0.0
 10
685.6935244459225
 20
947.2122811278392
 30
0.0
 10
685.6926802847534
 20
948.3600267350951
 30
0.0
 10
685.7114693714235
 20
948.7444087465426
 30
0.0
 10
685.7847368635043
 20
949.5047569137156
 30
0.0
 10
685.8391409151677
 20
949.8823818323875
 30
0.0
 10
686.0492199735197
 20
951.008533492683
 30
0.0
 10
686.2515792666871
 20
951.7503633351267
 30
0.0
 10
686.4968060868672
 20
952.4860437956668
 30
0.0
  0
LINE
  5
1E6
330
1F
100
AcDbEntity
  8
0
  6
Continuous
 62
     7
370
    15
100
AcDbLine
 10
685.2599408247
 20
939.3610376845
 30
0.0
 11
685.2599408247
 21
951.7360348234
 31
0.0
  0
LINE
  5
1E7
330
1F
100
AcDbEntity
  8
0
  6
Continuous
 62
     7
370
    15
100
AcDbLine
 10
685.2599408247
 20
935.2360386381
 30
0.0
 11
685.2599408247
 21
939.3610376845
 31
0.0
  0
SPLINE
  5
1E8
330
1F
100
AcDbEntity
  8
0
  6
Continuous
 62
     7
370
    15
100
AcDbSpline
210
0.0
220
0.0
230
1.0
 70
    24
 71
     3
 72
    12
 73
     8
 74
     0
 42
0.00000001
 43
0.00000001
 12
1.0
 22
0.0
 32
0.0
 13
1.0
 23
0.0
 33
0.0
 40
0.0
 40
0.0
 40
0.0
 40
0.0
 40
0.0699958470717136
 40
0.300378812641235
 40
0.5308007811115424
 40
0.7653789831162836
 40
1.0
 40
1.0
 40
1.0
 40
1.0
 10
695.2143039324146
 20
952.4860400686385
 30
0.0
 10
695.2181555832462
 20
952.4860400686385
 30
0.0
 10
695.234684482487
 20
952.4860400686383
 30
0.0
 10
695.1565106575151
 20
952.4860400686385
 30
0.0
 10
694.9965270330309
 20
952.4860400686385
 30
0.0
 10
694.7502533227856
 20
952.4860400686383
 30
0.0
 10
694.5321457919982
 20
952.4860400686385
 30
0.0
 10
694.4230820753437
 20
952.4860400686385
 30
0.0
  0
SPLINE
  5
1E9
330
1F
100
AcDbEntity
  8
0
  6
Continuous
 62
     7
370
    15
100
AcDbSpline
210
0.0
220
0.0
230
1.0
 70
    24
 71
     3
 72
    11
 73
     7
 74
     0
 42
0.00000001
 43
0.00000001
 12
1.0
 22
0.0
 32
0.0
 13
1.0
 23
0.0
 33
0.0
 40
0.0
 40
0.0
 40
0.0
 40
0.0
 40
0.2646064514524133
 40
0.5291391139331774
 40
0.7995911288649309
 40
1.0
 40
1.0
 40
1.0
 40
1.0
 10
694.4230820753437
 20
934.4860333929182
 30
0.0
 10
694.5456766772493
 20
934.4860333929182
 30
0.0
 10
694.7908316939513
 20
934.4860333929182
 30
0.0
 10
695.0507552099048
 20
934.4860333929181
 30
0.0
 10
695.2071811632862
 20
934.4860333929182
 30
0.0
 10
695.2121774160552
 20
934.4860333929182
 30
0.0
 10
695.2143039324146
 20
934.4860333929182
 30
0.0
  0
SPLINE
  5
1EA
330
1F
100
AcDbEntity
  8
0
  6
Continuous
 62
     7
370
    15
100
AcDbSpline
210
0.0
220
0.0
230
1.0
 70
     8
 71
     3
 72
    16
 73
    12
 74
     0
 42
0.00000001
 43
0.00000001
 12
1.0
 22
0.0
 32
0.0
 13
1.0
 23
0.0
 33
0.0
 40
0.0
 40
0.0
 40
0.0
 40
0.0
 40
0.2500000000000058
 40
0.2500000000000058
 40
0.5000000000000117
 40
0.5000000000000117
 40
0.6250000000000078
 40
0.6250000000000078
 40
0.7500000000000039
 40
0.7500000000000039
 40
1.0
 40
1.0
 40
1.0
 40
1.0
 10
694.4230855284965
 20
952.4860437956668
 30
0.0
 10
694.6680070430789
 20
951.7512792519196
 30
0.0
 10
694.8698667631154
 20
951.0111576505034
 30
0.0
 10
695.1495080347125
 20
949.5154786324431
 30
0.0
 10
695.2263671694408
 20
948.7598064634943
 30
0.0
 10
695.2272113306101
 20
947.6120608562384
 30
0.0
 10
695.2084222439398
 20
947.2276788447908
 30
0.0
 10
695.1351547518592
 20
946.4673306776181
 30
0.0
 10
695.0807507001957
 20
946.0897057589459
 30
0.0
 10
694.8706716418436
 20
944.9635540986505
 30
0.0
 10
694.6683123486763
 20
944.2217242562067
 30
0.0
 10
694.4230855284962
 20
943.4860437956667
 30
0.0
  0
LINE
  5
1EB
330
1F
100
AcDbEntity
  8
0
  6
Continuous
 62
     7
370
    15
100
AcDbLine
 10
686.4968117096
 20
264.8618835936
 30
0.0
 11
694.4230820753
 21
264.8618835936
 31
0.0
  0
SPLINE
  5
1EC
330
1F
100
AcDbEntity
  8
0
  6
Continuous
 62
     7
370
    15
100
AcDbSpline
210
0.0
220
0.0
230
1.0
 70
     8
 71
     3
 72
    14
 73
    10
 74
     0
 42
0.00000001
 43
0.00000001
 12
1.0
 22
0.0
 32
0.0
 13
1.0
 23
0.0
 33
0.0
 40
0.0
 40
0.0
 40
0.0
 40
0.0
 40
0.1331923114503435
 40
0.2578394873241885
 40
0.3824531418695986
 40
0.510167896369958
 40
0.6378845188923437
 40
0.8180588272841716
 40
1.0
 40
1.0
 40
1.0
 40
1.0
 10
694.4230820753437
 20
264.8618835935713
 30
0.0
 10
694.5463368803921
 20
264.4704744989443
 30
0.0
 10
694.7849389092769
 20
263.7127676974503
 30
0.0
 10
695.0377652048049
 20
262.5677448549938
 30
0.0
 10
695.1975555220454
 20
261.4272054798024
 30
0.0
 10
695.2453847881925
 20
260.269070477441
 30
0.0
 10
695.1682870857546
 20
258.9430541363138
 30
0.0
 10
694.9164094255949
 20
257.4634911210339
 30
0.0
 10
694.5880585644773
 20
256.3974843274993
 30
0.0
 10
694.4230820753437
 20
255.8618802557112
 30
0.0
  0
LINE
  5
1ED
330
1F
100
AcDbEntity
  8
0
  6
Continuous
 62
     7
370
    15
100
AcDbLine
 10
686.4968117096
 20
255.8618802557
 30
0.0
 11
694.4230820753
 21
255.8618802557
 31
0.0
  0
SPLINE
  5
1EE
330
1F
100
AcDbEntity
  8
0
  6
Continuous
 62
     7
370
    15
100
AcDbSpline
210
0.0
220
0.0
230
1.0
 70
     8
 71
     3
 72
    14
 73
    10
 74
     0
 42
0.00000001
 43
0.00000001
 12
1.0
 22
0.0
 32
0.0
 13
1.0
 23
0.0
 33
0.0
 40
0.0
 40
0.0
 40
0.0
 40
0.0
 40
0.180312102441547
 40
0.3621147256671238
 40
0.486621761351024
 40
0.6111266096502611
 40
0.7389500002376036
 40
0.8668077564522713
 40
1.0
 40
1.0
 40
1.0
 40
1.0
 10
686.4968117096287
 20
255.8618802557112
 30
0.0
 10
686.3332109895855
 20
256.3926550160984
 30
0.0
 10
686.0046571706504
 20
257.4585921004433
 30
0.0
 10
685.7535870709889
 20
258.9284206036804
 30
0.0
 10
685.6756892095108
 20
260.2396862795549
 30
0.0
 10
685.7188239075782
 20
261.3880958777625
 30
0.0
 10
685.8760794095788
 20
262.5388451273595
 30
0.0
 10
686.1320135881152
 20
263.7033261463695
 30
0.0
 10
686.3735669760396
 20
264.4704723019347
 30
0.0
 10
686.4968117096287
 20
264.8618835935713
 30
0.0
  0
SPLINE
  5
1EF
330
1F
100
AcDbEntity
  8
0
  6
Continuous
 62
     7
370
    15
100
AcDbSpline
210
0.0
220
0.0
230
1.0
 70
     8
 71
     3
 72
    16
 73
    12
 74
     0
 42
0.00000001
 43
0.00000001
 12
1.0
 22
0.0
 32
0.0
 13
1.0
 23
0.0
 33
0.0
 40
0.0
 40
0.0
 40
0.0
 40
0.0
 40
0.2500000000000058
 40
0.2500000000000058
 40
0.5000000000000117
 40
0.5000000000000117
 40
0.6250000000000078
 40
0.6250000000000078
 40
0.7500000000000039
 40
0.7500000000000039
 40
1.0
 40
1.0
 40
1.0
 40
1.0
 10
694.4230855284965
 20
255.8618731908214
 30
0.0
 10
694.668007043079
 20
255.1271086470742
 30
0.0
 10
694.8698667631155
 20
254.386987045658
 30
0.0
 10
695.1495080347125
 20
252.8913080275979
 30
0.0
 10
695.2263671694409
 20
252.135635858649
 30
0.0
 10
695.2272113306101
 20
250.987890251393
 30
0.0
 10
695.2084222439399
 20
250.6035082399456
 30
0.0
 10
695.1351547518592
 20
249.8431600727728
 30
0.0
 10
695.0807507001958
 20
249.4655351541006
 30
0.0
 10
694.8706716418438
 20
248.3393834938053
 30
0.0
 10
694.6683123486764
 20
247.5975536513614
 30
0.0
 10
694.4230855284964
 20
246.8618731908214
 30
0.0
  0
SPLINE
  5
1F0
330
1F
100
AcDbEntity
  8
0
  6
Continuous
 62
     7
370
    15
100
AcDbSpline
210
0.0
220
0.0
230
1.0
 70
    24
 71
     3
 72
    12
 73
     8
 74
     0
 42
0.00000001
 43
0.00000001
 12
1.0
 22
0.0
 32
0.0
 13
1.0
 23
0.0
 33
0.0
 40
0.0
 40
0.0
 40
0.0
 40
0.0
 40
0.0699958470717136
 40
0.300378812641235
 40
0.5308007811115424
 40
0.7653789831162836
 40
1.0
 40
1.0
 40
1.0
 40
1.0
 10
695.2143039324146
 20
264.8618835935713
 30
0.0
 10
695.2181555832462
 20
264.8618835935713
 30
0.0
 10
695.234684482487
 20
264.8618835935714
 30
0.0
 10
695.1565106575151
 20
264.8618835935712
 30
0.0
 10
694.9965270330309
 20
264.8618835935713
 30
0.0
 10
694.7502533227856
 20
264.8618835935714
 30
0.0
 10
694.5321457919982
 20
264.8618835935713
 30
0.0
 10
694.4230820753437
 20
264.8618835935713
 30
0.0
  0
SPLINE
  5
1F1
330
1F
100
AcDbEntity
  8
0
  6
Continuous
 62
     7
370
    15
100
AcDbSpline
210
0.0
220
0.0
230
1.0
 70
    24
 71
     3
 72
    11
 73
     7
 74
     0
 42
0.00000001
 43
0.00000001
 12
1.0
 22
0.0
 32
0.0
 13
1.0
 23
0.0
 33
0.0
 40
0.0
 40
0.0
 40
0.0
 40
0.0
 40
0.2646064514524133
 40
0.5291391139331774
 40
0.7995911288649309
 40
1.0
 40
1.0
 40
1.0
 40
1.0
 10
694.4230820753437
 20
246.8618769178511
 30
0.0
 10
694.5456766772493
 20
246.8618769178511
 30
0.0
 10
694.7908316939513
 20
246.8618769178511
 30
0.0
 10
695.0507552099048
 20
246.8618769178512
 30
0.0
 10
695.2071811632862
 20
246.8618769178511
 30
0.0
 10
695.2121774160552
 20
246.861876917851
 30
0.0
 10
695.2143039324146
 20
246.8618769178511
 30
0.0
  0
SPLINE
  5
1F2
330
1F
100
AcDbEntity
  8
0
  6
Continuous
 62
     7
370
    15
100
AcDbSpline
210
0.0
220
0.0
230
1.0
 70
    24
 71
     3
 72
    11
 73
     7
 74
     0
 42
0.00000001
 43
0.00000001
 12
1.0
 22
0.0
 32
0.0
 13
1.0
 23
0.0
 33
0.0
 40
0.0
 40
0.0
 40
0.0
 40
0.0
 40
0.2646064514524133
 40
0.5291391139331774
 40
0.7995911288649309
 40
1.0
 40
1.0
 40
1.0
 40
1.0
 10
686.4968117096287
 20
264.8618835935713
 30
0.0
 10
686.3742171077232
 20
264.8618835935713
 30
0.0
 10
686.1290620910212
 20
264.8618835935713
 30
0.0
 10
685.8691385750678
 20
264.8618835935714
 30
0.0
 10
685.7127126216864
 20
264.8618835935713
 30
0.0
 10
685.7077163689173
 20
264.8618835935713
 30
0.0
 10
685.7055898525578
 20
264.8618835935713
 30
0.0
  0
SPLINE
  5
1F3
330
1F
100
AcDbEntity
  8
0
  6
Continuous
 62
     7
370
    15
100
AcDbSpline
210
0.0
220
0.0
230
1.0
 70
     8
 71
     3
 72
    16
 73
    12
 74
     0
 42
0.00000001
 43
0.00000001
 12
1.0
 22
0.0
 32
0.0
 13
1.0
 23
0.0
 33
0.0
 40
0.0
 40
0.0
 40
0.0
 40
0.0
 40
0.2500000000000049
 40
0.2500000000000049
 40
0.5000000000000098
 40
0.5000000000000098
 40
0.6250000000000073
 40
0.6250000000000073
 40
0.7500000000000049
 40
0.7500000000000049
 40
1.0
 40
1.0
 40
1.0
 40
1.0
 10
686.496806086867
 20
246.8618731908214
 30
0.0
 10
686.2518845722844
 20
247.5966377345685
 30
0.0
 10
686.0500248522479
 20
248.3367593359848
 30
0.0
 10
685.770383580651
 20
249.8324383540451
 30
0.0
 10
685.6935244459225
 20
250.5881105229938
 30
0.0
 10
685.6926802847534
 20
251.7358561302496
 30
0.0
 10
685.7114693714235
 20
252.1202381416973
 30
0.0
 10
685.7847368635043
 20
252.8805863088701
 30
0.0
 10
685.8391409151677
 20
253.2582112275422
 30
0.0
 10
686.0492199735197
 20
254.3843628878376
 30
0.0
 10
686.251579266687
 20
255.1261927302814
 30
0.0
 10
686.4968060868672
 20
255.8618731908215
 30
0.0
  0
SPLINE
  5
1F4
330
1F
100
AcDbEntity
  8
0
  6
Continuous
 62
     7
370
    15
100
AcDbSpline
210
0.0
220
0.0
230
1.0
 70
    24
 71
     3
 72
    12
 73
     8
 74
     0
 42
0.00000001
 43
0.00000001
 12
1.0
 22
0.0
 32
0.0
 13
1.0
 23
0.0
 33
0.0
 40
0.0
 40
0.0
 40
0.0
 40
0.0
 40
0.0699958470717136
 40
0.300378812641235
 40
0.5308007811115424
 40
0.7653789831162836
 40
1.0
 40
1.0
 40
1.0
 40
1.0
 10
685.7055898525578
 20
246.861876917851
 30
0.0
 10
685.7017382017262
 20
246.861876917851
 30
0.0
 10
685.6852093024856
 20
246.8618769178512
 30
0.0
 10
685.7633831274572
 20
246.861876917851
 30
0.0
 10
685.9233667519416
 20
246.861876917851
 30
0.0
 10
686.1696404621871
 20
246.8618769178513
 30
0.0
 10
686.3877479929743
 20
246.861876917851
 30
0.0
 10
686.4968117096287
 20
246.861876917851
 30
0.0
  0
LINE
  5
1F5
330
1F
100
AcDbEntity
  8
0
  6
Continuous
 62
     7
370
    15
100
AcDbLine
 10
685.2599408247
 20
247.6118821631
 30
0.0
 11
685.2599408247
 21
264.1118783484
 31
0.0
  0
LINE
  5
1F6
330
1F
100
AcDbEntity
  8
0
  6
Continuous
 62
     7
370
    15
100
AcDbLine
 10
686.4968117096
 20
952.4860400686
 30
0.0
 11
694.4230820753
 21
952.4860400686
 31
0.0
  0
LINE
  5
1F7
330
1F
100
AcDbEntity
  8
0
  6
Continuous
 62
     7
370
    15
100
AcDbLine
 10
686.4968117096
 20
246.8618769179
 30
0.0
 11
694.4230820753
 21
246.8618769179
 31
0.0
  0
LINE
  5
1F8
330
1F
100
AcDbEntity
  8
0
  6
Continuous
 62
     7
370
    15
100
AcDbLine
 10
650.1599427082
 20
948.6821908484
 30
0.0
 11
650.1599427082
 21
949.4860488901
 31
0.0
  0
LINE
  5
1F9
330
1F
100
AcDbEntity
  8
0
  6
Continuous
 62
     7
370
    15
100
AcDbLine
 10
650.1599427082
 20
937.4860543738
 30
0.0
 11
650.1599427082
 21
948.6821908484
 31
0.0
  0
LINE
  5
1FA
330
1F
100
AcDbEntity
  8
0
  6
Continuous
 62
     7
370
    15
100
AcDbLine
 10
650.1599427082
 20
250.6657261381
 30
0.0
 11
650.1599427082
 21
261.8618626127
 31
0.0
  0
LINE
  5
1FB
330
1F
100
AcDbEntity
  8
0
  6
Continuous
 62
     7
370
    15
100
AcDbLine
 10
650.1599427082
 20
249.8618680964
 30
0.0
 11
650.1599427082
 21
250.6657261381
 31
0.0
  0
LINE
  5
1FC
330
1F
100
AcDbEntity
  8
0
  6
Continuous
 62
     7
370
    15
100
AcDbLine
 10
695.6599529602
 20
984.6739489565
 30
0.0
 11
695.6599529602
 21
1008.6739677916
 31
0.0
  0
LINE
  5
1FD
330
1F
100
AcDbEntity
  8
0
  6
Continuous
 62
     7
370
    15
100
AcDbLine
 10
695.6599529602
 20
190.6739491949
 30
0.0
 11
695.6599529602
 21
214.67396803
 31
0.0
  0
SPLINE
  5
1FE
330
1F
100
AcDbEntity
  8
0
  6
Continuous
 62
     7
370
    15
100
AcDbSpline
210
0.0
220
0.0
230
1.0
 70
     8
 71
     3
 72
    16
 73
    12
 74
     0
 42
0.00000001
 43
0.00000001
 12
1.0
 22
0.0
 32
0.0
 13
1.0
 23
0.0
 33
0.0
 40
0.0
 40
0.0
 40
0.0
 40
0.0
 40
0.2500000000000118
 40
0.2500000000000118
 40
0.5000000000000235
 40
0.5000000000000235
 40
0.6250000000000215
 40
0.6250000000000215
 40
0.7500000000000195
 40
0.7500000000000195
 40
1.0
 40
1.0
 40
1.0
 40
1.0
 10
686.4968032536291
 20
991.47781588517
 30
0.0
 10
686.2528287684697
 20
992.3229694905253
 30
0.0
 10
686.0481355531409
 20
993.1887956876279
 30
0.0
 10
685.7682828165837
 20
994.9246775014866
 30
0.0
 10
685.6928745227422
 20
995.7973158563088
 30
0.0
 10
685.6930006101176
 20
997.114518087256
 30
0.0
 10
685.7116919819553
 20
997.5549433235204
 30
0.0
 10
685.7858665027748
 20
998.438472540843
 30
0.0
 10
685.8410425184799
 20
998.8775786734724
 30
0.0
 10
686.0523787051222
 20
1000.179179242532
 30
0.0
 10
686.2543410021989
 20
1001.030185900452
 30
0.0
 10
686.4968029339868
 20
1001.870099994045
 30
0.0
  0
SPLINE
  5
1FF
330
1F
100
AcDbEntity
  8
0
  6
Continuous
 62
     7
370
    15
100
AcDbSpline
210
0.0
220
0.0
230
1.0
 70
     8
 71
     3
 72
    15
 73
    11
 74
     0
 42
0.00000001
 43
0.00000001
 12
1.0
 22
0.0
 32
0.0
 13
1.0
 23
0.0
 33
0.0
 40
0.0
 40
0.0
 40
0.0
 40
0.0
 40
0.1323053784329888
 40
0.2645725134370783
 40
0.3998000083633956
 40
0.5350026174256849
 40
0.6501937611669008
 40
0.765402272047774
 40
0.8826897582309365
 40
0.9999999999999999
 40
0.9999999999999999
 40
0.9999999999999999
 40
0.9999999999999999
 10
686.4968117096287
 20
986.2816650400282
 30
0.0
 10
686.3744387599182
 20
986.5061590812057
 30
0.0
 10
686.1297282329157
 20
986.9550822726093
 30
0.0
 10
685.8664571346832
 20
987.6463681382432
 30
0.0
 10
685.7081271757017
 20
988.3507225055425
 30
0.0
 10
685.6767870747022
 20
989.0295418158786
 30
0.0
 10
685.7581203087402
 20
989.6717097610226
 30
0.0
 10
685.9247989659041
 20
990.27773218105
 30
0.0
 10
686.1692817491904
 20
990.8810253235606
 30
0.0
 10
686.3876279964095
 20
991.278875016011
 30
0.0
 10
686.4968117096287
 20
991.4778191576124
 30
0.0
  0
SPLINE
  5
200
330
1F
100
AcDbEntity
  8
0
  6
Continuous
 62
     7
370
    15
100
AcDbSpline
210
0.0
220
0.0
230
1.0
 70
     8
 71
     3
 72
    15
 73
    11
 74
     0
 42
0.00000001
 43
0.00000001
 12
1.0
 22
0.0
 32
0.0
 13
1.0
 23
0.0
 33
0.0
 40
0.0
 40
0.0
 40
0.0
 40
0.0
 40
0.1323067423269739
 40
0.2645738547553093
 40
0.399801355393907
 40
0.5350040083859542
 40
0.6501937281113511
 40
0.7654022249183713
 40
0.8826897347867916
 40
1.0
 40
1.0
 40
1.0
 40
1.0
 10
686.4968117096287
 20
1001.870097590459
 30
0.0
 10
686.37443900082
 20
1002.094603521599
 30
0.0
 10
686.1297302375555
 20
1002.543548137515
 30
0.0
 10
685.866456769137
 20
1003.234829611619
 30
0.0
 10
685.7081274038097
 20
1003.939182668507
 30
0.0
 10
685.6767866183483
 20
1004.618011129254
 30
0.0
 10
685.7581211929673
 20
1005.260136797344
 30
0.0
 10
685.9247989488782
 20
1005.866167017958
 30
0.0
 10
686.1692817597033
 20
1006.469457313475
 30
0.0
 10
686.3876279999901
 20
1006.867307379729
 30
0.0
 10
686.4968117096287
 20
1007.066251708043
 30
0.0
  0
LINE
  5
201
330
1F
100
AcDbEntity
  8
0
  6
Continuous
 62
     7
370
    15
100
AcDbLine
 10
685.2599408247
 20
996.6739732752
 30
0.0
 11
685.2599408247
 21
1004.9239713678
 31
0.0
  0
LINE
  5
202
330
1F
100
AcDbEntity
  8
0
  6
Continuous
 62
     7
370
    15
100
AcDbLine
 10
685.2599408247
 20
988.4239453802
 30
0.0
 11
685.2599408247
 21
996.6739732752
 31
0.0
  0
LINE
  5
203
330
1F
100
AcDbEntity
  8
0
  6
Continuous
 62
     7
370
    15
100
AcDbLine
 10
686.4968117096
 20
1001.8700975905
 30
0.0
 11
694.4230820753
 21
1001.8700975905
 31
0.0
  0
SPLINE
  5
204
330
1F
100
AcDbEntity
  8
0
  6
Continuous
 62
     7
370
    15
100
AcDbSpline
210
0.0
220
0.0
230
1.0
 70
     8
 71
     3
 72
    16
 73
    12
 74
     0
 42
0.00000001
 43
0.00000001
 12
1.0
 22
0.0
 32
0.0
 13
1.0
 23
0.0
 33
0.0
 40
0.0
 40
0.0
 40
0.0
 40
0.0
 40
0.249999999999996
 40
0.249999999999996
 40
0.499999999999992
 40
0.499999999999992
 40
0.6249999999999979
 40
0.6249999999999979
 40
0.7500000000000038
 40
0.7500000000000038
 40
1.0
 40
1.0
 40
1.0
 40
1.0
 10
694.4230885797579
 20
991.4778166404268
 30
0.0
 10
694.6670630094947
 20
992.3229701459242
 30
0.0
 10
694.8717561725452
 20
993.1887962375733
 30
0.0
 10
695.151608830149
 20
994.9246778304339
 30
0.0
 10
695.2270170984864
 20
995.7973160737397
 30
0.0
 10
695.2268910022981
 20
997.1145181352688
 30
0.0
 10
695.2081996323369
 20
997.5549433147098
 30
0.0
 10
695.1340251247377
 20
998.4384724176966
 30
0.0
 10
695.0788491201113
 20
998.8775784951407
 30
0.0
 10
694.8675129772043
 20
1000.179178900659
 30
0.0
 10
694.6655507229733
 20
1001.030185453301
 30
0.0
 10
694.4230888403494
 20
1001.870099443346
 30
0.0
  0
LINE
  5
205
330
1F
100
AcDbEntity
  8
0
  6
Continuous
 62
     7
370
    15
100
AcDbLine
 10
686.4968117096
 20
991.4778191576
 30
0.0
 11
694.4230820753
 21
991.4778191576
 31
0.0
  0
LINE
  5
206
330
1F
100
AcDbEntity
  8
0
  6
Continuous
 62
     7
370
    15
100
AcDbLine
 10
686.4968117096
 20
1007.066251708
 30
0.0
 11
694.4230820753
 21
1007.066251708
 31
0.0
  0
SPLINE
  5
207
330
1F
100
AcDbEntity
  8
0
  6
Continuous
 62
     7
370
    15
100
AcDbSpline
210
0.0
220
0.0
230
1.0
 70
     8
 71
     3
 72
    15
 73
    11
 74
     0
 42
0.00000001
 43
0.00000001
 12
1.0
 22
0.0
 32
0.0
 13
1.0
 23
0.0
 33
0.0
 40
0.0
 40
0.0
 40
0.0
 40
0.0
 40
0.1323053784329888
 40
0.2645725134370783
 40
0.3998000083633956
 40
0.5350026174256849
 40
0.6501937611669008
 40
0.765402272047774
 40
0.8826897582309365
 40
0.9999999999999999
 40
0.9999999999999999
 40
0.9999999999999999
 40
0.9999999999999999
 10
694.4230820753437
 20
1007.066251708043
 30
0.0
 10
694.5454550250543
 20
1006.841757666865
 30
0.0
 10
694.7901655520568
 20
1006.392834475462
 30
0.0
 10
695.0534366502892
 20
1005.701548609828
 30
0.0
 10
695.211766609271
 20
1004.997194242528
 30
0.0
 10
695.2431067102702
 20
1004.318374932192
 30
0.0
 10
695.1617734762325
 20
1003.676206987048
 30
0.0
 10
694.9950948190685
 20
1003.070184567021
 30
0.0
 10
694.7506120357821
 20
1002.46689142451
 30
0.0
 10
694.5322657885631
 20
1002.06904173206
 30
0.0
 10
694.4230820753437
 20
1001.870097590459
 30
0.0
  0
SPLINE
  5
208
330
1F
100
AcDbEntity
  8
0
  6
Continuous
 62
     7
370
    15
100
AcDbSpline
210
0.0
220
0.0
230
1.0
 70
     8
 71
     3
 72
    15
 73
    11
 74
     0
 42
0.00000001
 43
0.00000001
 12
1.0
 22
0.0
 32
0.0
 13
1.0
 23
0.0
 33
0.0
 40
0.0
 40
0.0
 40
0.0
 40
0.0
 40
0.1323067423269739
 40
0.2645738547553093
 40
0.399801355393907
 40
0.5350040083859542
 40
0.6501937281113511
 40
0.7654022249183713
 40
0.8826897347867916
 40
1.0
 40
1.0
 40
1.0
 40
1.0
 10
694.4230820753437
 20
991.4778191576124
 30
0.0
 10
694.5454547841526
 20
991.2533132264725
 30
0.0
 10
694.7901635474171
 20
990.8043686105561
 30
0.0
 10
695.0534370158355
 20
990.1130871364517
 30
0.0
 10
695.2117663811629
 20
989.408734079564
 30
0.0
 10
695.2431071666243
 20
988.7299056188166
 30
0.0
 10
695.1617725920051
 20
988.0877799507266
 30
0.0
 10
694.9950948360944
 20
987.4817497301134
 30
0.0
 10
694.7506120252693
 20
986.878459434596
 30
0.0
 10
694.5322657849824
 20
986.4806093683416
 30
0.0
 10
694.4230820753437
 20
986.2816650400282
 30
0.0
  0
LINE
  5
209
330
1F
100
AcDbEntity
  8
0
  6
Continuous
 62
     7
370
    15
100
AcDbLine
 10
686.4968117096
 20
986.28166504
 30
0.0
 11
694.4230820753
 21
986.28166504
 31
0.0
  0
SPLINE
  5
20A
330
1F
100
AcDbEntity
  8
0
  6
Continuous
 62
     7
370
    15
100
AcDbSpline
210
0.0
220
0.0
230
1.0
 70
     8
 71
     3
 72
    15
 73
    11
 74
     0
 42
0.00000001
 43
0.00000001
 12
1.0
 22
0.0
 32
0.0
 13
1.0
 23
0.0
 33
0.0
 40
0.0
 40
0.0
 40
0.0
 40
0.0
 40
0.1323067423269465
 40
0.2645738547552544
 40
0.399801355393824
 40
0.5350040083858432
 40
0.6501937281112162
 40
0.7654022249182124
 40
0.8826897347866084
 40
0.9999999999999999
 40
0.9999999999999999
 40
0.9999999999999999
 40
0.9999999999999999
 10
686.4968117096287
 20
207.8700978288771
 30
0.0
 10
686.37443900082
 20
208.0946037600171
 30
0.0
 10
686.1297302375555
 20
208.5435483759335
 30
0.0
 10
685.8664567691371
 20
209.234829850038
 30
0.0
 10
685.7081274038097
 20
209.9391829069255
 30
0.0
 10
685.6767866183483
 20
210.6180113676732
 30
0.0
 10
685.7581211929673
 20
211.2601370357629
 30
0.0
 10
685.9247989488782
 20
211.8661672563761
 30
0.0
 10
686.1692817597035
 20
212.4694575518942
 30
0.0
 10
686.3876279999902
 20
212.8673076181481
 30
0.0
 10
686.4968117096287
 20
213.0662519464613
 30
0.0
  0
SPLINE
  5
20B
330
1F
100
AcDbEntity
  8
0
  6
Continuous
 62
     7
370
    15
100
AcDbSpline
210
0.0
220
0.0
230
1.0
 70
     8
 71
     3
 72
    16
 73
    12
 74
     0
 42
0.00000001
 43
0.00000001
 12
1.0
 22
0.0
 32
0.0
 13
1.0
 23
0.0
 33
0.0
 40
0.0
 40
0.0
 40
0.0
 40
0.0
 40
0.2499999999999961
 40
0.2499999999999961
 40
0.4999999999999922
 40
0.4999999999999922
 40
0.6249999999999902
 40
0.6249999999999902
 40
0.7499999999999883
 40
0.7499999999999883
 40
1.0
 40
1.0
 40
1.0
 40
1.0
 10
686.4968032536291
 20
207.8701011013195
 30
0.0
 10
686.2528287684697
 20
207.0249474959643
 30
0.0
 10
686.0481355531409
 20
206.1591212988617
 30
0.0
 10
685.7682828165837
 20
204.4232394850027
 30
0.0
 10
685.6928745227422
 20
203.5506011301807
 30
0.0
 10
685.6930006101177
 20
202.2333988992335
 30
0.0
 10
685.7116919819553
 20
201.7929736629692
 30
0.0
 10
685.7858665027749
 20
200.9094444456467
 30
0.0
 10
685.8410425184799
 20
200.470338313017
 30
0.0
 10
686.0523787051222
 20
199.1687377439573
 30
0.0
 10
686.2543410021989
 20
198.3177310860373
 30
0.0
 10
686.4968029339868
 20
197.4778169924446
 30
0.0
  0
SPLINE
  5
20C
330
1F
100
AcDbEntity
  8
0
  6
Continuous
 62
     7
370
    15
100
AcDbSpline
210
0.0
220
0.0
230
1.0
 70
     8
 71
     3
 72
    15
 73
    11
 74
     0
 42
0.00000001
 43
0.00000001
 12
1.0
 22
0.0
 32
0.0
 13
1.0
 23
0.0
 33
0.0
 40
0.0
 40
0.0
 40
0.0
 40
0.0
 40
0.1323053784331789
 40
0.2645725134372395
 40
0.3998000083635271
 40
0.5350026174257867
 40
0.6501937611669775
 40
0.7654022720478254
 40
0.8826897582309622
 40
1.0
 40
1.0
 40
1.0
 40
1.0
 10
686.4968117096287
 20
192.2816652784468
 30
0.0
 10
686.3744387599183
 20
192.5061593196242
 30
0.0
 10
686.1297282329159
 20
192.9550825110272
 30
0.0
 10
685.8664571346833
 20
193.6463683766619
 30
0.0
 10
685.7081271757016
 20
194.350722743961
 30
0.0
 10
685.6767870747022
 20
195.0295420542971
 30
0.0
 10
685.7581203087402
 20
195.6717099994413
 30
0.0
 10
685.924798965904
 20
196.2777324194686
 30
0.0
 10
686.1692817491905
 20
196.8810255619792
 30
0.0
 10
686.3876279964095
 20
197.2788752544297
 30
0.0
 10
686.4968117096287
 20
197.477819396031
 30
0.0
  0
LINE
  5
20D
330
1F
100
AcDbEntity
  8
0
  6
Continuous
 62
     7
370
    15
100
AcDbLine
 10
685.2599408247
 20
194.4239456186
 30
0.0
 11
685.2599408247
 21
210.9239716063
 31
0.0
  0
LINE
  5
20E
330
1F
100
AcDbEntity
  8
0
  6
Continuous
 62
     7
370
    15
100
AcDbLine
 10
686.4968117096
 20
213.0662519465
 30
0.0
 11
694.4230820753
 21
213.0662519465
 31
0.0
  0
SPLINE
  5
20F
330
1F
100
AcDbEntity
  8
0
  6
Continuous
 62
     7
370
    15
100
AcDbSpline
210
0.0
220
0.0
230
1.0
 70
     8
 71
     3
 72
    15
 73
    11
 74
     0
 42
0.00000001
 43
0.00000001
 12
1.0
 22
0.0
 32
0.0
 13
1.0
 23
0.0
 33
0.0
 40
0.0
 40
0.0
 40
0.0
 40
0.0
 40
0.1323053784331689
 40
0.264572513437231
 40
0.3998000083635202
 40
0.5350026174257814
 40
0.6501937611669735
 40
0.7654022720478227
 40
0.8826897582309609
 40
1.0
 40
1.0
 40
1.0
 40
1.0
 10
694.4230820753437
 20
213.0662519464613
 30
0.0
 10
694.5454550250543
 20
212.8417579052839
 30
0.0
 10
694.7901655520566
 20
212.3928347138809
 30
0.0
 10
695.0534366502893
 20
211.7015488482462
 30
0.0
 10
695.2117666092709
 20
210.997194480947
 30
0.0
 10
695.2431067102702
 20
210.318375170611
 30
0.0
 10
695.1617734762324
 20
209.6762072254668
 30
0.0
 10
694.9950948190685
 20
209.0701848054395
 30
0.0
 10
694.7506120357821
 20
208.466891662929
 30
0.0
 10
694.5322657885631
 20
208.0690419704786
 30
0.0
 10
694.4230820753437
 20
207.8700978288771
 30
0.0
  0
LINE
  5
210
330
1F
100
AcDbEntity
  8
0
  6
Continuous
 62
     7
370
    15
100
AcDbLine
 10
686.4968117096
 20
207.8700978289
 30
0.0
 11
694.4230820753
 21
207.8700978289
 31
0.0
  0
SPLINE
  5
211
330
1F
100
AcDbEntity
  8
0
  6
Continuous
 62
     7
370
    15
100
AcDbSpline
210
0.0
220
0.0
230
1.0
 70
     8
 71
     3
 72
    16
 73
    12
 74
     0
 42
0.00000001
 43
0.00000001
 12
1.0
 22
0.0
 32
0.0
 13
1.0
 23
0.0
 33
0.0
 40
0.0
 40
0.0
 40
0.0
 40
0.0
 40
0.2500000000000039
 40
0.2500000000000039
 40
0.5000000000000078
 40
0.5000000000000078
 40
0.6250000000000098
 40
0.6250000000000098
 40
0.7500000000000117
 40
0.7500000000000117
 40
1.0
 40
1.0
 40
1.0
 40
1.0
 10
694.423088579758
 20
207.8701003460627
 30
0.0
 10
694.6670630094947
 20
207.0249468405651
 30
0.0
 10
694.8717561725454
 20
206.1591207489162
 30
0.0
 10
695.151608830149
 20
204.4232391560556
 30
0.0
 10
695.2270170984865
 20
203.5506009127499
 30
0.0
 10
695.2268910022983
 20
202.2333988512209
 30
0.0
 10
695.2081996323369
 20
201.7929736717797
 30
0.0
 10
695.1340251247378
 20
200.909444568793
 30
0.0
 10
695.0788491201114
 20
200.4703384913492
 30
0.0
 10
694.8675129772045
 20
199.1687380858304
 30
0.0
 10
694.6655507229733
 20
198.3177315331888
 30
0.0
 10
694.4230888403495
 20
197.4778175431437
 30
0.0
  0
LINE
  5
212
330
1F
100
AcDbEntity
  8
0
  6
Continuous
 62
     7
370
    15
100
AcDbLine
 10
686.4968117096
 20
197.477819396
 30
0.0
 11
694.4230820753
 21
197.477819396
 31
0.0
  0
SPLINE
  5
213
330
1F
100
AcDbEntity
  8
0
  6
Continuous
 62
     7
370
    15
100
AcDbSpline
210
0.0
220
0.0
230
1.0
 70
     8
 71
     3
 72
    15
 73
    11
 74
     0
 42
0.00000001
 43
0.00000001
 12
1.0
 22
0.0
 32
0.0
 13
1.0
 23
0.0
 33
0.0
 40
0.0
 40
0.0
 40
0.0
 40
0.0
 40
0.132306742326945
 40
0.2645738547552514
 40
0.3998013553938194
 40
0.5350040083858371
 40
0.6501937281112088
 40
0.7654022249182038
 40
0.8826897347865984
 40
1.0
 40
1.0
 40
1.0
 40
1.0
 10
694.4230820753437
 20
197.477819396031
 30
0.0
 10
694.5454547841525
 20
197.253313464891
 30
0.0
 10
694.790163547417
 20
196.8043688489746
 30
0.0
 10
695.0534370158355
 20
196.1130873748702
 30
0.0
 10
695.2117663811629
 20
195.4087343179828
 30
0.0
 10
695.2431071666243
 20
194.7299058572351
 30
0.0
 10
695.1617725920051
 20
194.087780189145
 30
0.0
 10
694.9950948360944
 20
193.4817499685322
 30
0.0
 10
694.7506120252689
 20
192.8784596730137
 30
0.0
 10
694.5322657849823
 20
192.4806096067599
 30
0.0
 10
694.4230820753437
 20
192.2816652784468
 30
0.0
  0
LINE
  5
214
330
1F
100
AcDbEntity
  8
0
  6
Continuous
 62
     7
370
    15
100
AcDbLine
 10
686.4968117096
 20
192.2816652784
 30
0.0
 11
694.4230820753
 21
192.2816652784
 31
0.0
  0
LINE
  5
215
330
1F
100
AcDbEntity
  8
0
  6
Continuous
 62
     7
370
    15
100
AcDbLine
 10
650.1599427082
 20
990.6739611158
 30
0.0
 11
650.1599427082
 21
1002.6739556322
 31
0.0
  0
LINE
  5
216
330
1F
100
AcDbEntity
  8
0
  6
Continuous
 62
     7
370
    15
100
AcDbLine
 10
650.1599427082
 20
196.6739613543
 30
0.0
 11
650.1599427082
 21
208.6739558706
 31
0.0
  0
LINE
  5
217
330
1F
100
AcDbEntity
  8
0
  6
Continuous
 62
     7
370
     0
100
AcDbLine
 10
701.4109518149
 20
599.6739584932
 30
0.0
 11
701.4109518149
 21
1010.6739718447
 31
0.0
  0
LINE
  5
218
330
1F
100
AcDbEntity
  8
0
  6
Continuous
 62
     7
370
     0
100
AcDbLine
 10
701.4109518149
 20
188.6739451418
 30
0.0
 11
701.4109518149
 21
599.6739584932
 31
0.0
  0
LINE
  5
219
330
1F
100
AcDbEntity
  8
0
  6
Continuous
 62
     7
370
     0
100
AcDbLine
 10
704.3995361545
 20
599.6739584932
 30
0.0
 11
704.3995361545
 21
1007.9354364405
 31
0.0
  0
LINE
  5
21A
330
1F
100
AcDbEntity
  8
0
  6
Continuous
 62
     7
370
     0
100
AcDbLine
 10
704.3995361545
 20
191.412480546
 30
0.0
 11
704.3995361545
 21
599.6739584932
 31
0.0
  0
LINE
  5
21B
330
1F
100
AcDbEntity
  8
0
  6
Continuous
 62
     7
370
     0
100
AcDbLine
 10
705.821807287
 20
949.4860488901
 30
0.0
 11
705.821807287
 21
991.6648585329
 31
0.0
  0
LINE
  5
21C
330
1F
100
AcDbEntity
  8
0
  6
Continuous
 62
     7
370
     0
100
AcDbLine
 10
705.821807287
 20
804.1739631424
 30
0.0
 11
705.821807287
 21
937.4966043959
 31
0.0
  0
LINE
  5
21D
330
1F
100
AcDbEntity
  8
0
  6
Continuous
 62
     7
370
     0
100
AcDbLine
 10
705.821807287
 20
605.6739585454
 30
0.0
 11
705.821807287
 21
792.1739537249
 31
0.0
  0
LINE
  5
21E
330
1F
100
AcDbEntity
  8
0
  6
Continuous
 62
     7
370
     0
100
AcDbLine
 10
705.821807287
 20
407.1739632616
 30
0.0
 11
705.821807287
 21
593.6739584411
 31
0.0
  0
LINE
  5
21F
330
1F
100
AcDbEntity
  8
0
  6
Continuous
 62
     7
370
     0
100
AcDbLine
 10
705.821807287
 20
261.8513125906
 30
0.0
 11
705.821807287
 21
395.1739538441
 31
0.0
  0
LINE
  5
220
330
1F
100
AcDbEntity
  8
0
  6
Continuous
 62
     7
370
     0
100
AcDbLine
 10
705.821807287
 20
207.6830584536
 30
0.0
 11
705.821807287
 21
249.8618680964
 31
0.0
  0
LINE
  5
221
330
1F
100
AcDbEntity
  8
0
  6
Continuous
 62
     7
370
     0
100
AcDbLine
 10
710.5411018946
 20
605.6739585454
 30
0.0
 11
710.5411018946
 21
792.1739537249
 31
0.0
  0
LINE
  5
222
330
1F
100
AcDbEntity
  8
0
  6
Continuous
 62
     7
370
     0
100
AcDbLine
 10
710.5411018946
 20
804.1739631424
 30
0.0
 11
710.5411018946
 21
937.4860543738
 31
0.0
  0
LINE
  5
223
330
1F
100
AcDbEntity
  8
0
  6
Continuous
 62
     7
370
     0
100
AcDbLine
 10
710.5411018946
 20
949.4860488901
 30
0.0
 11
710.5411018946
 21
987.1214050779
 31
0.0
  0
LINE
  5
224
330
1F
100
AcDbEntity
  8
0
  6
Continuous
 62
     7
370
     0
100
AcDbLine
 10
710.5411018946
 20
212.2265119085
 30
0.0
 11
710.5411018946
 21
249.8618680964
 31
0.0
  0
LINE
  5
225
330
1F
100
AcDbEntity
  8
0
  6
Continuous
 62
     7
370
     0
100
AcDbLine
 10
710.5411018946
 20
261.8618626127
 30
0.0
 11
710.5411018946
 21
395.1739538441
 31
0.0
  0
LINE
  5
226
330
1F
100
AcDbEntity
  8
0
  6
Continuous
 62
     7
370
     0
100
AcDbLine
 10
710.5411018946
 20
407.1739632616
 30
0.0
 11
710.5411018946
 21
593.6739584411
 31
0.0
  0
LINE
  5
227
330
1F
100
AcDbEntity
  8
0
  6
Continuous
 62
     7
370
     0
100
AcDbLine
 10
735.7907842615
 20
605.6739585454
 30
0.0
 11
735.7907842615
 21
792.1739537249
 31
0.0
  0
LINE
  5
228
330
1F
100
AcDbEntity
  8
0
  6
Continuous
 62
     7
370
     0
100
AcDbLine
 10
735.7907842615
 20
804.1739631424
 30
0.0
 11
735.7907842615
 21
937.4860543738
 31
0.0
  0
LINE
  5
229
330
1F
100
AcDbEntity
  8
0
  6
Continuous
 62
     7
370
     0
100
AcDbLine
 10
735.7907842615
 20
949.4860488901
 30
0.0
 11
735.7907842615
 21
985.7981223593
 31
0.0
  0
LINE
  5
22A
330
1F
100
AcDbEntity
  8
0
  6
Continuous
 62
     7
370
     0
100
AcDbLine
 10
735.7907842615
 20
213.5497946272
 30
0.0
 11
735.7907842615
 21
249.8618680964
 31
0.0
  0
LINE
  5
22B
330
1F
100
AcDbEntity
  8
0
  6
Continuous
 62
     7
370
     0
100
AcDbLine
 10
735.7907842615
 20
261.8618626127
 30
0.0
 11
735.7907842615
 21
395.1739538441
 31
0.0
  0
LINE
  5
22C
330
1F
100
AcDbEntity
  8
0
  6
Continuous
 62
     7
370
     0
100
AcDbLine
 10
735.7907842615
 20
407.1739632616
 30
0.0
 11
735.7907842615
 21
593.6739584411
 31
0.0
  0
LINE
  5
22D
330
1F
100
AcDbEntity
  8
FORMAT
  6
CENTERX2
370
     0
100
AcDbLine
 10
646.6897555588
 20
599.6739584932
 30
0.0
 11
830.4701287435
 21
599.6739584932
 31
0.0
  0
LINE
  5
22E
330
1F
100
AcDbEntity
  8
0
  6
Continuous
 62
     7
370
    15
100
AcDbLine
 10
489.1683013131
 20
-175.6579689774
 30
0.0
 11
489.1683013131
 21
-150.6579686048
 31
0.0
  0
LINE
  5
22F
330
1F
100
AcDbEntity
  8
0
  6
Continuous
 62
     7
370
    15
100
AcDbLine
 10
-420.831724913
 20
-150.6579686048
 30
0.0
 11
-420.831724913
 21
-175.6579689774
 31
0.0
  0
LINE
  5
230
330
1F
100
AcDbEntity
  8
0
  6
Continuous
 62
     7
370
    15
100
AcDbLine
 10
-376.8317251514
 20
-45.6579737457
 30
0.0
 11
-376.8317251514
 21
-48.9089749846
 31
0.0
  0
LINE
  5
231
330
1F
100
AcDbEntity
  8
0
  6
Continuous
 62
     7
370
    15
100
AcDbLine
 10
445.1683015515
 20
-48.9089749846
 30
0.0
 11
445.1683015515
 21
-45.6579737457
 31
0.0
  0
ARC
  5
232
330
1F
100
AcDbEntity
  8
0
  6
Continuous
 62
     7
370
    15
100
AcDbCircle
 10
-373.8317117999
 20
-48.9089754553
 30
0.0
 40
3.000000000000016
100
AcDbArc
 50
180.0
 51
265.0
  0
ARC
  5
233
330
1F
100
AcDbEntity
  8
0
  6
Continuous
 62
     7
370
    15
100
AcDbCircle
 10
442.1682882001
 20
-48.9089754553
 30
0.0
 40
3.000000000000016
100
AcDbArc
 50
275.0
 51
0.0
  0
LINE
  5
234
330
1F
100
AcDbEntity
  8
0
  6
Continuous
 62
     7
370
    15
100
AcDbLine
 10
22.1682880957
 20
-43.1579761299
 30
0.0
 11
22.1682880957
 21
-45.6579737457
 31
0.0
  0
LINE
  5
235
330
1F
100
AcDbEntity
  8
0
  6
Continuous
 62
     7
370
    15
100
AcDbLine
 10
46.1682883044
 20
-45.6579737457
 30
0.0
 11
46.1682883044
 21
-43.1579761299
 31
0.0
  0
LINE
  5
236
330
1F
100
AcDbEntity
  8
0
  6
Continuous
 62
     7
370
    15
100
AcDbLine
 10
-374.0931897472
 20
-51.8975593242
 30
0.0
 11
-368.8199370216
 21
-52.3589067253
 31
0.0
  0
LINE
  5
237
330
1F
100
AcDbEntity
  8
0
  6
Continuous
 62
     7
370
    15
100
AcDbLine
 10
437.1565134217
 20
-52.3589067253
 30
0.0
 11
442.4297661473
 21
-51.8975593242
 31
0.0
  0
LINE
  5
238
330
1F
100
AcDbEntity
  8
0
  6
Continuous
 62
     7
370
    15
100
AcDbLine
 10
43.1682878126
 20
-33.1909768376
 30
0.0
 11
42.4182881553
 21
-32.7579639944
 31
0.0
  0
LINE
  5
239
330
1F
100
AcDbEntity
  8
0
  6
Continuous
 62
     7
370
    15
100
AcDbLine
 10
25.9182882448
 20
-32.7579639944
 30
0.0
 11
25.1682885875
 21
-33.1909768376
 31
0.0
  0
LINE
  5
23A
330
1F
100
AcDbEntity
  8
0
  6
Continuous
 62
     7
370
    15
100
AcDbLine
 10
25.1682885875
 20
-42.7249632868
 30
0.0
 11
25.9182882448
 21
-43.1579761299
 31
0.0
  0
LINE
  5
23B
330
1F
100
AcDbEntity
  8
0
  6
Continuous
 62
     7
370
    15
100
AcDbLine
 10
42.4182881553
 20
-43.1579761299
 30
0.0
 11
43.1682878126
 21
-42.7249632868
 31
0.0
  0
LINE
  5
23C
330
1F
100
AcDbEntity
  8
0
  6
Continuous
 62
     7
370
    15
100
AcDbLine
 10
40.1682882522
 20
-32.7579639944
 30
0.0
 11
40.1682882522
 21
2.3420341221
 31
0.0
  0
LINE
  5
23D
330
1F
100
AcDbEntity
  8
0
  6
Continuous
 62
     7
370
    15
100
AcDbLine
 10
28.1682881479
 20
2.3420341221
 30
0.0
 11
28.1682881479
 21
-32.7579639944
 31
0.0
  0
LINE
  5
23E
330
1F
100
AcDbEntity
  8
0
  6
Continuous
 62
     7
370
    15
100
AcDbLine
 10
40.1682882522
 20
-150.6579686048
 30
0.0
 11
40.1682882522
 21
-52.8788007888
 31
0.0
  0
LINE
  5
23F
330
1F
100
AcDbEntity
  8
0
  6
Continuous
 62
     7
370
    15
100
AcDbLine
 10
28.1682881479
 20
-52.878867844
 30
0.0
 11
28.1682881479
 21
-150.6579686048
 31
0.0
  0
ARC
  5
240
330
1F
100
AcDbEntity
  8
0
  6
Continuous
 62
     7
370
    15
100
AcDbCircle
 10
-358.2723016811
 20
-58.3008061522
 30
0.0
 40
5.000000000000039
100
AcDbArc
 50
3.0
 51
73.5220155804
  0
ARC
  5
241
330
1F
100
AcDbEntity
  8
0
  6
Continuous
 62
     7
370
    15
100
AcDbCircle
 10
426.6088780812
 20
-58.3008061522
 30
0.0
 40
5.000000000000005
100
AcDbArc
 50
106.4776222802
 51
177.0
  0
LINE
  5
242
330
1F
100
AcDbEntity
  8
0
  6
Continuous
 62
     7
370
    15
100
AcDbLine
 10
-353.2791583846
 20
-58.0391250643
 30
0.0
 11
-351.955875666
 21
-83.2888074311
 31
0.0
  0
LINE
  5
243
330
1F
100
AcDbEntity
  8
0
  6
Continuous
 62
     7
370
    15
100
AcDbLine
 10
420.2924520661
 20
-83.2888074311
 30
0.0
 11
421.6157347848
 21
-58.0391250643
 31
0.0
  0
ARC
  5
244
330
1F
100
AcDbEntity
  8
0
  6
Continuous
 62
     7
370
    15
100
AcDbCircle
 10
-349.4593003832
 20
-83.1579689774
 30
0.0
 40
2.5
100
AcDbArc
 50
183.0
 51
270.0
  0
ARC
  5
245
330
1F
100
AcDbEntity
  8
0
  6
Continuous
 62
     7
370
    15
100
AcDbCircle
 10
417.7958767833
 20
-83.1579689774
 30
0.0
 40
2.5
100
AcDbArc
 50
270.0
 51
357.0
  0
LINE
  5
246
330
1F
100
AcDbEntity
  8
0
  6
Continuous
 62
     7
370
    15
100
AcDbLine
 10
400.6682784249
 20
-150.6579686048
 30
0.0
 11
400.6682784249
 21
-85.6579654011
 31
0.0
  0
LINE
  5
247
330
1F
100
AcDbEntity
  8
0
  6
Continuous
 62
     7
370
    15
100
AcDbLine
 10
-332.3317020248
 20
-85.6579654011
 30
0.0
 11
-332.3317020248
 21
-150.6579686048
 31
0.0
  0
LINE
  5
248
330
1F
100
AcDbEntity
  8
0
  6
Continuous
 62
     7
370
    15
100
AcDbLine
 10
220.6682861735
 20
-43.1579761299
 30
0.0
 11
220.6682861735
 21
-45.6579737457
 31
0.0
  0
LINE
  5
249
330
1F
100
AcDbEntity
  8
0
  6
Continuous
 62
     7
370
    15
100
AcDbLine
 10
244.6682901074
 20
-45.6579737457
 30
0.0
 11
244.6682901074
 21
-43.1579761299
 31
0.0
  0
LINE
  5
24A
330
1F
100
AcDbEntity
  8
0
  6
Continuous
 62
     7
370
    15
100
AcDbLine
 10
-176.3317137073
 20
-43.1579761299
 30
0.0
 11
-176.3317137073
 21
-45.6579737457
 31
0.0
  0
LINE
  5
24B
330
1F
100
AcDbEntity
  8
0
  6
Continuous
 62
     7
370
    15
100
AcDbLine
 10
-152.3317097734
 20
-45.6579737457
 30
0.0
 11
-152.3317097734
 21
-43.1579761299
 31
0.0
  0
LINE
  5
24C
330
1F
100
AcDbEntity
  8
0
  6
Continuous
 62
     7
370
    15
100
AcDbLine
 10
243.060588925
 20
-33.9948348793
 30
0.0
 11
240.9182936837
 21
-32.7579639944
 31
0.0
  0
LINE
  5
24D
330
1F
100
AcDbEntity
  8
0
  6
Continuous
 62
     7
370
    15
100
AcDbLine
 10
224.4182825972
 20
-32.7579639944
 30
0.0
 11
222.2759873559
 21
-33.9948348793
 31
0.0
  0
LINE
  5
24E
330
1F
100
AcDbEntity
  8
0
  6
Continuous
 62
     7
370
    15
100
AcDbLine
 10
222.2759873559
 20
-41.921105245
 30
0.0
 11
224.4182825972
 21
-43.1579761299
 31
0.0
  0
LINE
  5
24F
330
1F
100
AcDbEntity
  8
0
  6
Continuous
 62
     7
370
    15
100
AcDbLine
 10
240.9182936837
 20
-43.1579761299
 30
0.0
 11
243.060588925
 21
-41.921105245
 31
0.0
  0
LINE
  5
250
330
1F
100
AcDbEntity
  8
0
  6
Continuous
 62
     7
370
    15
100
AcDbLine
 10
-153.9394109558
 20
-33.9948348793
 30
0.0
 11
-156.0817061971
 21
-32.7579639944
 31
0.0
  0
LINE
  5
251
330
1F
100
AcDbEntity
  8
0
  6
Continuous
 62
     7
370
    15
100
AcDbLine
 10
-172.5817172836
 20
-32.7579639944
 30
0.0
 11
-174.7240125249
 21
-33.9948348793
 31
0.0
  0
LINE
  5
252
330
1F
100
AcDbEntity
  8
0
  6
Continuous
 62
     7
370
    15
100
AcDbLine
 10
-174.7240125249
 20
-41.921105245
 30
0.0
 11
-172.5817172836
 21
-43.1579761299
 31
0.0
  0
LINE
  5
253
330
1F
100
AcDbEntity
  8
0
  6
Continuous
 62
     7
370
    15
100
AcDbLine
 10
-156.0817061971
 20
-43.1579761299
 30
0.0
 11
-153.9394109558
 21
-41.921105245
 31
0.0
  0
LINE
  5
254
330
1F
100
AcDbEntity
  8
0
  6
Continuous
 62
     7
370
    15
100
AcDbLine
 10
238.6682928492
 20
-32.7579639944
 30
0.0
 11
238.6682928492
 21
2.3420341221
 31
0.0
  0
LINE
  5
255
330
1F
100
AcDbEntity
  8
0
  6
Continuous
 62
     7
370
    15
100
AcDbLine
 10
226.6682834317
 20
2.3420341221
 30
0.0
 11
226.6682834317
 21
-32.7579639944
 31
0.0
  0
LINE
  5
256
330
1F
100
AcDbEntity
  8
0
  6
Continuous
 62
     7
370
    15
100
AcDbLine
 10
238.6682928492
 20
-150.6579686048
 30
0.0
 11
238.6682928492
 21
-52.6180900726
 31
0.0
  0
LINE
  5
257
330
1F
100
AcDbEntity
  8
0
  6
Continuous
 62
     7
370
    15
100
AcDbLine
 10
226.6682834317
 20
-53.1418062839
 30
0.0
 11
226.6682834317
 21
-150.6579686048
 31
0.0
  0
LINE
  5
258
330
1F
100
AcDbEntity
  8
0
  6
Continuous
 62
     7
370
    15
100
AcDbLine
 10
-158.3317070316
 20
-32.7579639944
 30
0.0
 11
-158.3317070316
 21
2.3420341221
 31
0.0
  0
LINE
  5
259
330
1F
100
AcDbEntity
  8
0
  6
Continuous
 62
     7
370
    15
100
AcDbLine
 10
-170.3317164491
 20
2.3420341221
 30
0.0
 11
-170.3317164491
 21
-32.7579639944
 31
0.0
  0
LINE
  5
25A
330
1F
100
AcDbEntity
  8
0
  6
Continuous
 62
     7
370
    15
100
AcDbLine
 10
-158.3317070316
 20
-150.6579686048
 30
0.0
 11
-158.3317070316
 21
-53.1413816008
 31
0.0
  0
LINE
  5
25B
330
1F
100
AcDbEntity
  8
0
  6
Continuous
 62
     7
370
    15
100
AcDbLine
 10
-170.3317164491
 20
-52.6175908837
 30
0.0
 11
-170.3317164491
 21
-150.6579686048
 31
0.0
  0
LINE
  5
25C
330
1F
100
AcDbEntity
  8
0
  6
Continuous
 62
     7
370
    15
100
AcDbLine
 10
365.9803719212
 20
-43.1579761299
 30
0.0
 11
365.9803719212
 21
-45.6579737457
 31
0.0
  0
LINE
  5
25D
330
1F
100
AcDbEntity
  8
0
  6
Continuous
 62
     7
370
    15
100
AcDbLine
 10
389.980360954
 20
-45.6579737457
 30
0.0
 11
389.980360954
 21
-43.1579761299
 31
0.0
  0
LINE
  5
25E
330
1F
100
AcDbEntity
  8
0
  6
Continuous
 62
     7
370
    15
100
AcDbLine
 10
-321.6437845539
 20
-43.1579761299
 30
0.0
 11
-321.6437845539
 21
-45.6579737457
 31
0.0
  0
LINE
  5
25F
330
1F
100
AcDbEntity
  8
0
  6
Continuous
 62
     7
370
    15
100
AcDbLine
 10
-297.6437955211
 20
-45.6579737457
 30
0.0
 11
-297.6437955211
 21
-43.1579761299
 31
0.0
  0
LINE
  5
260
330
1F
100
AcDbEntity
  8
0
  6
Continuous
 62
     7
370
    15
100
AcDbLine
 10
386.9803697754
 20
-33.1909768376
 30
0.0
 11
386.2303645302
 21
-32.7579639944
 31
0.0
  0
LINE
  5
261
330
1F
100
AcDbEntity
  8
0
  6
Continuous
 62
     7
370
    15
100
AcDbLine
 10
369.7303683449
 20
-32.7579639944
 30
0.0
 11
368.9803630997
 21
-33.1909768376
 31
0.0
  0
LINE
  5
262
330
1F
100
AcDbEntity
  8
0
  6
Continuous
 62
     7
370
    15
100
AcDbLine
 10
368.9803630997
 20
-42.7249632868
 30
0.0
 11
369.7303683449
 21
-43.1579761299
 31
0.0
  0
LINE
  5
263
330
1F
100
AcDbEntity
  8
0
  6
Continuous
 62
     7
370
    15
100
AcDbLine
 10
386.2303645302
 20
-43.1579761299
 30
0.0
 11
386.9803697754
 21
-42.7249632868
 31
0.0
  0
LINE
  5
264
330
1F
100
AcDbEntity
  8
0
  6
Continuous
 62
     7
370
    15
100
AcDbLine
 10
-318.6437933753
 20
-42.7249632868
 30
0.0
 11
-317.8937881301
 21
-43.1579761299
 31
0.0
  0
LINE
  5
265
330
1F
100
AcDbEntity
  8
0
  6
Continuous
 62
     7
370
    15
100
AcDbLine
 10
-301.3937919448
 20
-43.1579761299
 30
0.0
 11
-300.6437866996
 21
-42.7249632868
 31
0.0
  0
LINE
  5
266
330
1F
100
AcDbEntity
  8
0
  6
Continuous
 62
     7
370
    15
100
AcDbLine
 10
-300.6437866996
 20
-33.1909768376
 30
0.0
 11
-301.3937919448
 21
-32.7579639944
 31
0.0
  0
LINE
  5
267
330
1F
100
AcDbEntity
  8
0
  6
Continuous
 62
     7
370
    15
100
AcDbLine
 10
-317.8937881301
 20
-32.7579639944
 30
0.0
 11
-318.6437933753
 21
-33.1909768376
 31
0.0
  0
LINE
  5
268
330
1F
100
AcDbEntity
  8
0
  6
Continuous
 62
     7
370
    15
100
AcDbLine
 10
383.9803785969
 20
-32.7579639944
 30
0.0
 11
383.9803785969
 21
2.3420341221
 31
0.0
  0
LINE
  5
269
330
1F
100
AcDbEntity
  8
0
  6
Continuous
 62
     7
370
    15
100
AcDbLine
 10
371.9803840806
 20
2.3420341221
 30
0.0
 11
371.9803840806
 21
-32.7579639944
 31
0.0
  0
LINE
  5
26A
330
1F
100
AcDbEntity
  8
0
  6
Continuous
 62
     7
370
    15
100
AcDbLine
 10
383.9803785969
 20
-150.6579686048
 30
0.0
 11
383.9803785969
 21
-52.4284951481
 31
0.0
  0
LINE
  5
26B
330
1F
100
AcDbEntity
  8
0
  6
Continuous
 62
     7
370
    15
100
AcDbLine
 10
371.9803840806
 20
-53.3434636983
 30
0.0
 11
371.9803840806
 21
-150.6579686048
 31
0.0
  0
LINE
  5
26C
330
1F
100
AcDbEntity
  8
0
  6
Continuous
 62
     7
370
    15
100
AcDbLine
 10
-303.6438076805
 20
-32.7579639944
 30
0.0
 11
-303.6438076805
 21
2.3420341221
 31
0.0
  0
LINE
  5
26D
330
1F
100
AcDbEntity
  8
0
  6
Continuous
 62
     7
370
    15
100
AcDbLine
 10
-315.6438021968
 20
2.3420341221
 30
0.0
 11
-315.6438021968
 21
-32.7579639944
 31
0.0
  0
LINE
  5
26E
330
1F
100
AcDbEntity
  8
0
  6
Continuous
 62
     7
370
    15
100
AcDbLine
 10
-303.6438076805
 20
-150.6579686048
 30
0.0
 11
-303.6438076805
 21
-53.3435084018
 31
0.0
  0
LINE
  5
26F
330
1F
100
AcDbEntity
  8
0
  6
Continuous
 62
     7
370
    15
100
AcDbLine
 10
-315.6438021968
 20
-52.4285920057
 30
0.0
 11
-315.6438021968
 21
-150.6579686048
 31
0.0
  0
LINE
  5
270
330
1F
100
AcDbEntity
  8
0
  6
Continuous
 62
     7
370
    15
100
AcDbLine
 10
419.1682786633
 20
-43.1579761299
 30
0.0
 11
419.1682786633
 21
-45.6579737457
 31
0.0
  0
LINE
  5
271
330
1F
100
AcDbEntity
  8
0
  6
Continuous
 62
     7
370
    15
100
AcDbLine
 10
443.1682974984
 20
-45.6579737457
 30
0.0
 11
443.1682974984
 21
-43.1579761299
 31
0.0
  0
LINE
  5
272
330
1F
100
AcDbEntity
  8
0
  6
Continuous
 62
     7
370
    15
100
AcDbLine
 10
-374.8317210983
 20
-43.1579761299
 30
0.0
 11
-374.8317210983
 21
-45.6579737457
 31
0.0
  0
LINE
  5
273
330
1F
100
AcDbEntity
  8
0
  6
Continuous
 62
     7
370
    15
100
AcDbLine
 10
-350.8317022632
 20
-45.6579737457
 30
0.0
 11
-350.8317022632
 21
-43.1579761299
 31
0.0
  0
LINE
  5
274
330
1F
100
AcDbEntity
  8
0
  6
Continuous
 62
     7
370
    15
100
AcDbLine
 10
441.5605814149
 20
-33.9948348793
 30
0.0
 11
439.4183010747
 21
-32.7579639944
 31
0.0
  0
LINE
  5
275
330
1F
100
AcDbEntity
  8
0
  6
Continuous
 62
     7
370
    15
100
AcDbLine
 10
422.918275087
 20
-32.7579639944
 30
0.0
 11
420.7759947468
 21
-33.9948348793
 31
0.0
  0
LINE
  5
276
330
1F
100
AcDbEntity
  8
0
  6
Continuous
 62
     7
370
    15
100
AcDbLine
 10
420.7759947468
 20
-41.921105245
 30
0.0
 11
422.918275087
 21
-43.1579761299
 31
0.0
  0
LINE
  5
277
330
1F
100
AcDbEntity
  8
0
  6
Continuous
 62
     7
370
    15
100
AcDbLine
 10
439.4183010747
 20
-43.1579761299
 30
0.0
 11
441.5605814149
 21
-41.921105245
 31
0.0
  0
LINE
  5
278
330
1F
100
AcDbEntity
  8
0
  6
Continuous
 62
     7
370
    15
100
AcDbLine
 10
-352.4394183467
 20
-33.9948348793
 30
0.0
 11
-354.5816986869
 21
-32.7579639944
 31
0.0
  0
LINE
  5
279
330
1F
100
AcDbEntity
  8
0
  6
Continuous
 62
     7
370
    15
100
AcDbLine
 10
-371.0817246746
 20
-32.7579639944
 30
0.0
 11
-373.2240050147
 21
-33.9948348793
 31
0.0
  0
LINE
  5
27A
330
1F
100
AcDbEntity
  8
0
  6
Continuous
 62
     7
370
    15
100
AcDbLine
 10
-373.2240050147
 20
-41.921105245
 30
0.0
 11
-371.0817246746
 21
-43.1579761299
 31
0.0
  0
LINE
  5
27B
330
1F
100
AcDbEntity
  8
0
  6
Continuous
 62
     7
370
    15
100
AcDbLine
 10
-354.5816986869
 20
-43.1579761299
 30
0.0
 11
-352.4394183467
 21
-41.921105245
 31
0.0
  0
LINE
  5
27C
330
1F
100
AcDbEntity
  8
0
  6
Continuous
 62
     7
370
    15
100
AcDbLine
 10
437.168285339
 20
-32.7579639944
 30
0.0
 11
437.168285339
 21
2.3420341221
 31
0.0
  0
LINE
  5
27D
330
1F
100
AcDbEntity
  8
0
  6
Continuous
 62
     7
370
    15
100
AcDbLine
 10
425.1682908227
 20
2.3420341221
 30
0.0
 11
425.1682908227
 21
-32.7579639944
 31
0.0
  0
LINE
  5
27E
330
1F
100
AcDbEntity
  8
0
  6
Continuous
 62
     7
370
    15
100
AcDbLine
 10
437.168285339
 20
-150.6579686048
 30
0.0
 11
437.168285339
 21
-52.3578785452
 31
0.0
  0
LINE
  5
27F
330
1F
100
AcDbEntity
  8
0
  6
Continuous
 62
     7
370
    15
100
AcDbLine
 10
425.1682908227
 20
-53.5128302964
 30
0.0
 11
425.1682908227
 21
-150.6579686048
 31
0.0
  0
LINE
  5
280
330
1F
100
AcDbEntity
  8
0
  6
Continuous
 62
     7
370
    15
100
AcDbLine
 10
-356.8317144226
 20
-32.7579639944
 30
0.0
 11
-356.8317144226
 21
2.3420341221
 31
0.0
  0
LINE
  5
281
330
1F
100
AcDbEntity
  8
0
  6
Continuous
 62
     7
370
    15
100
AcDbLine
 10
-368.8317089389
 20
2.3420341221
 30
0.0
 11
-368.8317089389
 21
-32.7579639944
 31
0.0
  0
LINE
  5
282
330
1F
100
AcDbEntity
  8
0
  6
Continuous
 62
     7
370
    15
100
AcDbLine
 10
-356.8317144226
 20
-150.6579686048
 30
0.0
 11
-356.8317144226
 21
-53.5128302964
 31
0.0
  0
LINE
  5
283
330
1F
100
AcDbEntity
  8
0
  6
Continuous
 62
     7
370
    15
100
AcDbLine
 10
-368.8317089389
 20
-52.3578785452
 30
0.0
 11
-368.8317089389
 21
-150.6579686048
 31
0.0
  0
LINE
  5
284
330
1F
100
AcDbEntity
  8
0
  6
Continuous
 62
     7
370
    15
100
AcDbLine
 10
-420.831724913
 20
-175.6579689774
 30
0.0
 11
489.1683013131
 21
-175.6579689774
 31
0.0
  0
LINE
  5
285
330
1F
100
AcDbEntity
  8
0
  6
Continuous
 62
     7
370
    15
100
AcDbLine
 10
-420.831724913
 20
-150.6579686048
 30
0.0
 11
489.1683013131
 21
-150.6579686048
 31
0.0
  0
LINE
  5
286
330
1F
100
AcDbEntity
  8
0
  6
Continuous
 62
     7
370
    15
100
AcDbLine
 10
-376.8317251514
 20
-45.6579737457
 30
0.0
 11
445.1683015515
 21
-45.6579737457
 31
0.0
  0
LINE
  5
287
330
1F
100
AcDbEntity
  8
0
  6
Continuous
 62
     7
370
    15
100
AcDbLine
 10
22.1682880957
 20
-43.1579761299
 30
0.0
 11
46.1682883044
 21
-43.1579761299
 31
0.0
  0
SPLINE
  5
288
330
1F
100
AcDbEntity
  8
0
  6
Continuous
 62
     7
370
    15
100
AcDbSpline
210
0.0
220
0.0
230
1.0
 70
     8
 71
     3
 72
    23
 73
    19
 74
     0
 42
0.00000001
 43
0.00000001
 12
1.0
 22
0.0
 32
0.0
 13
1.0
 23
0.0
 33
0.0
 40
0.0
 40
0.0
 40
0.0
 40
0.0
 40
0.0558872763136364
 40
0.1204939899380342
 40
0.1869714044200538
 40
0.251641897441272
 40
0.3181775365465949
 40
0.3830359717283477
 40
0.449763385303436
 40
0.5148602232069144
 40
0.5818318451185872
 40
0.6471104271372796
 40
0.7142780498286777
 40
0.7796022110901543
 40
0.8468281480508237
 40
0.9120410564959306
 40
0.9791564324391989
 40
0.9999999999999999
 40
0.9999999999999999
 40
0.9999999999999999
 40
0.9999999999999999
 10
437.1565134216872
 20
-52.35889182417156
 30
0.0
 10
437.1493922901143
 20
-52.35950482403617
 30
0.0
 10
437.1340390001942
 20
-52.36082646295635
 30
0.0
 10
436.9051048455653
 20
-52.38056734270885
 30
0.0
 10
436.521962767715
 20
-52.41361487905071
 30
0.0
 10
435.9792051742447
 20
-52.46050529849566
 30
0.0
 10
435.3072727886517
 20
-52.51860846700804
 30
0.0
 10
434.5114172864922
 20
-52.58759432003872
 30
0.0
 10
433.6274237458235
 20
-52.6643492463344
 30
0.0
 10
432.6647362630885
 20
-52.74814663953936
 30
0.0
 10
431.6666122365571
 20
-52.83523625558524
 30
0.0
 10
430.6443180561198
 20
-52.92467898870089
 30
0.0
 10
429.6447725137615
 20
-53.01233178080235
 30
0.0
 10
428.6794034450854
 20
-53.09722556120856
 30
0.0
 10
427.7930802596553
 20
-53.17533958874734
 30
0.0
 10
426.9970950332043
 20
-53.24564380823969
 30
0.0
 10
426.4733172442541
 20
-53.29201238366466
 30
0.0
 10
426.2193667141437
 20
-53.31450127925196
 30
0.0
 10
426.1591882397261
 20
-53.31983045665981
 30
0.0
  0
SPLINE
  5
289
330
1F
100
AcDbEntity
  8
0
  6
Continuous
 62
     7
370
    15
100
AcDbSpline
210
0.0
220
0.0
230
1.0
 70
     8
 71
     3
 72
    26
 73
    22
 74
     0
 42
0.00000001
 43
0.00000001
 12
1.0
 22
0.0
 32
0.0
 13
1.0
 23
0.0
 33
0.0
 40
0.0
 40
0.0
 40
0.0
 40
0.0
 40
0.0147559674048378
 40
0.0695048344460152
 40
0.1240616226518245
 40
0.1786180750981653
 40
0.2330561104121962
 40
0.287495284897817
 40
0.3419384169842747
 40
0.3963846884915991
 40
0.450954933831353
 40
0.5055274046802657
 40
0.5602933094576966
 40
0.6150600101290606
 40
0.6700077768838253
 40
0.7249547002042728
 40
0.779989739062556
 40
0.8350253283266378
 40
0.8900140360493642
 40
0.945001733746499
 40
1.0
 40
1.0
 40
1.0
 40
1.0
 10
383.9630932499495
 20
-52.42849514810802
 30
0.0
 10
383.9679919787373
 20
-52.42420334305697
 30
0.0
 10
383.9910663949418
 20
-52.4039877115526
 30
0.0
 10
383.8633354183555
 20
-52.38062376097815
 30
0.0
 10
383.5731662328228
 20
-52.36049578939215
 30
0.0
 10
383.1153706880243
 20
-52.35562646223136
 30
0.0
 10
382.5134254446755
 20
-52.3654640799788
 30
0.0
 10
381.7859418865826
 20
-52.38946191914224
 30
0.0
 10
380.9495995140484
 20
-52.42741121903312
 30
0.0
 10
380.0310745153207
 20
-52.47781003799123
 30
0.0
 10
379.0534237950083
 20
-52.53977709787132
 30
0.0
 10
378.0448099115086
 20
-52.61126910050247
 30
0.0
 10
377.0336756775685
 20
-52.69069421222913
 30
0.0
 10
376.0469927608319
 20
-52.77563956577476
 30
0.0
 10
375.1155538202319
 20
-52.86389222554335
 30
0.0
 10
374.262625390642
 20
-52.95291187222502
 30
0.0
 10
373.5176995295679
 20
-53.04006928476013
 30
0.0
 10
372.8964997381548
 20
-53.12300076326468
 30
0.0
 10
372.426814219557
 20
-53.19875736676079
 30
0.0
 10
372.1008978019354
 20
-53.2665434251869
 30
0.0
 10
372.0275910171206
 20
-53.30206697501563
 30
0.0
 10
371.990934102687
 20
-53.31983045665979
 30
0.0
  0
SPLINE
  5
28A
330
1F
100
AcDbEntity
  8
0
  6
Continuous
 62
     7
370
    15
100
AcDbSpline
210
0.0
220
0.0
230
1.0
 70
     8
 71
     3
 72
    26
 73
    22
 74
     0
 42
0.00000001
 43
0.00000001
 12
1.0
 22
0.0
 32
0.0
 13
1.0
 23
0.0
 33
0.0
 40
0.0
 40
0.0
 40
0.0
 40
0.0
 40
0.0429009321094161
 40
0.0967640023375973
 40
0.150626626003581
 40
0.2042984327818548
 40
0.2579708045915746
 40
0.3114630850532236
 40
0.3649551895656317
 40
0.4183551510715653
 40
0.4717561719747156
 40
0.5251892821890065
 40
0.5786238450117641
 40
0.6322021698909063
 40
0.685780816927739
 40
0.7395553249974005
 40
0.7933294151825875
 40
0.8472668028055265
 40
0.901204294524299
 40
0.9552007973662371
 40
1.0
 40
1.0
 40
1.0
 40
1.0
 10
238.6537642170515
 20
-52.61809007255794
 30
0.0
 10
238.6491914868217
 20
-52.59802589440657
 30
0.0
 10
238.6388775925334
 20
-52.55277069630063
 30
0.0
 10
238.4165032147509
 20
-52.49293958910366
 30
0.0
 10
238.0366290563894
 20
-52.43876201856767
 30
0.0
 10
237.4956333128503
 20
-52.39763026544211
 30
0.0
 10
236.8226972632701
 20
-52.3698371712759
 30
0.0
 10
236.0296971423598
 20
-52.3567302643087
 30
0.0
 10
235.1450423251608
 20
-52.35799253715541
 30
0.0
 10
234.1896377162782
 20
-52.37413744754613
 30
0.0
 10
233.192914860361
 20
-52.40412781773428
 30
0.0
 10
232.181393197622
 20
-52.44769437435214
 30
0.0
 10
231.1827891125273
 20
-52.50317444787866
 30
0.0
 10
230.2266528353618
 20
-52.56952956630661
 30
0.0
 10
229.3366811681136
 20
-52.64465000716455
 30
0.0
 10
228.5422546210554
 20
-52.72675115087903
 30
0.0
 10
227.8615154382298
 20
-52.81340826915635
 30
0.0
 10
227.3184759493083
 20
-52.90233299947621
 30
0.0
 10
226.9291781939533
 20
-52.99073467644674
 30
0.0
 10
226.7023705069222
 20
-53.07202698971786
 30
0.0
 10
226.6873556281811
 20
-53.12003631459436
 30
0.0
 10
226.6805470873442
 20
-53.14180628387691
 30
0.0
  0
SPLINE
  5
28B
330
1F
100
AcDbEntity
  8
0
  6
Continuous
 62
     7
370
    15
100
AcDbSpline
210
0.0
220
0.0
230
1.0
 70
     8
 71
     3
 72
    27
 73
    23
 74
     0
 42
0.00000001
 43
0.00000001
 12
1.0
 22
0.0
 32
0.0
 13
1.0
 23
0.0
 33
0.0
 40
0.0
 40
0.0
 40
0.0
 40
0.0
 40
0.0076845338896796
 40
0.0616725000453875
 40
0.115659580199155
 40
0.1696371155958075
 40
0.2236129480311291
 40
0.2774568437262623
 40
0.3313004580677189
 40
0.3849493415757082
 40
0.4385977979983214
 40
0.4920745579015445
 40
0.5455512105838612
 40
0.598950989175519
 40
0.6523513868739755
 40
0.7058007375571411
 40
0.759251065829704
 40
0.8128549213942399
 40
0.8664601170740228
 40
0.9202611393363304
 40
0.9740624561447903
 40
1.0
 40
1.0
 40
1.0
 40
1.0
 10
40.15775219992069
 20
-52.8788007888055
 30
0.0
 10
40.16114077524945
 20
-52.87459343193153
 30
0.0
 10
40.18833590707097
 20
-52.84082713969736
 30
0.0
 10
40.07308284332141
 20
-52.7775974714509
 30
0.0
 10
39.80808198267561
 20
-52.69215968051008
 30
0.0
 10
39.36173248188467
 20
-52.61232490720413
 30
0.0
 10
38.77438202368781
 20
-52.54010471436245
 30
0.0
 10
38.05152570988172
 20
-52.47788126746636
 30
0.0
 10
37.22148317906208
 20
-52.42696928963127
 30
0.0
 10
36.30312320160262
 20
-52.3892083785817
 30
0.0
 10
35.32713568714324
 20
-52.36506376315621
 30
0.0
 10
34.31846767854628
 20
-52.35569009480301
 30
0.0
 10
33.30717048387082
 20
-52.36070645294881
 30
0.0
 10
32.32136121223683
 20
-52.38054259428694
 30
0.0
 10
31.38702321973325
 20
-52.41401843366331
 30
0.0
 10
30.53285978915622
 20
-52.46081414305505
 30
0.0
 10
29.77830576506724
 20
-52.5191807532583
 30
0.0
 10
29.15050064056057
 20
-52.58800461734028
 30
0.0
 10
28.65824215301247
 20
-52.66508364628762
 30
0.0
 10
28.33413782367416
 20
-52.74859680497624
 30
0.0
 10
28.17148427905299
 20
-52.82087269016016
 30
0.0
 10
28.18545374092892
 20
-52.864633333936
 30
0.0
 10
28.18999774277476
 20
-52.87886784403086
 30
0.0
  0
SPLINE
  5
28C
330
1F
100
AcDbEntity
  8
0
  6
Continuous
 62
     7
370
    15
100
AcDbSpline
210
0.0
220
0.0
230
1.0
 70
     8
 71
     3
 72
    27
 73
    23
 74
     0
 42
0.00000001
 43
0.00000001
 12
1.0
 22
0.0
 32
0.0
 13
1.0
 23
0.0
 33
0.0
 40
0.0
 40
0.0
 40
0.0
 40
0.0
 40
0.0299802873319361
 40
0.0837860011451287
 40
0.1375927969428357
 40
0.1915513665921656
 40
0.2455107281483108
 40
0.2995068645599001
 40
0.3535007927652449
 40
0.4074008352697862
 40
0.4613004473865629
 40
0.5150172989498846
 40
0.5687335487890174
 40
0.6222613425875587
 40
0.6757888069593837
 40
0.7292000876618808
 40
0.7826124860500768
 40
0.8360287673948857
 40
0.8894481289480122
 40
0.9429891260657847
 40
0.9965323067174356
 40
1.0
 40
1.0
 40
1.0
 40
1.0
 10
-158.3529560874376
 20
-53.14138160078289
 30
0.0
 10
-158.349779412309
 20
-53.12714510766375
 30
0.0
 10
-158.3409015485643
 20
-53.08735833659072
 30
0.0
 10
-158.5164048030774
 20
-53.01479334345495
 30
0.0
 10
-158.8544268966334
 20
-52.92726958273354
 30
0.0
 10
-159.3599901842822
 20
-52.83816428572387
 30
0.0
 10
-160.0031728264391
 20
-52.75038913089522
 30
0.0
 10
-160.77360967191
 20
-52.66650696877956
 30
0.0
 10
-161.6437464253615
 20
-52.5887201197691
 30
0.0
 10
-162.5924122413979
 20
-52.51954632202753
 30
0.0
 10
-163.5887269966974
 20
-52.46055312436419
 30
0.0
 10
-164.6061452001447
 20
-52.41379220947528
 30
0.0
 10
-165.6141037493414
 20
-52.38001712497714
 30
0.0
 10
-166.5840516888629
 20
-52.36065827008812
 30
0.0
 10
-167.4899235646811
 20
-52.3555824193902
 30
0.0
 10
-168.3039540093321
 20
-52.36547814715698
 30
0.0
 10
-169.0079103501025
 20
-52.38944965130334
 30
0.0
 10
-169.5758346137245
 20
-52.42744622571116
 30
0.0
 10
-170.0042758844877
 20
-52.47768214894784
 30
0.0
 10
-170.2508035545011
 20
-52.54025482542804
 30
0.0
 10
-170.3563744447909
 20
-52.58784546937875
 30
0.0
 10
-170.3282420041108
 20
-52.61588535427733
 30
0.0
 10
-170.3265308450136
 20
-52.61759088365795
 30
0.0
  0
SPLINE
  5
28D
330
1F
100
AcDbEntity
  8
0
  6
Continuous
 62
     7
370
    15
100
AcDbSpline
210
0.0
220
0.0
230
1.0
 70
     8
 71
     3
 72
    26
 73
    22
 74
     0
 42
0.00000001
 43
0.00000001
 12
1.0
 22
0.0
 32
0.0
 13
1.0
 23
0.0
 33
0.0
 40
0.0
 40
0.0
 40
0.0
 40
0.0
 40
0.0522064626230197
 40
0.106802170798225
 40
0.1613986626691751
 40
0.2162019508267917
 40
0.271005389618724
 40
0.3259808274755057
 40
0.3809554244623786
 40
0.4359925260114909
 40
0.4910284618731589
 40
0.545990427571598
 40
0.6009517851471137
 40
0.6557392083027193
 40
0.7105245354177104
 40
0.7651123513925981
 40
0.8196983037492965
 40
0.874150008956787
 40
0.9286007630196158
 40
0.983033812441816
 40
1.0
 40
1.0
 40
1.0
 40
1.0
 10
-303.6543577025804
 20
-53.31983045665981
 30
0.0
 10
-303.6883869680188
 20
-53.30302761483554
 30
0.0
 10
-303.7580028591726
 20
-53.26865294372691
 30
0.0
 10
-304.0678089849239
 20
-53.20288621291724
 30
0.0
 10
-304.5252837973816
 20
-53.12809159258193
 30
0.0
 10
-305.1340135254475
 20
-53.04597743256822
 30
0.0
 10
-305.8685556073837
 20
-52.95928467831384
 30
0.0
 10
-306.7136259585923
 20
-52.87041425327946
 30
0.0
 10
-307.6417937566175
 20
-52.78185079040954
 30
0.0
 10
-308.628967050736
 20
-52.69629446112101
 30
0.0
 10
-309.6449429912493
 20
-52.61600226201246
 30
0.0
 10
-310.6609942448777
 20
-52.54351539185191
 30
0.0
 10
-311.6476790759802
 20
-52.48057259416379
 30
0.0
 10
-312.5755274702321
 20
-52.42928629529732
 30
0.0
 10
-313.4199781147024
 20
-52.39061341894372
 30
0.0
 10
-314.154430411976
 20
-52.36603897576184
 30
0.0
 10
-314.7615657453486
 20
-52.35570744086782
 30
0.0
 10
-315.223810123273
 20
-52.36011832512467
 30
0.0
 10
-315.5192581801207
 20
-52.3796498289428
 30
0.0
 10
-315.6515753217724
 20
-52.40312243928544
 30
0.0
 10
-315.6303167125962
 20
-52.42370184140521
 30
0.0
 10
-315.6252651523027
 20
-52.42859200565578
 30
0.0
  0
SPLINE
  5
28E
330
1F
100
AcDbEntity
  8
0
  6
Continuous
 62
     7
370
    15
100
AcDbSpline
210
0.0
220
0.0
230
1.0
 70
     8
 71
     3
 72
    23
 73
    19
 74
     0
 42
0.00000001
 43
0.00000001
 12
1.0
 22
0.0
 32
0.0
 13
1.0
 23
0.0
 33
0.0
 40
0.0
 40
0.0
 40
0.0
 40
0.0
 40
0.0648771204040637
 40
0.1316320400811704
 40
0.1966352805569525
 40
0.2635139590514866
 40
0.3286877249765461
 40
0.3957446546317758
 40
0.4610576261537631
 40
0.5282656511455094
 40
0.5935608672368654
 40
0.660760016945195
 40
0.7258934433662808
 40
0.7929284155713324
 40
0.8578259794540762
 40
0.9246177981383196
 40
0.9893107591908663
 40
1.0
 40
1.0
 40
1.0
 40
1.0
 10
-357.8226118396196
 20
-53.31983045665981
 30
0.0
 10
-358.0188899565327
 20
-53.30244777005443
 30
0.0
 10
-358.4171272517707
 20
-53.2671792734611
 30
0.0
 10
-359.1736674640598
 20
-53.20029981119798
 30
0.0
 10
-360.0310187831445
 20
-53.12469224123274
 30
0.0
 10
-360.9632542359442
 20
-53.04263858790012
 30
0.0
 10
-361.9570427861663
 20
-52.95540899399197
 30
0.0
 10
-362.9682904912484
 20
-52.86685342717372
 30
0.0
 10
-363.9855951635925
 20
-52.77801965647168
 30
0.0
 10
-364.9618176953072
 20
-52.69296454439676
 30
0.0
 10
-365.8861128123712
 20
-52.61263754018623
 30
0.0
 10
-366.7146863621792
 20
-52.54078848523147
 30
0.0
 10
-367.4394464524407
 20
-52.47805937457974
 30
0.0
 10
-368.0245632655871
 20
-52.42750379052019
 30
0.0
 10
-368.4703476672822
 20
-52.38902709197166
 30
0.0
 10
-368.7357224060063
 20
-52.36615091044079
 30
0.0
 10
-368.8502436796388
 20
-52.35628666784038
 30
0.0
 10
-368.823700815425
 20
-52.3585682889489
 30
0.0
 10
-368.8199370215806
 20
-52.35889182417156
 30
0.0
  0
SPLINE
  5
28F
330
1F
100
AcDbEntity
  8
0
  6
Continuous
 62
     7
370
    15
100
AcDbSpline
210
0.0
220
0.0
230
1.0
 70
    24
 71
     3
 72
    11
 73
     7
 74
     0
 42
0.00000001
 43
0.00000001
 12
1.0
 22
0.0
 32
0.0
 13
1.0
 23
0.0
 33
0.0
 40
0.0
 40
0.0
 40
0.0
 40
0.0
 40
0.0202051898151249
 40
0.2756730991124138
 40
0.6360693773230929
 40
1.0
 40
1.0
 40
1.0
 40
1.0
 10
25.16828858748344
 20
-33.1956856044984
 30
0.0
 10
25.16828858748344
 20
-33.19431446528498
 30
0.0
 10
25.16828858748344
 20
-33.17560708367922
 30
0.0
 10
25.16828858748344
 20
-33.26074625001949
 30
0.0
 10
25.16828858748345
 20
-33.49830900080139
 30
0.0
 10
25.16828858748344
 20
-33.82878872918685
 30
0.0
 10
25.16828858748344
 20
-33.99483487932442
 30
0.0
  0
SPLINE
  5
290
330
1F
100
AcDbEntity
  8
0
  6
Continuous
 62
     7
370
    15
100
AcDbSpline
210
0.0
220
0.0
230
1.0
 70
    24
 71
     3
 72
    11
 73
     7
 74
     0
 42
0.00000001
 43
0.00000001
 12
1.0
 22
0.0
 32
0.0
 13
1.0
 23
0.0
 33
0.0
 40
0.0
 40
0.0
 40
0.0
 40
0.0
 40
0.3606672480359183
 40
0.7243174015490932
 40
0.9733627175060876
 40
1.0
 40
1.0
 40
1.0
 40
1.0
 10
43.16828781262306
 20
-33.99483487932445
 30
0.0
 10
43.16828781262306
 20
-33.83024411937679
 30
0.0
 10
43.16828781262306
 20
-33.49970134840582
 30
0.0
 10
43.16828781262306
 20
-33.26205667294843
 30
0.0
 10
43.16828781262306
 20
-33.17745507239159
 30
0.0
 10
43.16828781262306
 20
-33.19497614259409
 30
0.0
 10
43.16828781262306
 20
-33.19666908113719
 30
0.0
  0
SPLINE
  5
291
330
1F
100
AcDbEntity
  8
0
  6
Continuous
 62
     7
370
    15
100
AcDbSpline
210
0.0
220
0.0
230
1.0
 70
     8
 71
     3
 72
    15
 73
    11
 74
     0
 42
0.00000001
 43
0.00000001
 12
1.0
 22
0.0
 32
0.0
 13
1.0
 23
0.0
 33
0.0
 40
0.0
 40
0.0
 40
0.0
 40
0.0
 40
0.1323053784329828
 40
0.2645725134370733
 40
0.3998000083633915
 40
0.5350026174256817
 40
0.6501937611668985
 40
0.7654022720477726
 40
0.882689758230936
 40
1.0
 40
1.0
 40
1.0
 40
1.0
 10
34.16828820005329
 20
-33.99483487932445
 30
0.0
 10
34.55712373134112
 20
-33.87246192961393
 30
0.0
 10
35.33468239936285
 20
-33.62775140261137
 30
0.0
 10
36.53207523467214
 20
-33.36448030437894
 30
0.0
 10
37.75201120917105
 20
-33.20615034539731
 30
0.0
 10
38.92777612629693
 20
-33.17481024439797
 30
0.0
 10
40.04000350324468
 20
-33.25614347843583
 30
0.0
 10
41.08968363352772
 20
-33.42282213559969
 30
0.0
 10
42.13461127626619
 20
-33.6673049188862
 30
0.0
 10
42.82370668680465
 20
-33.88565116610521
 30
0.0
 10
43.16828781262306
 20
-33.99483487932445
 30
0.0
  0
SPLINE
  5
292
330
1F
100
AcDbEntity
  8
0
  6
Continuous
 62
     7
370
    15
100
AcDbSpline
210
0.0
220
0.0
230
1.0
 70
     8
 71
     3
 72
    15
 73
    11
 74
     0
 42
0.00000001
 43
0.00000001
 12
1.0
 22
0.0
 32
0.0
 13
1.0
 23
0.0
 33
0.0
 40
0.0
 40
0.0
 40
0.0
 40
0.0
 40
0.1323067423269739
 40
0.2645738547553093
 40
0.399801355393907
 40
0.5350040083859542
 40
0.6501937281113511
 40
0.7654022249183713
 40
0.8826897347867916
 40
1.0
 40
1.0
 40
1.0
 40
1.0
 10
25.16828858748344
 20
-33.99483487932445
 30
0.0
 10
25.55712302260475
 20
-33.87246217051565
 30
0.0
 10
26.33467542509235
 20
-33.62775340725111
 30
0.0
 10
27.53207568928487
 20
-33.36447993883279
 30
0.0
 10
28.7520125643291
 20
-33.20615057350535
 30
0.0
 10
29.92776656124944
 20
-33.17480978804397
 30
0.0
 10
31.04001250788183
 20
-33.25614436266305
 30
0.0
 10
32.08968238526658
 20
-33.42282211857395
 30
0.0
 10
33.13461175281332
 20
-33.66730492939893
 30
0.0
 10
33.82370710418299
 20
-33.88565116968584
 30
0.0
 10
34.16828820005329
 20
-33.99483487932445
 30
0.0
  0
LINE
  5
293
330
1F
100
AcDbEntity
  8
0
  6
Continuous
 62
     7
370
    15
100
AcDbLine
 10
25.9182882448
 20
-32.7579639944
 30
0.0
 11
42.4182881553
 21
-32.7579639944
 31
0.0
  0
LINE
  5
294
330
1F
100
AcDbEntity
  8
0
  6
Continuous
 62
     7
370
    15
100
AcDbLine
 10
34.1682882001
 20
-33.9948348793
 30
0.0
 11
34.1682882001
 21
-41.921105245
 31
0.0
  0
SPLINE
  5
295
330
1F
100
AcDbEntity
  8
0
  6
Continuous
 62
     7
370
    15
100
AcDbSpline
210
0.0
220
0.0
230
1.0
 70
     8
 71
     3
 72
    15
 73
    11
 74
     0
 42
0.00000001
 43
0.00000001
 12
1.0
 22
0.0
 32
0.0
 13
1.0
 23
0.0
 33
0.0
 40
0.0
 40
0.0
 40
0.0
 40
0.0
 40
0.1323053784329888
 40
0.2645725134370783
 40
0.3998000083633956
 40
0.5350026174256849
 40
0.6501937611669008
 40
0.765402272047774
 40
0.8826897582309365
 40
0.9999999999999999
 40
0.9999999999999999
 40
0.9999999999999999
 40
0.9999999999999999
 10
34.16828820005329
 20
-41.92110524503948
 30
0.0
 10
33.77945266876544
 20
-42.04347819474999
 30
0.0
 10
33.00189400074367
 20
-42.28818872175258
 30
0.0
 10
31.80450116543436
 20
-42.5514598199849
 30
0.0
 10
30.58456519093545
 20
-42.70978977896664
 30
0.0
 10
29.40880027380957
 20
-42.7411298799659
 30
0.0
 10
28.29657289686181
 20
-42.65979664592817
 30
0.0
 10
27.24689276657879
 20
-42.4931179887642
 30
0.0
 10
26.2019651238403
 20
-42.24863520547773
 30
0.0
 10
25.51286971330185
 20
-42.03028895825875
 30
0.0
 10
25.16828858748344
 20
-41.92110524503948
 30
0.0
  0
LINE
  5
296
330
1F
100
AcDbEntity
  8
0
  6
Continuous
 62
     7
370
    15
100
AcDbLine
 10
25.1682885875
 20
-33.9948348793
 30
0.0
 11
25.1682885875
 21
-41.921105245
 31
0.0
  0
LINE
  5
297
330
1F
100
AcDbEntity
  8
0
  6
Continuous
 62
     7
370
    15
100
AcDbLine
 10
43.1682878126
 20
-33.9948348793
 30
0.0
 11
43.1682878126
 21
-41.921105245
 31
0.0
  0
SPLINE
  5
298
330
1F
100
AcDbEntity
  8
0
  6
Continuous
 62
     7
370
    15
100
AcDbSpline
210
0.0
220
0.0
230
1.0
 70
     8
 71
     3
 72
    15
 73
    11
 74
     0
 42
0.00000001
 43
0.00000001
 12
1.0
 22
0.0
 32
0.0
 13
1.0
 23
0.0
 33
0.0
 40
0.0
 40
0.0
 40
0.0
 40
0.0
 40
0.1323067423269749
 40
0.2645738547553111
 40
0.3998013553939098
 40
0.535004008385958
 40
0.6501937281113557
 40
0.7654022249183766
 40
0.8826897347867978
 40
1.0
 40
1.0
 40
1.0
 40
1.0
 10
43.16828781262306
 20
-41.92110524503948
 30
0.0
 10
42.77945337750175
 20
-42.04347795384827
 30
0.0
 10
42.00190097501414
 20
-42.28818671711282
 30
0.0
 10
40.80450071082163
 20
-42.55146018553108
 30
0.0
 10
39.5845638357774
 20
-42.70978955085861
 30
0.0
 10
38.40880983885707
 20
-42.74113033631996
 30
0.0
 10
37.29656389222468
 20
-42.65979576170084
 30
0.0
 10
36.24689401483992
 20
-42.49311800579
 30
0.0
 10
35.2019646472932
 20
-42.24863519496505
 30
0.0
 10
34.51286929592357
 20
-42.03028895467806
 30
0.0
 10
34.16828820005329
 20
-41.92110524503948
 30
0.0
  0
SPLINE
  5
299
330
1F
100
AcDbEntity
  8
0
  6
Continuous
 62
     7
370
    15
100
AcDbSpline
210
0.0
220
0.0
230
1.0
 70
    24
 71
     3
 72
    11
 73
     7
 74
     0
 42
0.00000001
 43
0.00000001
 12
1.0
 22
0.0
 32
0.0
 13
1.0
 23
0.0
 33
0.0
 40
0.0
 40
0.0
 40
0.0
 40
0.0
 40
0.0202051898151249
 40
0.2756730991124138
 40
0.6360693773230929
 40
1.0
 40
1.0
 40
1.0
 40
1.0
 10
43.16828781262306
 20
-42.72025451986553
 30
0.0
 10
43.16828781262306
 20
-42.721625659079
 30
0.0
 10
43.16828781262306
 20
-42.74033304068475
 30
0.0
 10
43.16828781262306
 20
-42.65519387434438
 30
0.0
 10
43.16828781262305
 20
-42.41763112356267
 30
0.0
 10
43.16828781262306
 20
-42.08715139517702
 30
0.0
 10
43.16828781262306
 20
-41.92110524503945
 30
0.0
  0
SPLINE
  5
29A
330
1F
100
AcDbEntity
  8
0
  6
Continuous
 62
     7
370
    15
100
AcDbSpline
210
0.0
220
0.0
230
1.0
 70
    24
 71
     3
 72
    11
 73
     7
 74
     0
 42
0.00000001
 43
0.00000001
 12
1.0
 22
0.0
 32
0.0
 13
1.0
 23
0.0
 33
0.0
 40
0.0
 40
0.0
 40
0.0
 40
0.0
 40
0.3606672480359183
 40
0.7243174015490932
 40
0.9733627175060876
 40
1.0
 40
1.0
 40
1.0
 40
1.0
 10
25.16828858748344
 20
-41.92110524503948
 30
0.0
 10
25.16828858748344
 20
-42.0856960049871
 30
0.0
 10
25.16828858748344
 20
-42.41623877595801
 30
0.0
 10
25.16828858748344
 20
-42.65388345141555
 30
0.0
 10
25.16828858748344
 20
-42.73848505197233
 30
0.0
 10
25.16828858748344
 20
-42.72096398176983
 30
0.0
 10
25.16828858748344
 20
-42.71927104322673
 30
0.0
  0
LINE
  5
29B
330
1F
100
AcDbEntity
  8
0
  6
Continuous
 62
     7
370
    15
100
AcDbLine
 10
34.1682882001
 20
2.3420341221
 30
0.0
 11
40.1682882522
 21
2.3420341221
 31
0.0
  0
LINE
  5
29C
330
1F
100
AcDbEntity
  8
0
  6
Continuous
 62
     7
370
    15
100
AcDbLine
 10
28.1682881479
 20
2.3420341221
 30
0.0
 11
34.1682882001
 21
2.3420341221
 31
0.0
  0
SPLINE
  5
29D
330
1F
100
AcDbEntity
  8
0
  6
Continuous
 62
     7
370
    15
100
AcDbSpline
210
0.0
220
0.0
230
1.0
 70
     8
 71
     3
 72
    11
 73
     7
 74
     0
 42
0.00000001
 43
0.00000001
 12
1.0
 22
0.0
 32
0.0
 13
1.0
 23
0.0
 33
0.0
 40
0.0
 40
0.0
 40
0.0
 40
0.0
 40
0.1541716666589962
 40
0.4293167234571508
 40
0.7121016670176221
 40
0.9999999999999999
 40
0.9999999999999999
 40
0.9999999999999999
 40
0.9999999999999999
 10
-356.8536489318285
 20
-53.50618437855005
 30
0.0
 10
-356.8497358464361
 20
-53.50731983928589
 30
0.0
 10
-356.8388392074123
 20
-53.51048171911295
 30
0.0
 10
-357.002421721818
 20
-53.46280934299899
 30
0.0
 10
-357.3109574593605
 20
-53.38361516730033
 30
0.0
 10
-357.651044639128
 20
-53.34121865279567
 30
0.0
 10
-357.8226118396196
 20
-53.31983045665981
 30
0.0
  0
LINE
  5
29E
330
1F
100
AcDbEntity
  8
0
  6
Continuous
 62
     7
370
    15
100
AcDbLine
 10
-303.663089783
 20
-53.3435084018
 30
0.0
 11
-303.6543577026
 21
-53.3198304567
 31
0.0
  0
LINE
  5
29F
330
1F
100
AcDbEntity
  8
0
  6
Continuous
 62
     7
370
    15
100
AcDbLine
 10
371.9909341027
 20
-53.3198304567
 30
0.0
 11
371.9992489506
 21
-53.3434636983
 31
0.0
  0
SPLINE
  5
2A0
330
1F
100
AcDbEntity
  8
0
  6
Continuous
 62
     7
370
    15
100
AcDbSpline
210
0.0
220
0.0
230
1.0
 70
     8
 71
     3
 72
    11
 73
     7
 74
     0
 42
0.00000001
 43
0.00000001
 12
1.0
 22
0.0
 32
0.0
 13
1.0
 23
0.0
 33
0.0
 40
0.0
 40
0.0
 40
0.0
 40
0.0
 40
0.2840121618367642
 40
0.576186665628477
 40
0.8607624729239515
 40
0.9999999999999999
 40
0.9999999999999999
 40
0.9999999999999999
 40
0.9999999999999999
 10
426.1591882397261
 20
-53.31983045665981
 30
0.0
 10
425.9897552160084
 20
-53.34089517026113
 30
0.0
 10
425.6460197634421
 20
-53.38362998490383
 30
0.0
 10
425.3332897950421
 20
-53.46429403677844
 30
0.0
 10
425.1713622688947
 20
-53.51174311632194
 30
0.0
 10
425.18556066231
 20
-53.50755900552252
 30
0.0
 10
425.190225331935
 20
-53.50618437855007
 30
0.0
  0
LINE
  5
2A1
330
1F
100
AcDbEntity
  8
0
  6
Continuous
 62
     7
370
    15
100
AcDbLine
 10
-349.4593053173
 20
-85.6579654011
 30
0.0
 11
-315.6438021968
 21
-85.6579654011
 31
0.0
  0
LINE
  5
2A2
330
1F
100
AcDbEntity
  8
0
  6
Continuous
 62
     7
370
    15
100
AcDbLine
 10
-303.6438076805
 20
-85.6579654011
 30
0.0
 11
-170.3317164491
 21
-85.6579654011
 31
0.0
  0
LINE
  5
2A3
330
1F
100
AcDbEntity
  8
0
  6
Continuous
 62
     7
370
    15
100
AcDbLine
 10
-158.3317070316
 20
-85.6579654011
 30
0.0
 11
28.1682881479
 21
-85.6579654011
 31
0.0
  0
LINE
  5
2A4
330
1F
100
AcDbEntity
  8
0
  6
Continuous
 62
     7
370
    15
100
AcDbLine
 10
40.1682882522
 20
-85.6579654011
 30
0.0
 11
226.6682834317
 21
-85.6579654011
 31
0.0
  0
LINE
  5
2A5
330
1F
100
AcDbEntity
  8
0
  6
Continuous
 62
     7
370
    15
100
AcDbLine
 10
238.6682928492
 20
-85.6579654011
 30
0.0
 11
371.9803840806
 21
-85.6579654011
 31
0.0
  0
LINE
  5
2A6
330
1F
100
AcDbEntity
  8
0
  6
Continuous
 62
     7
370
    15
100
AcDbLine
 10
383.9803785969
 20
-85.6579654011
 30
0.0
 11
417.7958817174
 21
-85.6579654011
 31
0.0
  0
LINE
  5
2A7
330
1F
100
AcDbEntity
  8
0
  6
Continuous
 62
     7
370
    15
100
AcDbLine
 10
220.6682861735
 20
-43.1579761299
 30
0.0
 11
244.6682901074
 21
-43.1579761299
 31
0.0
  0
LINE
  5
2A8
330
1F
100
AcDbEntity
  8
0
  6
Continuous
 62
     7
370
    15
100
AcDbLine
 10
-176.3317137073
 20
-43.1579761299
 30
0.0
 11
-152.3317097734
 21
-43.1579761299
 31
0.0
  0
LINE
  5
2A9
330
1F
100
AcDbEntity
  8
0
  6
Continuous
 62
     7
370
    15
100
AcDbLine
 10
243.060588925
 20
-33.9948348793
 30
0.0
 11
243.060588925
 21
-41.921105245
 31
0.0
  0
SPLINE
  5
2AA
330
1F
100
AcDbEntity
  8
0
  6
Continuous
 62
     7
370
    15
100
AcDbSpline
210
0.0
220
0.0
230
1.0
 70
     8
 71
     3
 72
    16
 73
    12
 74
     0
 42
0.00000001
 43
0.00000001
 12
1.0
 22
0.0
 32
0.0
 13
1.0
 23
0.0
 33
0.0
 40
0.0
 40
0.0
 40
0.0
 40
0.0
 40
0.2499999999999966
 40
0.2499999999999966
 40
0.4999999999999932
 40
0.4999999999999932
 40
0.6249999999999916
 40
0.6249999999999916
 40
0.7499999999999898
 40
0.7499999999999898
 40
1.0
 40
1.0
 40
1.0
 40
1.0
 10
243.0605930454621
 20
-41.92110869819226
 30
0.0
 10
242.6363765383387
 20
-42.16603021277465
 30
0.0
 10
242.209067132528
 20
-42.36788993281118
 30
0.0
 10
241.3455364488296
 20
-42.64753120440826
 30
0.0
 10
240.909248918668
 20
-42.72439033913655
 30
0.0
 10
240.2465976833575
 20
-42.72523450030575
 30
0.0
 10
240.0246746255766
 20
-42.70644541363566
 30
0.0
 10
239.5856874065815
 20
-42.63317792155483
 30
0.0
 10
239.3676655581335
 20
-42.57877386989139
 30
0.0
 10
238.7174815939136
 20
-42.36869481153943
 30
0.0
 10
238.2891859346856
 20
-42.16633551837207
 30
0.0
 10
237.8644406227554
 20
-41.92110869819204
 30
0.0
  0
LINE
  5
2AB
330
1F
100
AcDbEntity
  8
0
  6
Continuous
 62
     7
370
    15
100
AcDbLine
 10
237.8644348075
 20
-33.9948348793
 30
0.0
 11
237.8644348075
 21
-41.921105245
 31
0.0
  0
SPLINE
  5
2AC
330
1F
100
AcDbEntity
  8
0
  6
Continuous
 62
     7
370
    15
100
AcDbSpline
210
0.0
220
0.0
230
1.0
 70
     8
 71
     3
 72
    16
 73
    12
 74
     0
 42
0.00000001
 43
0.00000001
 12
1.0
 22
0.0
 32
0.0
 13
1.0
 23
0.0
 33
0.0
 40
0.0
 40
0.0
 40
0.0
 40
0.0
 40
0.2500000000000049
 40
0.2500000000000049
 40
0.5000000000000098
 40
0.5000000000000098
 40
0.6250000000000073
 40
0.6250000000000073
 40
0.7500000000000049
 40
0.7500000000000049
 40
1.0
 40
1.0
 40
1.0
 40
1.0
 10
237.8644406227553
 20
-33.99482925656258
 30
0.0
 10
238.2886571298788
 20
-33.74990774198022
 30
0.0
 10
238.7159665356895
 20
-33.54804802194366
 30
0.0
 10
239.5794972193878
 20
-33.26840675034667
 30
0.0
 10
240.0157847495496
 20
-33.19154761561832
 30
0.0
 10
240.6784359848601
 20
-33.19070345444905
 30
0.0
 10
240.9003590426409
 20
-33.20949254111921
 30
0.0
 10
241.339346261636
 20
-33.28276003319999
 30
0.0
 10
241.557368110084
 20
-33.3371640848634
 30
0.0
 10
242.2075520743039
 20
-33.54724314321539
 30
0.0
 10
242.6358477335319
 20
-33.74960243638275
 30
0.0
 10
243.0605930454622
 20
-33.9948292565628
 30
0.0
  0
SPLINE
  5
2AD
330
1F
100
AcDbEntity
  8
0
  6
Continuous
 62
     7
370
    15
100
AcDbSpline
210
0.0
220
0.0
230
1.0
 70
     8
 71
     3
 72
    16
 73
    12
 74
     0
 42
0.00000001
 43
0.00000001
 12
1.0
 22
0.0
 32
0.0
 13
1.0
 23
0.0
 33
0.0
 40
0.0
 40
0.0
 40
0.0
 40
0.0
 40
0.2499999999999941
 40
0.2499999999999941
 40
0.4999999999999882
 40
0.4999999999999882
 40
0.6249999999999921
 40
0.6249999999999921
 40
0.7499999999999961
 40
0.7499999999999961
 40
1.0
 40
1.0
 40
1.0
 40
1.0
 10
222.2759833546356
 20
-33.99482925656292
 30
0.0
 10
222.698560964018
 20
-33.75085396003244
 30
0.0
 10
223.131474912423
 20
-33.54616000454147
 30
0.0
 10
223.999417583013
 20
-33.26630623221597
 30
0.0
 10
224.4357376508979
 20
-33.19089765792485
 30
0.0
 10
225.0943401192845
 20
-33.19102379715758
 30
0.0
 10
225.3145531911933
 20
-33.20971526335115
 30
0.0
 10
225.7563187127784
 20
-33.28389012040828
 30
0.0
 10
225.9758722020269
 20
-33.33906636872894
 30
0.0
 10
226.6266737640844
 20
-33.55040340880453
 30
0.0
 10
227.0521779175678
 20
-33.75236647317406
 30
0.0
 10
227.4721357773421
 20
-33.99482925656297
 30
0.0
  0
SPLINE
  5
2AE
330
1F
100
AcDbEntity
  8
0
  6
Continuous
 62
     7
370
    15
100
AcDbSpline
210
0.0
220
0.0
230
1.0
 70
     8
 71
     3
 72
    16
 73
    12
 74
     0
 42
0.00000001
 43
0.00000001
 12
1.0
 22
0.0
 32
0.0
 13
1.0
 23
0.0
 33
0.0
 40
0.0
 40
0.0
 40
0.0
 40
0.0
 40
0.2500000000000059
 40
0.2500000000000059
 40
0.5000000000000118
 40
0.5000000000000118
 40
0.6250000000000108
 40
0.6250000000000108
 40
0.7500000000000099
 40
0.7500000000000099
 40
1.0
 40
1.0
 40
1.0
 40
1.0
 10
227.4721357773421
 20
-33.99482925656258
 30
0.0
 10
228.3205687915889
 20
-33.74990774198022
 30
0.0
 10
229.1751876032103
 20
-33.54804802194366
 30
0.0
 10
230.902248970607
 20
-33.26840675034667
 30
0.0
 10
231.7748240309304
 20
-33.19154761561832
 30
0.0
 10
233.1001265015513
 20
-33.19070345444911
 30
0.0
 10
233.5439726171132
 20
-33.20949254111913
 30
0.0
 10
234.4219470551033
 20
-33.28276003320002
 30
0.0
 10
234.8579907519993
 20
-33.33716408486345
 30
0.0
 10
236.158358680439
 20
-33.54724314321545
 30
0.0
 10
237.0149499988948
 20
-33.74960243638278
 30
0.0
 10
237.8644406227554
 20
-33.9948292565628
 30
0.0
  0
LINE
  5
2AF
330
1F
100
AcDbEntity
  8
0
  6
Continuous
 62
     7
370
    15
100
AcDbLine
 10
225.5235762288
 20
-32.7579639944
 30
0.0
 11
240.9182936837
 21
-32.7579639944
 31
0.0
  0
LINE
  5
2B0
330
1F
100
AcDbEntity
  8
0
  6
Continuous
 62
     7
370
    15
100
AcDbLine
 10
224.4182825972
 20
-32.7579639944
 30
0.0
 11
225.5235762288
 21
-32.7579639944
 31
0.0
  0
SPLINE
  5
2B1
330
1F
100
AcDbEntity
  8
0
  6
Continuous
 62
     7
370
    15
100
AcDbSpline
210
0.0
220
0.0
230
1.0
 70
     8
 71
     3
 72
    16
 73
    12
 74
     0
 42
0.00000001
 43
0.00000001
 12
1.0
 22
0.0
 32
0.0
 13
1.0
 23
0.0
 33
0.0
 40
0.0
 40
0.0
 40
0.0
 40
0.0
 40
0.2500000000000019
 40
0.2500000000000019
 40
0.5000000000000039
 40
0.5000000000000039
 40
0.6250000000000049
 40
0.6250000000000049
 40
0.7500000000000058
 40
0.7500000000000058
 40
1.0
 40
1.0
 40
1.0
 40
1.0
 10
237.8644406227554
 20
-41.92110869819224
 30
0.0
 10
237.0160076085086
 20
-42.16603021277459
 30
0.0
 10
236.1613887968871
 20
-42.3678899328111
 30
0.0
 10
234.4343274294904
 20
-42.64753120440823
 30
0.0
 10
233.5617523691672
 20
-42.7243903391365
 30
0.0
 10
232.2364498985463
 20
-42.72523450030569
 30
0.0
 10
231.7926037829844
 20
-42.70644541363563
 30
0.0
 10
230.9146293449943
 20
-42.6331779215548
 30
0.0
 10
230.4785856480982
 20
-42.57877386989139
 30
0.0
 10
229.1782177196584
 20
-42.36869481153938
 30
0.0
 10
228.3216264012026
 20
-42.16633551837207
 30
0.0
 10
227.4721357773421
 20
-41.92110869819204
 30
0.0
  0
LINE
  5
2B2
330
1F
100
AcDbEntity
  8
0
  6
Continuous
 62
     7
370
    15
100
AcDbLine
 10
227.4721414734
 20
-33.9948348793
 30
0.0
 11
227.4721414734
 21
-41.921105245
 31
0.0
  0
SPLINE
  5
2B3
330
1F
100
AcDbEntity
  8
0
  6
Continuous
 62
     7
370
    15
100
AcDbSpline
210
0.0
220
0.0
230
1.0
 70
     8
 71
     3
 72
    16
 73
    12
 74
     0
 42
0.00000001
 43
0.00000001
 12
1.0
 22
0.0
 32
0.0
 13
1.0
 23
0.0
 33
0.0
 40
0.0
 40
0.0
 40
0.0
 40
0.0
 40
0.2499999999999922
 40
0.2499999999999922
 40
0.4999999999999843
 40
0.4999999999999843
 40
0.6249999999999873
 40
0.6249999999999873
 40
0.7499999999999902
 40
0.7499999999999902
 40
1.0
 40
1.0
 40
1.0
 40
1.0
 10
222.2759833546355
 20
-41.92110869819188
 30
0.0
 10
222.698560964018
 20
-42.16508399472232
 30
0.0
 10
223.131474912423
 20
-42.3697779502133
 30
0.0
 10
223.999417583013
 20
-42.64963172253883
 30
0.0
 10
224.4357376508979
 20
-42.72504029682989
 30
0.0
 10
225.0943401192845
 20
-42.72491415759716
 30
0.0
 10
225.3145531911933
 20
-42.70622269140365
 30
0.0
 10
225.7563187127784
 20
-42.63204783434652
 30
0.0
 10
225.9758722020269
 20
-42.57687158602582
 30
0.0
 10
226.6266737640845
 20
-42.36553454595024
 30
0.0
 10
227.052177917568
 20
-42.16357148158076
 30
0.0
 10
227.4721357773421
 20
-41.92110869819182
 30
0.0
  0
LINE
  5
2B4
330
1F
100
AcDbEntity
  8
0
  6
Continuous
 62
     7
370
    15
100
AcDbLine
 10
222.2759873559
 20
-33.9948348793
 30
0.0
 11
222.2759873559
 21
-41.921105245
 31
0.0
  0
LINE
  5
2B5
330
1F
100
AcDbEntity
  8
0
  6
Continuous
 62
     7
370
    15
100
AcDbLine
 10
-153.9394109558
 20
-33.9948348793
 30
0.0
 11
-153.9394109558
 21
-41.921105245
 31
0.0
  0
SPLINE
  5
2B6
330
1F
100
AcDbEntity
  8
0
  6
Continuous
 62
     7
370
    15
100
AcDbSpline
210
0.0
220
0.0
230
1.0
 70
     8
 71
     3
 72
    16
 73
    12
 74
     0
 42
0.00000001
 43
0.00000001
 12
1.0
 22
0.0
 32
0.0
 13
1.0
 23
0.0
 33
0.0
 40
0.0
 40
0.0
 40
0.0
 40
0.0
 40
0.2500000000000069
 40
0.2500000000000069
 40
0.5000000000000138
 40
0.5000000000000138
 40
0.6250000000000103
 40
0.6250000000000103
 40
0.7500000000000069
 40
0.7500000000000069
 40
1.0
 40
1.0
 40
1.0
 40
1.0
 10
-153.9394069545339
 20
-41.92110869819194
 30
0.0
 10
-154.3619845639163
 20
-42.16508399472235
 30
0.0
 10
-154.7948985123214
 20
-42.36977795021332
 30
0.0
 10
-155.6628411829113
 20
-42.64963172253889
 30
0.0
 10
-156.0991612507962
 20
-42.72504029682994
 30
0.0
 10
-156.7577637191829
 20
-42.72491415759722
 30
0.0
 10
-156.9779767910916
 20
-42.70622269140365
 30
0.0
 10
-157.4197423126768
 20
-42.6320478343466
 30
0.0
 10
-157.6392958019254
 20
-42.57687158602585
 30
0.0
 10
-158.2900973639828
 20
-42.36553454595033
 30
0.0
 10
-158.7156015174663
 20
-42.16357148158082
 30
0.0
 10
-159.1355593772405
 20
-41.92110869819191
 30
0.0
  0
LINE
  5
2B7
330
1F
100
AcDbEntity
  8
0
  6
Continuous
 62
     7
370
    15
100
AcDbLine
 10
-159.1355650733
 20
-33.9948348793
 30
0.0
 11
-159.1355650733
 21
-41.921105245
 31
0.0
  0
SPLINE
  5
2B8
330
1F
100
AcDbEntity
  8
0
  6
Continuous
 62
     7
370
    15
100
AcDbSpline
210
0.0
220
0.0
230
1.0
 70
     8
 71
     3
 72
    16
 73
    12
 74
     0
 42
0.00000001
 43
0.00000001
 12
1.0
 22
0.0
 32
0.0
 13
1.0
 23
0.0
 33
0.0
 40
0.0
 40
0.0
 40
0.0
 40
0.0
 40
0.2500000000000069
 40
0.2500000000000069
 40
0.5000000000000138
 40
0.5000000000000138
 40
0.6250000000000103
 40
0.6250000000000103
 40
0.7500000000000069
 40
0.7500000000000069
 40
1.0
 40
1.0
 40
1.0
 40
1.0
 10
-153.9394069545339
 20
-33.99482925656297
 30
0.0
 10
-154.3619845639163
 20
-33.75085396003249
 30
0.0
 10
-154.7948985123214
 20
-33.54616000454153
 30
0.0
 10
-155.6628411829113
 20
-33.26630623221602
 30
0.0
 10
-156.0991612507962
 20
-33.19089765792494
 30
0.0
 10
-156.7577637191829
 20
-33.19102379715758
 30
0.0
 10
-156.9779767910916
 20
-33.2097152633512
 30
0.0
 10
-157.4197423126768
 20
-33.28389012040822
 30
0.0
 10
-157.6392958019254
 20
-33.33906636872894
 30
0.0
 10
-158.2900973639829
 20
-33.5504034088045
 30
0.0
 10
-158.7156015174664
 20
-33.75236647317398
 30
0.0
 10
-159.1355593772406
 20
-33.99482925656299
 30
0.0
  0
SPLINE
  5
2B9
330
1F
100
AcDbEntity
  8
0
  6
Continuous
 62
     7
370
    15
100
AcDbSpline
210
0.0
220
0.0
230
1.0
 70
     8
 71
     3
 72
    16
 73
    12
 74
     0
 42
0.00000001
 43
0.00000001
 12
1.0
 22
0.0
 32
0.0
 13
1.0
 23
0.0
 33
0.0
 40
0.0
 40
0.0
 40
0.0
 40
0.0
 40
0.2500000000000039
 40
0.2500000000000039
 40
0.5000000000000079
 40
0.5000000000000079
 40
0.625000000000006
 40
0.625000000000006
 40
0.750000000000004
 40
0.750000000000004
 40
1.0
 40
1.0
 40
1.0
 40
1.0
 10
-159.1355593772405
 20
-41.92110869819226
 30
0.0
 10
-159.9839923914874
 20
-42.16603021277465
 30
0.0
 10
-160.8386112031087
 20
-42.36788993281115
 30
0.0
 10
-162.5656725705055
 20
-42.64753120440823
 30
0.0
 10
-163.4382476308288
 20
-42.72439033913655
 30
0.0
 10
-164.7635501014496
 20
-42.72523450030575
 30
0.0
 10
-165.2073962170114
 20
-42.70644541363563
 30
0.0
 10
-166.0853706550015
 20
-42.63317792155483
 30
0.0
 10
-166.5214143518977
 20
-42.57877386989148
 30
0.0
 10
-167.8217822803373
 20
-42.36869481153941
 30
0.0
 10
-168.6783735987932
 20
-42.16633551837209
 30
0.0
 10
-169.5278642226538
 20
-41.92110869819207
 30
0.0
  0
LINE
  5
2BA
330
1F
100
AcDbEntity
  8
0
  6
Continuous
 62
     7
370
    15
100
AcDbLine
 10
-169.5278584073
 20
-33.9948348793
 30
0.0
 11
-169.5278584073
 21
-41.921105245
 31
0.0
  0
SPLINE
  5
2BB
330
1F
100
AcDbEntity
  8
0
  6
Continuous
 62
     7
370
    15
100
AcDbSpline
210
0.0
220
0.0
230
1.0
 70
     8
 71
     3
 72
    16
 73
    12
 74
     0
 42
0.00000001
 43
0.00000001
 12
1.0
 22
0.0
 32
0.0
 13
1.0
 23
0.0
 33
0.0
 40
0.0
 40
0.0
 40
0.0
 40
0.0
 40
0.2500000000000019
 40
0.2500000000000019
 40
0.5000000000000039
 40
0.5000000000000039
 40
0.6250000000000049
 40
0.6250000000000049
 40
0.7500000000000058
 40
0.7500000000000058
 40
1.0
 40
1.0
 40
1.0
 40
1.0
 10
-169.5278642226538
 20
-33.99482925656258
 30
0.0
 10
-168.679431208407
 20
-33.74990774198017
 30
0.0
 10
-167.8248123967855
 20
-33.54804802194369
 30
0.0
 10
-166.0977510293888
 20
-33.26840675034665
 30
0.0
 10
-165.2251759690656
 20
-33.19154761561824
 30
0.0
 10
-163.8998734984446
 20
-33.19070345444908
 30
0.0
 10
-163.4560273828828
 20
-33.20949254111924
 30
0.0
 10
-162.5780529448927
 20
-33.28276003320002
 30
0.0
 10
-162.1420092479966
 20
-33.3371640848634
 30
0.0
 10
-160.8416413195568
 20
-33.54724314321545
 30
0.0
 10
-159.985050001101
 20
-33.74960243638281
 30
0.0
 10
-159.1355593772404
 20
-33.9948292565628
 30
0.0
  0
SPLINE
  5
2BC
330
1F
100
AcDbEntity
  8
0
  6
Continuous
 62
     7
370
    15
100
AcDbSpline
210
0.0
220
0.0
230
1.0
 70
     8
 71
     3
 72
    16
 73
    12
 74
     0
 42
0.00000001
 43
0.00000001
 12
1.0
 22
0.0
 32
0.0
 13
1.0
 23
0.0
 33
0.0
 40
0.0
 40
0.0
 40
0.0
 40
0.0
 40
0.2500000000000058
 40
0.2500000000000058
 40
0.5000000000000117
 40
0.5000000000000117
 40
0.6250000000000078
 40
0.6250000000000078
 40
0.7500000000000039
 40
0.7500000000000039
 40
1.0
 40
1.0
 40
1.0
 40
1.0
 10
-174.7240166453605
 20
-33.99482925656255
 30
0.0
 10
-174.299800138237
 20
-33.74990774198019
 30
0.0
 10
-173.8724907324263
 20
-33.54804802194364
 30
0.0
 10
-173.0089600487279
 20
-33.26840675034659
 30
0.0
 10
-172.5726725185663
 20
-33.19154761561827
 30
0.0
 10
-171.9100212832558
 20
-33.19070345444911
 30
0.0
 10
-171.688098225475
 20
-33.20949254111915
 30
0.0
 10
-171.2491110064798
 20
-33.28276003320005
 30
0.0
 10
-171.0310891580318
 20
-33.33716408486342
 30
0.0
 10
-170.380905193812
 20
-33.54724314321545
 30
0.0
 10
-169.9526095345841
 20
-33.74960243638278
 30
0.0
 10
-169.5278642226538
 20
-33.9948292565628
 30
0.0
  0
LINE
  5
2BD
330
1F
100
AcDbEntity
  8
0
  6
Continuous
 62
     7
370
    15
100
AcDbLine
 10
-172.5817172836
 20
-32.7579639944
 30
0.0
 11
-156.0817061971
 21
-32.7579639944
 31
0.0
  0
SPLINE
  5
2BE
330
1F
100
AcDbEntity
  8
0
  6
Continuous
 62
     7
370
    15
100
AcDbSpline
210
0.0
220
0.0
230
1.0
 70
     8
 71
     3
 72
    16
 73
    12
 74
     0
 42
0.00000001
 43
0.00000001
 12
1.0
 22
0.0
 32
0.0
 13
1.0
 23
0.0
 33
0.0
 40
0.0
 40
0.0
 40
0.0
 40
0.0
 40
0.2500000000000058
 40
0.2500000000000058
 40
0.5000000000000117
 40
0.5000000000000117
 40
0.6250000000000078
 40
0.6250000000000078
 40
0.7500000000000039
 40
0.7500000000000039
 40
1.0
 40
1.0
 40
1.0
 40
1.0
 10
-169.5278642226538
 20
-41.92110869819224
 30
0.0
 10
-169.9520807297772
 20
-42.16603021277459
 30
0.0
 10
-170.379390135588
 20
-42.36788993281107
 30
0.0
 10
-171.2429208192863
 20
-42.64753120440823
 30
0.0
 10
-171.679208349448
 20
-42.7243903391365
 30
0.0
 10
-172.3418595847584
 20
-42.72523450030572
 30
0.0
 10
-172.5637826425393
 20
-42.70644541363561
 30
0.0
 10
-173.0027698615344
 20
-42.6331779215548
 30
0.0
 10
-173.2207917099824
 20
-42.57877386989145
 30
0.0
 10
-173.8709756742023
 20
-42.36869481153932
 30
0.0
 10
-174.2992713334301
 20
-42.16633551837201
 30
0.0
 10
-174.7240166453605
 20
-41.92110869819201
 30
0.0
  0
LINE
  5
2BF
330
1F
100
AcDbEntity
  8
0
  6
Continuous
 62
     7
370
    15
100
AcDbLine
 10
-174.7240125249
 20
-33.9948348793
 30
0.0
 11
-174.7240125249
 21
-41.921105245
 31
0.0
  0
LINE
  5
2C0
330
1F
100
AcDbEntity
  8
0
  6
Continuous
 62
     7
370
    15
100
AcDbLine
 10
235.6682867695
 20
2.3420341221
 30
0.0
 11
238.6682928492
 21
2.3420341221
 31
0.0
  0
LINE
  5
2C1
330
1F
100
AcDbEntity
  8
0
  6
Continuous
 62
     7
370
    15
100
AcDbLine
 10
226.6682834317
 20
2.3420341221
 30
0.0
 11
235.6682867695
 21
2.3420341221
 31
0.0
  0
LINE
  5
2C2
330
1F
100
AcDbEntity
  8
0
  6
Continuous
 62
     7
370
    15
100
AcDbLine
 10
-167.3317103694
 20
2.3420341221
 30
0.0
 11
-158.3317070316
 21
2.3420341221
 31
0.0
  0
LINE
  5
2C3
330
1F
100
AcDbEntity
  8
0
  6
Continuous
 62
     7
370
    15
100
AcDbLine
 10
-170.3317164491
 20
2.3420341221
 30
0.0
 11
-167.3317103694
 21
2.3420341221
 31
0.0
  0
LINE
  5
2C4
330
1F
100
AcDbEntity
  8
0
  6
Continuous
 62
     7
370
    15
100
AcDbLine
 10
365.9803719212
 20
-43.1579761299
 30
0.0
 11
389.980360954
 21
-43.1579761299
 31
0.0
  0
LINE
  5
2C5
330
1F
100
AcDbEntity
  8
0
  6
Continuous
 62
     7
370
    15
100
AcDbLine
 10
-321.6437845539
 20
-43.1579761299
 30
0.0
 11
-297.6437955211
 21
-43.1579761299
 31
0.0
  0
SPLINE
  5
2C6
330
1F
100
AcDbEntity
  8
0
  6
Continuous
 62
     7
370
    15
100
AcDbSpline
210
0.0
220
0.0
230
1.0
 70
     8
 71
     3
 72
    14
 73
    10
 74
     0
 42
0.00000001
 43
0.00000001
 12
1.0
 22
0.0
 32
0.0
 13
1.0
 23
0.0
 33
0.0
 40
0.0
 40
0.0
 40
0.0
 40
0.0
 40
0.1331923114503435
 40
0.2578394873241885
 40
0.3824531418695986
 40
0.510167896369958
 40
0.6378845188923437
 40
0.8180588272841716
 40
1.0
 40
1.0
 40
1.0
 40
1.0
 10
368.9803630997267
 20
-33.99483487932445
 30
0.0
 10
369.3717721943537
 20
-33.87158007427612
 30
0.0
 10
370.1294789958478
 20
-33.63297804539139
 30
0.0
 10
371.2745018383042
 20
-33.38015174986325
 30
0.0
 10
372.4150412134956
 20
-33.22036143262275
 30
0.0
 10
373.573176215857
 20
-33.17253216647567
 30
0.0
 10
374.8991925569842
 20
-33.24962986891367
 30
0.0
 10
376.3787555722641
 20
-33.50150752907327
 30
0.0
 10
377.4447623657988
 20
-33.82985839019103
 30
0.0
 10
377.9803664375868
 20
-33.99483487932445
 30
0.0
  0
SPLINE
  5
2C7
330
1F
100
AcDbEntity
  8
0
  6
Continuous
 62
     7
370
    15
100
AcDbSpline
210
0.0
220
0.0
230
1.0
 70
    24
 71
     3
 72
    12
 73
     8
 74
     0
 42
0.00000001
 43
0.00000001
 12
1.0
 22
0.0
 32
0.0
 13
1.0
 23
0.0
 33
0.0
 40
0.0
 40
0.0
 40
0.0
 40
0.0
 40
0.0699958470717136
 40
0.300378812641235
 40
0.5308007811115424
 40
0.7653789831162836
 40
1.0
 40
1.0
 40
1.0
 40
1.0
 10
368.9803630997268
 20
-33.2036130222535
 30
0.0
 10
368.9803630997268
 20
-33.19976137142189
 30
0.0
 10
368.9803630997267
 20
-33.18323247218133
 30
0.0
 10
368.9803630997268
 20
-33.26140629715296
 30
0.0
 10
368.9803630997267
 20
-33.42138992163721
 30
0.0
 10
368.9803630997267
 20
-33.66766363188278
 30
0.0
 10
368.9803630997267
 20
-33.88577116267005
 30
0.0
 10
368.9803630997268
 20
-33.99483487932442
 30
0.0
  0
SPLINE
  5
2C8
330
1F
100
AcDbEntity
  8
0
  6
Continuous
 62
     7
370
    15
100
AcDbSpline
210
0.0
220
0.0
230
1.0
 70
    24
 71
     3
 72
    11
 73
     7
 74
     0
 42
0.00000001
 43
0.00000001
 12
1.0
 22
0.0
 32
0.0
 13
1.0
 23
0.0
 33
0.0
 40
0.0
 40
0.0
 40
0.0
 40
0.0
 40
0.2646064514524133
 40
0.5291391139331774
 40
0.7995911288649309
 40
1.0
 40
1.0
 40
1.0
 40
1.0
 10
386.9803697754469
 20
-33.99483487932445
 30
0.0
 10
386.9803697754469
 20
-33.87224027741892
 30
0.0
 10
386.9803697754469
 20
-33.62708526071695
 30
0.0
 10
386.9803697754468
 20
-33.36716174476351
 30
0.0
 10
386.9803697754469
 20
-33.21073579138201
 30
0.0
 10
386.980369775447
 20
-33.20573953861311
 30
0.0
 10
386.9803697754469
 20
-33.20361302225353
 30
0.0
  0
SPLINE
  5
2C9
330
1F
100
AcDbEntity
  8
0
  6
Continuous
 62
     7
370
    15
100
AcDbSpline
210
0.0
220
0.0
230
1.0
 70
     8
 71
     3
 72
    16
 73
    12
 74
     0
 42
0.00000001
 43
0.00000001
 12
1.0
 22
0.0
 32
0.0
 13
1.0
 23
0.0
 33
0.0
 40
0.0
 40
0.0
 40
0.0
 40
0.0
 40
0.2499999999999942
 40
0.2499999999999942
 40
0.4999999999999883
 40
0.4999999999999883
 40
0.6249999999999903
 40
0.6249999999999903
 40
0.7499999999999922
 40
0.7499999999999922
 40
1.0
 40
1.0
 40
1.0
 40
1.0
 10
377.980373502473
 20
-33.99482925656255
 30
0.0
 10
378.71513804622
 20
-33.74990774198017
 30
0.0
 10
379.4552596476363
 20
-33.54804802194369
 30
0.0
 10
380.9509386656966
 20
-33.26840675034659
 30
0.0
 10
381.7066108346453
 20
-33.19154761561832
 30
0.0
 10
382.8543564419013
 20
-33.19070345444911
 30
0.0
 10
383.238738453349
 20
-33.20949254111918
 30
0.0
 10
383.9990866205218
 20
-33.28276003320005
 30
0.0
 10
384.3767115391939
 20
-33.3371640848634
 30
0.0
 10
385.5028631994895
 20
-33.54724314321539
 30
0.0
 10
386.2446930419331
 20
-33.74960243638278
 30
0.0
 10
386.9803735024731
 20
-33.9948292565628
 30
0.0
  0
LINE
  5
2CA
330
1F
100
AcDbEntity
  8
0
  6
Continuous
 62
     7
370
    15
100
AcDbLine
 10
373.8553673913
 20
-32.7579639944
 30
0.0
 11
386.2303645302
 21
-32.7579639944
 31
0.0
  0
LINE
  5
2CB
330
1F
100
AcDbEntity
  8
0
  6
Continuous
 62
     7
370
    15
100
AcDbLine
 10
369.7303683449
 20
-32.7579639944
 30
0.0
 11
373.8553673913
 21
-32.7579639944
 31
0.0
  0
LINE
  5
2CC
330
1F
100
AcDbEntity
  8
0
  6
Continuous
 62
     7
370
    15
100
AcDbLine
 10
377.9803664376
 20
-33.9948348793
 30
0.0
 11
377.9803664376
 21
-41.921105245
 31
0.0
  0
SPLINE
  5
2CD
330
1F
100
AcDbEntity
  8
0
  6
Continuous
 62
     7
370
    15
100
AcDbSpline
210
0.0
220
0.0
230
1.0
 70
     8
 71
     3
 72
    14
 73
    10
 74
     0
 42
0.00000001
 43
0.00000001
 12
1.0
 22
0.0
 32
0.0
 13
1.0
 23
0.0
 33
0.0
 40
0.0
 40
0.0
 40
0.0
 40
0.0
 40
0.180312102441547
 40
0.3621147256671238
 40
0.486621761351024
 40
0.6111266096502611
 40
0.7389500002376036
 40
0.8668077564522713
 40
1.0
 40
1.0
 40
1.0
 40
1.0
 10
377.9803664375868
 20
-41.92110524503948
 30
0.0
 10
377.4495916771996
 20
-42.08470596508266
 30
0.0
 10
376.3836545928547
 20
-42.41325978401778
 30
0.0
 10
374.9138260896176
 20
-42.66432988367927
 30
0.0
 10
373.6025604137431
 20
-42.74222774515746
 30
0.0
 10
372.4541508155355
 20
-42.69909304708997
 30
0.0
 10
371.3034015659385
 20
-42.54183754508959
 30
0.0
 10
370.1389205469285
 20
-42.28590336655297
 30
0.0
 10
369.3717743913633
 20
-42.04434997862869
 30
0.0
 10
368.9803630997267
 20
-41.92110524503948
 30
0.0
  0
LINE
  5
2CE
330
1F
100
AcDbEntity
  8
0
  6
Continuous
 62
     7
370
    15
100
AcDbLine
 10
368.9803630997
 20
-33.9948348793
 30
0.0
 11
368.9803630997
 21
-41.921105245
 31
0.0
  0
SPLINE
  5
2CF
330
1F
100
AcDbEntity
  8
0
  6
Continuous
 62
     7
370
    15
100
AcDbSpline
210
0.0
220
0.0
230
1.0
 70
    24
 71
     3
 72
    12
 73
     8
 74
     0
 42
0.00000001
 43
0.00000001
 12
1.0
 22
0.0
 32
0.0
 13
1.0
 23
0.0
 33
0.0
 40
0.0
 40
0.0
 40
0.0
 40
0.0
 40
0.0699958470717136
 40
0.300378812641235
 40
0.5308007811115424
 40
0.7653789831162836
 40
1.0
 40
1.0
 40
1.0
 40
1.0
 10
386.980369775447
 20
-42.71232710211037
 30
0.0
 10
386.980369775447
 20
-42.71617875294198
 30
0.0
 10
386.9803697754468
 20
-42.73270765218265
 30
0.0
 10
386.980369775447
 20
-42.65453382721088
 30
0.0
 10
386.980369775447
 20
-42.49455020272666
 30
0.0
 10
386.9803697754468
 20
-42.24827649248125
 30
0.0
 10
386.980369775447
 20
-42.03016896169387
 30
0.0
 10
386.980369775447
 20
-41.92110524503945
 30
0.0
  0
SPLINE
  5
2D0
330
1F
100
AcDbEntity
  8
0
  6
Continuous
 62
     7
370
    15
100
AcDbSpline
210
0.0
220
0.0
230
1.0
 70
    24
 71
     3
 72
    11
 73
     7
 74
     0
 42
0.00000001
 43
0.00000001
 12
1.0
 22
0.0
 32
0.0
 13
1.0
 23
0.0
 33
0.0
 40
0.0
 40
0.0
 40
0.0
 40
0.0
 40
0.2646064514524133
 40
0.5291391139331774
 40
0.7995911288649309
 40
1.0
 40
1.0
 40
1.0
 40
1.0
 10
368.9803630997267
 20
-41.92110524503948
 30
0.0
 10
368.9803630997267
 20
-42.04369984694495
 30
0.0
 10
368.9803630997267
 20
-42.28885486364695
 30
0.0
 10
368.9803630997267
 20
-42.5487783796005
 30
0.0
 10
368.9803630997267
 20
-42.70520433298194
 30
0.0
 10
368.9803630997267
 20
-42.71020058575078
 30
0.0
 10
368.9803630997267
 20
-42.7123271021104
 30
0.0
  0
SPLINE
  5
2D1
330
1F
100
AcDbEntity
  8
0
  6
Continuous
 62
     7
370
    15
100
AcDbSpline
210
0.0
220
0.0
230
1.0
 70
     8
 71
     3
 72
    16
 73
    12
 74
     0
 42
0.00000001
 43
0.00000001
 12
1.0
 22
0.0
 32
0.0
 13
1.0
 23
0.0
 33
0.0
 40
0.0
 40
0.0
 40
0.0
 40
0.0
 40
0.2499999999999922
 40
0.2499999999999922
 40
0.4999999999999843
 40
0.4999999999999843
 40
0.6249999999999873
 40
0.6249999999999873
 40
0.7499999999999902
 40
0.7499999999999902
 40
1.0
 40
1.0
 40
1.0
 40
1.0
 10
386.9803735024731
 20
-41.92110869819224
 30
0.0
 10
386.2456089587259
 20
-42.16603021277459
 30
0.0
 10
385.5054873573097
 20
-42.36788993281112
 30
0.0
 10
384.0098083392493
 20
-42.64753120440823
 30
0.0
 10
383.2541361703006
 20
-42.72439033913653
 30
0.0
 10
382.1063905630447
 20
-42.72523450030569
 30
0.0
 10
381.7220085515971
 20
-42.70644541363563
 30
0.0
 10
380.9616603844243
 20
-42.6331779215548
 30
0.0
 10
380.5840354657523
 20
-42.57877386989142
 30
0.0
 10
379.4578838054569
 20
-42.36869481153929
 30
0.0
 10
378.716053963013
 20
-42.16633551837201
 30
0.0
 10
377.980373502473
 20
-41.92110869819201
 30
0.0
  0
LINE
  5
2D2
330
1F
100
AcDbEntity
  8
0
  6
Continuous
 62
     7
370
    15
100
AcDbLine
 10
-300.6437866996
 20
-33.9948348793
 30
0.0
 11
-300.6437866996
 21
-41.921105245
 31
0.0
  0
SPLINE
  5
2D3
330
1F
100
AcDbEntity
  8
0
  6
Continuous
 62
     7
370
    15
100
AcDbSpline
210
0.0
220
0.0
230
1.0
 70
     8
 71
     3
 72
    14
 73
    10
 74
     0
 42
0.00000001
 43
0.00000001
 12
1.0
 22
0.0
 32
0.0
 13
1.0
 23
0.0
 33
0.0
 40
0.0
 40
0.0
 40
0.0
 40
0.0
 40
0.1331923114503435
 40
0.2578394873241885
 40
0.3824531418695986
 40
0.510167896369958
 40
0.6378845188923437
 40
0.8180588272841716
 40
1.0
 40
1.0
 40
1.0
 40
1.0
 10
-300.6437866996202
 20
-41.92110524503948
 30
0.0
 10
-301.0351957942472
 20
-42.04436005008777
 30
0.0
 10
-301.7929025957413
 20
-42.28296207897256
 30
0.0
 10
-302.9379254381977
 20
-42.53578837450073
 30
0.0
 10
-304.0784648133891
 20
-42.69557869174109
 30
0.0
 10
-305.2365998157505
 20
-42.74340795788825
 30
0.0
 10
-306.5626161568778
 20
-42.66631025545028
 30
0.0
 10
-308.0421791721577
 20
-42.41443259529063
 30
0.0
 10
-309.1081859656923
 20
-42.08608173417291
 30
0.0
 10
-309.6437900374803
 20
-41.92110524503948
 30
0.0
  0
LINE
  5
2D4
330
1F
100
AcDbEntity
  8
0
  6
Continuous
 62
     7
370
    15
100
AcDbLine
 10
-309.6437900375
 20
-33.9948348793
 30
0.0
 11
-309.6437900375
 21
-41.921105245
 31
0.0
  0
SPLINE
  5
2D5
330
1F
100
AcDbEntity
  8
0
  6
Continuous
 62
     7
370
    15
100
AcDbSpline
210
0.0
220
0.0
230
1.0
 70
     8
 71
     3
 72
    14
 73
    10
 74
     0
 42
0.00000001
 43
0.00000001
 12
1.0
 22
0.0
 32
0.0
 13
1.0
 23
0.0
 33
0.0
 40
0.0
 40
0.0
 40
0.0
 40
0.0
 40
0.180312102441547
 40
0.3621147256671238
 40
0.486621761351024
 40
0.6111266096502611
 40
0.7389500002376036
 40
0.8668077564522713
 40
1.0
 40
1.0
 40
1.0
 40
1.0
 10
-309.6437900374803
 20
-33.99483487932445
 30
0.0
 10
-309.1130152770931
 20
-33.83123415928122
 30
0.0
 10
-308.0470781927482
 20
-33.50268034034609
 30
0.0
 10
-306.5772496895111
 20
-33.25161024068471
 30
0.0
 10
-305.2659840136366
 20
-33.17371237920649
 30
0.0
 10
-304.117574415429
 20
-33.21684707727388
 30
0.0
 10
-302.966825165832
 20
-33.37410257927442
 30
0.0
 10
-301.802344146822
 20
-33.63003675781093
 30
0.0
 10
-301.0351979912568
 20
-33.87159014573521
 30
0.0
 10
-300.6437866996202
 20
-33.99483487932445
 30
0.0
  0
SPLINE
  5
2D6
330
1F
100
AcDbEntity
  8
0
  6
Continuous
 62
     7
370
    15
100
AcDbSpline
210
0.0
220
0.0
230
1.0
 70
     8
 71
     3
 72
    16
 73
    12
 74
     0
 42
0.00000001
 43
0.00000001
 12
1.0
 22
0.0
 32
0.0
 13
1.0
 23
0.0
 33
0.0
 40
0.0
 40
0.0
 40
0.0
 40
0.0
 40
0.250000000000001
 40
0.250000000000001
 40
0.500000000000002
 40
0.500000000000002
 40
0.6250000000000004
 40
0.6250000000000004
 40
0.749999999999999
 40
0.749999999999999
 40
1.0
 40
1.0
 40
1.0
 40
1.0
 10
-309.6437971023694
 20
-41.92110869819226
 30
0.0
 10
-310.3785616461166
 20
-42.16603021277465
 30
0.0
 10
-311.1186832475328
 20
-42.36788993281115
 30
0.0
 10
-312.6143622655929
 20
-42.64753120440823
 30
0.0
 10
-313.3700344345418
 20
-42.72439033913655
 30
0.0
 10
-314.5177800417977
 20
-42.72523450030577
 30
0.0
 10
-314.9021620532451
 20
-42.70644541363566
 30
0.0
 10
-315.6625102204181
 20
-42.63317792155477
 30
0.0
 10
-316.0401351390902
 20
-42.57877386989145
 30
0.0
 10
-317.1662867993855
 20
-42.36869481153938
 30
0.0
 10
-317.9081166418294
 20
-42.16633551837204
 30
0.0
 10
-318.6437971023694
 20
-41.92110869819204
 30
0.0
  0
SPLINE
  5
2D7
330
1F
100
AcDbEntity
  8
0
  6
Continuous
 62
     7
370
    15
100
AcDbSpline
210
0.0
220
0.0
230
1.0
 70
    24
 71
     3
 72
    12
 73
     8
 74
     0
 42
0.00000001
 43
0.00000001
 12
1.0
 22
0.0
 32
0.0
 13
1.0
 23
0.0
 33
0.0
 40
0.0
 40
0.0
 40
0.0
 40
0.0
 40
0.0699958470717136
 40
0.300378812641235
 40
0.5308007811115424
 40
0.7653789831162836
 40
1.0
 40
1.0
 40
1.0
 40
1.0
 10
-300.6437866996203
 20
-42.71232710211037
 30
0.0
 10
-300.6437866996203
 20
-42.71617875294198
 30
0.0
 10
-300.6437866996201
 20
-42.73270765218265
 30
0.0
 10
-300.6437866996203
 20
-42.65453382721088
 30
0.0
 10
-300.6437866996202
 20
-42.49455020272666
 30
0.0
 10
-300.6437866996201
 20
-42.24827649248125
 30
0.0
 10
-300.6437866996202
 20
-42.03016896169387
 30
0.0
 10
-300.6437866996203
 20
-41.92110524503945
 30
0.0
  0
SPLINE
  5
2D8
330
1F
100
AcDbEntity
  8
0
  6
Continuous
 62
     7
370
    15
100
AcDbSpline
210
0.0
220
0.0
230
1.0
 70
    24
 71
     3
 72
    11
 73
     7
 74
     0
 42
0.00000001
 43
0.00000001
 12
1.0
 22
0.0
 32
0.0
 13
1.0
 23
0.0
 33
0.0
 40
0.0
 40
0.0
 40
0.0
 40
0.0
 40
0.2646064514524133
 40
0.5291391139331774
 40
0.7995911288649309
 40
1.0
 40
1.0
 40
1.0
 40
1.0
 10
-318.6437933753404
 20
-41.92110524503948
 30
0.0
 10
-318.6437933753404
 20
-42.04369984694495
 30
0.0
 10
-318.6437933753404
 20
-42.28885486364695
 30
0.0
 10
-318.6437933753404
 20
-42.5487783796005
 30
0.0
 10
-318.6437933753404
 20
-42.70520433298194
 30
0.0
 10
-318.6437933753405
 20
-42.71020058575078
 30
0.0
 10
-318.6437933753404
 20
-42.7123271021104
 30
0.0
  0
SPLINE
  5
2D9
330
1F
100
AcDbEntity
  8
0
  6
Continuous
 62
     7
370
    15
100
AcDbSpline
210
0.0
220
0.0
230
1.0
 70
    24
 71
     3
 72
    11
 73
     7
 74
     0
 42
0.00000001
 43
0.00000001
 12
1.0
 22
0.0
 32
0.0
 13
1.0
 23
0.0
 33
0.0
 40
0.0
 40
0.0
 40
0.0
 40
0.0
 40
0.2646064514524133
 40
0.5291391139331774
 40
0.7995911288649309
 40
1.0
 40
1.0
 40
1.0
 40
1.0
 10
-300.6437866996202
 20
-33.99483487932445
 30
0.0
 10
-300.6437866996202
 20
-33.87224027741892
 30
0.0
 10
-300.6437866996202
 20
-33.62708526071695
 30
0.0
 10
-300.6437866996201
 20
-33.36716174476351
 30
0.0
 10
-300.6437866996202
 20
-33.21073579138201
 30
0.0
 10
-300.6437866996202
 20
-33.20573953861311
 30
0.0
 10
-300.6437866996202
 20
-33.20361302225353
 30
0.0
  0
SPLINE
  5
2DA
330
1F
100
AcDbEntity
  8
0
  6
Continuous
 62
     7
370
    15
100
AcDbSpline
210
0.0
220
0.0
230
1.0
 70
     8
 71
     3
 72
    16
 73
    12
 74
     0
 42
0.00000001
 43
0.00000001
 12
1.0
 22
0.0
 32
0.0
 13
1.0
 23
0.0
 33
0.0
 40
0.0
 40
0.0
 40
0.0
 40
0.0
 40
0.2499999999999922
 40
0.2499999999999922
 40
0.4999999999999845
 40
0.4999999999999845
 40
0.6249999999999873
 40
0.6249999999999873
 40
0.7499999999999902
 40
0.7499999999999902
 40
1.0
 40
1.0
 40
1.0
 40
1.0
 10
-318.6437971023694
 20
-33.99482925656261
 30
0.0
 10
-317.9090325586223
 20
-33.74990774198019
 30
0.0
 10
-317.168910957206
 20
-33.54804802194369
 30
0.0
 10
-315.6732319391458
 20
-33.26840675034665
 30
0.0
 10
-314.917559770197
 20
-33.19154761561832
 30
0.0
 10
-313.7698141629411
 20
-33.19070345444914
 30
0.0
 10
-313.3854321514935
 20
-33.20949254111918
 30
0.0
 10
-312.6250839843207
 20
-33.28276003320005
 30
0.0
 10
-312.2474590656487
 20
-33.3371640848634
 30
0.0
 10
-311.1213074053533
 20
-33.54724314321542
 30
0.0
 10
-310.3794775629094
 20
-33.74960243638278
 30
0.0
 10
-309.6437971023693
 20
-33.9948292565628
 30
0.0
  0
SPLINE
  5
2DB
330
1F
100
AcDbEntity
  8
0
  6
Continuous
 62
     7
370
    15
100
AcDbSpline
210
0.0
220
0.0
230
1.0
 70
    24
 71
     3
 72
    12
 73
     8
 74
     0
 42
0.00000001
 43
0.00000001
 12
1.0
 22
0.0
 32
0.0
 13
1.0
 23
0.0
 33
0.0
 40
0.0
 40
0.0
 40
0.0
 40
0.0
 40
0.0699958470717136
 40
0.300378812641235
 40
0.5308007811115424
 40
0.7653789831162836
 40
1.0
 40
1.0
 40
1.0
 40
1.0
 10
-318.6437933753405
 20
-33.2036130222535
 30
0.0
 10
-318.6437933753405
 20
-33.19976137142189
 30
0.0
 10
-318.6437933753404
 20
-33.18323247218133
 30
0.0
 10
-318.6437933753405
 20
-33.26140629715296
 30
0.0
 10
-318.6437933753405
 20
-33.42138992163721
 30
0.0
 10
-318.6437933753403
 20
-33.66766363188278
 30
0.0
 10
-318.6437933753405
 20
-33.88577116267005
 30
0.0
 10
-318.6437933753405
 20
-33.99483487932442
 30
0.0
  0
LINE
  5
2DC
330
1F
100
AcDbEntity
  8
0
  6
Continuous
 62
     7
370
    15
100
AcDbLine
 10
-317.8937881301
 20
-32.7579639944
 30
0.0
 11
-301.3937919448
 21
-32.7579639944
 31
0.0
  0
LINE
  5
2DD
330
1F
100
AcDbEntity
  8
0
  6
Continuous
 62
     7
370
    15
100
AcDbLine
 10
386.9803697754
 20
-33.9948348793
 30
0.0
 11
386.9803697754
 21
-41.921105245
 31
0.0
  0
LINE
  5
2DE
330
1F
100
AcDbEntity
  8
0
  6
Continuous
 62
     7
370
    15
100
AcDbLine
 10
-318.6437933753
 20
-33.9948348793
 30
0.0
 11
-318.6437933753
 21
-41.921105245
 31
0.0
  0
LINE
  5
2DF
330
1F
100
AcDbEntity
  8
0
  6
Continuous
 62
     7
370
    15
100
AcDbLine
 10
383.1765205552
 20
2.3420341221
 30
0.0
 11
383.9803785969
 21
2.3420341221
 31
0.0
  0
LINE
  5
2E0
330
1F
100
AcDbEntity
  8
0
  6
Continuous
 62
     7
370
    15
100
AcDbLine
 10
371.9803840806
 20
2.3420341221
 30
0.0
 11
383.1765205552
 21
2.3420341221
 31
0.0
  0
LINE
  5
2E1
330
1F
100
AcDbEntity
  8
0
  6
Continuous
 62
     7
370
    15
100
AcDbLine
 10
-314.8399441551
 20
2.3420341221
 30
0.0
 11
-303.6438076805
 21
2.3420341221
 31
0.0
  0
LINE
  5
2E2
330
1F
100
AcDbEntity
  8
0
  6
Continuous
 62
     7
370
    15
100
AcDbLine
 10
-315.6438021968
 20
2.3420341221
 30
0.0
 11
-314.8399441551
 21
2.3420341221
 31
0.0
  0
LINE
  5
2E3
330
1F
100
AcDbEntity
  8
0
  6
Continuous
 62
     7
370
    15
100
AcDbLine
 10
419.1682786633
 20
-43.1579761299
 30
0.0
 11
443.1682974984
 21
-43.1579761299
 31
0.0
  0
LINE
  5
2E4
330
1F
100
AcDbEntity
  8
0
  6
Continuous
 62
     7
370
    15
100
AcDbLine
 10
-374.8317210983
 20
-43.1579761299
 30
0.0
 11
-350.8317022632
 21
-43.1579761299
 31
0.0
  0
SPLINE
  5
2E5
330
1F
100
AcDbEntity
  8
0
  6
Continuous
 62
     7
370
    15
100
AcDbSpline
210
0.0
220
0.0
230
1.0
 70
     8
 71
     3
 72
    16
 73
    12
 74
     0
 42
0.00000001
 43
0.00000001
 12
1.0
 22
0.0
 32
0.0
 13
1.0
 23
0.0
 33
0.0
 40
0.0
 40
0.0
 40
0.0
 40
0.0
 40
0.2499999999999882
 40
0.2499999999999882
 40
0.4999999999999765
 40
0.4999999999999765
 40
0.6249999999999785
 40
0.6249999999999785
 40
0.7499999999999805
 40
0.7499999999999805
 40
1.0
 40
1.0
 40
1.0
 40
1.0
 10
425.9721455919785
 20
-33.99482642332472
 30
0.0
 10
426.8172991973338
 20
-33.75085193816538
 30
0.0
 10
427.6831253944363
 20
-33.54615872283653
 30
0.0
 10
429.4190072082951
 20
-33.26630598627931
 30
0.0
 10
430.2916455631172
 20
-33.19089769243788
 30
0.0
 10
431.6088477940645
 20
-33.19102377981334
 30
0.0
 10
432.0492730303289
 20
-33.209715151651
 30
0.0
 10
432.9328022476515
 20
-33.28388967247054
 30
0.0
 10
433.3719083802811
 20
-33.3390656881756
 30
0.0
 10
434.6735089493408
 20
-33.55040187481798
 30
0.0
 10
435.5245156072606
 20
-33.75236417189459
 30
0.0
 10
436.3644297008533
 20
-33.99482610368263
 30
0.0
  0
SPLINE
  5
2E6
330
1F
100
AcDbEntity
  8
0
  6
Continuous
 62
     7
370
    15
100
AcDbSpline
210
0.0
220
0.0
230
1.0
 70
     8
 71
     3
 72
    15
 73
    11
 74
     0
 42
0.00000001
 43
0.00000001
 12
1.0
 22
0.0
 32
0.0
 13
1.0
 23
0.0
 33
0.0
 40
0.0
 40
0.0
 40
0.0
 40
0.0
 40
0.1323053784327096
 40
0.2645725134368417
 40
0.3998000083632026
 40
0.5350026174255353
 40
0.6501937611667884
 40
0.7654022720476987
 40
0.8826897582308989
 40
1.0
 40
1.0
 40
1.0
 40
1.0
 10
420.7759947468367
 20
-33.99483487932445
 30
0.0
 10
421.0004887880144
 20
-33.87246192961391
 30
0.0
 10
421.4494119794189
 20
-33.62775140261085
 30
0.0
 10
422.1406978450514
 20
-33.36448030437905
 30
0.0
 10
422.8450522123512
 20
-33.20615034539728
 30
0.0
 10
423.523871522687
 20
-33.174810244398
 30
0.0
 10
424.1660394678311
 20
-33.25614347843583
 30
0.0
 10
424.7720618878585
 20
-33.42282213559969
 30
0.0
 10
425.375355030369
 20
-33.66730491888622
 30
0.0
 10
425.7732047228195
 20
-33.88565116610518
 30
0.0
 10
425.9721488644209
 20
-33.99483487932445
 30
0.0
  0
SPLINE
  5
2E7
330
1F
100
AcDbEntity
  8
0
  6
Continuous
 62
     7
370
    15
100
AcDbSpline
210
0.0
220
0.0
230
1.0
 70
     8
 71
     3
 72
    15
 73
    11
 74
     0
 42
0.00000001
 43
0.00000001
 12
1.0
 22
0.0
 32
0.0
 13
1.0
 23
0.0
 33
0.0
 40
0.0
 40
0.0
 40
0.0
 40
0.0
 40
0.1323067423270188
 40
0.2645738547553989
 40
0.3998013553940424
 40
0.5350040083861355
 40
0.6501937281115714
 40
0.7654022249186305
 40
0.8826897347870906
 40
0.9999999999999999
 40
0.9999999999999999
 40
0.9999999999999999
 40
0.9999999999999999
 10
436.364427297267
 20
-33.99483487932445
 30
0.0
 10
436.588933228407
 20
-33.87246217051567
 30
0.0
 10
437.0378778443234
 20
-33.62775340725113
 30
0.0
 10
437.7291593184278
 20
-33.36447993883282
 30
0.0
 10
438.4335123753153
 20
-33.20615057350532
 30
0.0
 10
439.112340836063
 20
-33.17480978804397
 30
0.0
 10
439.7544665041528
 20
-33.25614436266303
 30
0.0
 10
440.3604967247661
 20
-33.422822118574
 30
0.0
 10
440.9637870202824
 20
-33.6673049293984
 30
0.0
 10
441.3616370865379
 20
-33.88565116968575
 30
0.0
 10
441.5605814148512
 20
-33.99483487932445
 30
0.0
  0
LINE
  5
2E8
330
1F
100
AcDbEntity
  8
0
  6
Continuous
 62
     7
370
    15
100
AcDbLine
 10
431.168302982
 20
-32.7579639944
 30
0.0
 11
439.4183010747
 21
-32.7579639944
 31
0.0
  0
LINE
  5
2E9
330
1F
100
AcDbEntity
  8
0
  6
Continuous
 62
     7
370
    15
100
AcDbLine
 10
422.918275087
 20
-32.7579639944
 30
0.0
 11
431.168302982
 21
-32.7579639944
 31
0.0
  0
LINE
  5
2EA
330
1F
100
AcDbEntity
  8
0
  6
Continuous
 62
     7
370
    15
100
AcDbLine
 10
441.5605814149
 20
-33.9948348793
 30
0.0
 11
441.5605814149
 21
-41.921105245
 31
0.0
  0
SPLINE
  5
2EB
330
1F
100
AcDbEntity
  8
0
  6
Continuous
 62
     7
370
    15
100
AcDbSpline
210
0.0
220
0.0
230
1.0
 70
     8
 71
     3
 72
    15
 73
    11
 74
     0
 42
0.00000001
 43
0.00000001
 12
1.0
 22
0.0
 32
0.0
 13
1.0
 23
0.0
 33
0.0
 40
0.0
 40
0.0
 40
0.0
 40
0.0
 40
0.1323053784326945
 40
0.2645725134368289
 40
0.399800008363192
 40
0.5350026174255271
 40
0.6501937611667821
 40
0.7654022720476945
 40
0.8826897582308968
 40
1.0
 40
1.0
 40
1.0
 40
1.0
 10
441.5605814148512
 20
-41.92110524503948
 30
0.0
 10
441.3360873736736
 20
-42.04347819475002
 30
0.0
 10
440.8871641822691
 20
-42.28818872175305
 30
0.0
 10
440.1958783166364
 20
-42.55145981998496
 30
0.0
 10
439.4915239493369
 20
-42.70978977896658
 30
0.0
 10
438.812704639001
 20
-42.7411298799659
 30
0.0
 10
438.1705366938567
 20
-42.65979664592815
 30
0.0
 10
437.5645142738295
 20
-42.4931179887642
 30
0.0
 10
436.9612211313188
 20
-42.24863520547773
 30
0.0
 10
436.5633714388685
 20
-42.03028895825872
 30
0.0
 10
436.3644272972671
 20
-41.92110524503945
 30
0.0
  0
LINE
  5
2EC
330
1F
100
AcDbEntity
  8
0
  6
Continuous
 62
     7
370
    15
100
AcDbLine
 10
436.3644272973
 20
-33.9948348793
 30
0.0
 11
436.3644272973
 21
-41.921105245
 31
0.0
  0
SPLINE
  5
2ED
330
1F
100
AcDbEntity
  8
0
  6
Continuous
 62
     7
370
    15
100
AcDbSpline
210
0.0
220
0.0
230
1.0
 70
     8
 71
     3
 72
    16
 73
    12
 74
     0
 42
0.00000001
 43
0.00000001
 12
1.0
 22
0.0
 32
0.0
 13
1.0
 23
0.0
 33
0.0
 40
0.0
 40
0.0
 40
0.0
 40
0.0
 40
0.2499999999999882
 40
0.2499999999999882
 40
0.4999999999999765
 40
0.4999999999999765
 40
0.6249999999999785
 40
0.6249999999999785
 40
0.7499999999999805
 40
0.7499999999999805
 40
1.0
 40
1.0
 40
1.0
 40
1.0
 10
425.9721463472353
 20
-41.92111174945362
 30
0.0
 10
426.817299852733
 20
-42.16508617919032
 30
0.0
 10
427.6831259443818
 20
-42.36977934224104
 30
0.0
 10
429.4190075372425
 20
-42.64963199984467
 30
0.0
 10
430.2916457805482
 20
-42.725040268182
 30
0.0
 10
431.6088478420773
 20
-42.72491417199384
 30
0.0
 10
432.0492730215183
 20
-42.70622280203262
 30
0.0
 10
432.932802124505
 20
-42.63204829443354
 30
0.0
 10
433.3719082019491
 20
-42.57687228980703
 30
0.0
 10
434.6735086074676
 20
-42.36553614690008
 30
0.0
 10
435.5245151601092
 20
-42.16357389266898
 30
0.0
 10
436.3644291501543
 20
-41.92111201004503
 30
0.0
  0
LINE
  5
2EE
330
1F
100
AcDbEntity
  8
0
  6
Continuous
 62
     7
370
    15
100
AcDbLine
 10
425.9721488644
 20
-33.9948348793
 30
0.0
 11
425.9721488644
 21
-41.921105245
 31
0.0
  0
SPLINE
  5
2EF
330
1F
100
AcDbEntity
  8
0
  6
Continuous
 62
     7
370
    15
100
AcDbSpline
210
0.0
220
0.0
230
1.0
 70
     8
 71
     3
 72
    15
 73
    11
 74
     0
 42
0.00000001
 43
0.00000001
 12
1.0
 22
0.0
 32
0.0
 13
1.0
 23
0.0
 33
0.0
 40
0.0
 40
0.0
 40
0.0
 40
0.0
 40
0.1323067423270165
 40
0.2645738547553944
 40
0.3998013553940356
 40
0.5350040083861263
 40
0.6501937281115602
 40
0.7654022249186174
 40
0.8826897347870754
 40
1.0
 40
1.0
 40
1.0
 40
1.0
 10
425.9721488644209
 20
-41.92110524503948
 30
0.0
 10
425.7476429332809
 20
-42.0434779538483
 30
0.0
 10
425.2986983173645
 20
-42.28818671711279
 30
0.0
 10
424.60741684326
 20
-42.55146018553116
 30
0.0
 10
423.9030637863727
 20
-42.70978955085852
 30
0.0
 10
423.224235325625
 20
-42.74113033631999
 30
0.0
 10
422.5821096575351
 20
-42.6597957617009
 30
0.0
 10
421.9760794369218
 20
-42.49311800578995
 30
0.0
 10
421.3727891414054
 20
-42.24863519496549
 30
0.0
 10
420.9749390751501
 20
-42.03028895467811
 30
0.0
 10
420.7759947468368
 20
-41.92110524503945
 30
0.0
  0
LINE
  5
2F0
330
1F
100
AcDbEntity
  8
0
  6
Continuous
 62
     7
370
    15
100
AcDbLine
 10
420.7759947468
 20
-33.9948348793
 30
0.0
 11
420.7759947468
 21
-41.921105245
 31
0.0
  0
SPLINE
  5
2F1
330
1F
100
AcDbEntity
  8
0
  6
Continuous
 62
     7
370
    15
100
AcDbSpline
210
0.0
220
0.0
230
1.0
 70
     8
 71
     3
 72
    15
 73
    11
 74
     0
 42
0.00000001
 43
0.00000001
 12
1.0
 22
0.0
 32
0.0
 13
1.0
 23
0.0
 33
0.0
 40
0.0
 40
0.0
 40
0.0
 40
0.0
 40
0.1323067423269607
 40
0.2645738547552828
 40
0.399801355393867
 40
0.5350040083859006
 40
0.6501937281112861
 40
0.7654022249182946
 40
0.8826897347867032
 40
1.0
 40
1.0
 40
1.0
 40
1.0
 10
-357.6355724643144
 20
-33.99483487932445
 30
0.0
 10
-357.4110665331744
 20
-33.87246217051565
 30
0.0
 10
-356.962121917258
 20
-33.62775340725111
 30
0.0
 10
-356.2708404431535
 20
-33.36447993883282
 30
0.0
 10
-355.5664873862661
 20
-33.20615057350532
 30
0.0
 10
-354.8876589255185
 20
-33.17480978804399
 30
0.0
 10
-354.2455332574287
 20
-33.256144362663
 30
0.0
 10
-353.6395030368154
 20
-33.42282211857395
 30
0.0
 10
-353.0362127412978
 20
-33.66730492939898
 30
0.0
 10
-352.6383626750434
 20
-33.88565116968589
 30
0.0
 10
-352.4394183467302
 20
-33.99483487932445
 30
0.0
  0
SPLINE
  5
2F2
330
1F
100
AcDbEntity
  8
0
  6
Continuous
 62
     7
370
    15
100
AcDbSpline
210
0.0
220
0.0
230
1.0
 70
     8
 71
     3
 72
    16
 73
    12
 74
     0
 42
0.00000001
 43
0.00000001
 12
1.0
 22
0.0
 32
0.0
 13
1.0
 23
0.0
 33
0.0
 40
0.0
 40
0.0
 40
0.0
 40
0.0
 40
0.2499999999999961
 40
0.2499999999999961
 40
0.4999999999999922
 40
0.4999999999999922
 40
0.6249999999999902
 40
0.6249999999999902
 40
0.7499999999999883
 40
0.7499999999999883
 40
1.0
 40
1.0
 40
1.0
 40
1.0
 10
-357.635569191872
 20
-33.99482642332477
 30
0.0
 10
-358.4807227972273
 20
-33.75085193816543
 30
0.0
 10
-359.3465489943299
 20
-33.54615872283659
 30
0.0
 10
-361.0824308081888
 20
-33.26630598627936
 30
0.0
 10
-361.9550691630108
 20
-33.19089769243788
 30
0.0
 10
-363.272271393958
 20
-33.19102377981339
 30
0.0
 10
-363.7126966302224
 20
-33.20971515165097
 30
0.0
 10
-364.5962258475449
 20
-33.28388967247051
 30
0.0
 10
-365.0353319801746
 20
-33.3390656881756
 30
0.0
 10
-366.3369325492342
 20
-33.550401874818
 30
0.0
 10
-367.1879392071542
 20
-33.75236417189456
 30
0.0
 10
-368.0278533007469
 20
-33.99482610368263
 30
0.0
  0
SPLINE
  5
2F3
330
1F
100
AcDbEntity
  8
0
  6
Continuous
 62
     7
370
    15
100
AcDbSpline
210
0.0
220
0.0
230
1.0
 70
     8
 71
     3
 72
    15
 73
    11
 74
     0
 42
0.00000001
 43
0.00000001
 12
1.0
 22
0.0
 32
0.0
 13
1.0
 23
0.0
 33
0.0
 40
0.0
 40
0.0
 40
0.0
 40
0.0
 40
0.1323053784330808
 40
0.2645725134371564
 40
0.3998000083634594
 40
0.5350026174257343
 40
0.6501937611669381
 40
0.7654022720477991
 40
0.8826897582309492
 40
1.0
 40
1.0
 40
1.0
 40
1.0
 10
-373.2240050147447
 20
-33.99483487932445
 30
0.0
 10
-372.9995109735672
 20
-33.87246192961393
 30
0.0
 10
-372.550587782164
 20
-33.62775140261148
 30
0.0
 10
-371.8593019165298
 20
-33.36448030437892
 30
0.0
 10
-371.1549475492304
 20
-33.20615034539734
 30
0.0
 10
-370.4761282388944
 20
-33.17481024439797
 30
0.0
 10
-369.8339602937503
 20
-33.25614347843581
 30
0.0
 10
-369.227937873723
 20
-33.42282213559969
 30
0.0
 10
-368.6246447312123
 20
-33.6673049188862
 30
0.0
 10
-368.2267950387619
 20
-33.88565116610521
 30
0.0
 10
-368.0278508971605
 20
-33.99483487932445
 30
0.0
  0
LINE
  5
2F4
330
1F
100
AcDbEntity
  8
0
  6
Continuous
 62
     7
370
    15
100
AcDbLine
 10
-371.0817246746
 20
-32.7579639944
 30
0.0
 11
-354.5816986869
 21
-32.7579639944
 31
0.0
  0
LINE
  5
2F5
330
1F
100
AcDbEntity
  8
0
  6
Continuous
 62
     7
370
    15
100
AcDbLine
 10
-357.6355724643
 20
-33.9948348793
 30
0.0
 11
-357.6355724643
 21
-41.921105245
 31
0.0
  0
SPLINE
  5
2F6
330
1F
100
AcDbEntity
  8
0
  6
Continuous
 62
     7
370
    15
100
AcDbSpline
210
0.0
220
0.0
230
1.0
 70
     8
 71
     3
 72
    16
 73
    12
 74
     0
 42
0.00000001
 43
0.00000001
 12
1.0
 22
0.0
 32
0.0
 13
1.0
 23
0.0
 33
0.0
 40
0.0
 40
0.0
 40
0.0
 40
0.0
 40
0.2500000000000039
 40
0.2500000000000039
 40
0.5000000000000078
 40
0.5000000000000078
 40
0.6250000000000098
 40
0.6250000000000098
 40
0.7500000000000117
 40
0.7500000000000117
 40
1.0
 40
1.0
 40
1.0
 40
1.0
 10
-357.6355699471289
 20
-41.92111174945362
 30
0.0
 10
-358.4807234526265
 20
-42.16508617919035
 30
0.0
 10
-359.3465495442753
 20
-42.36977934224104
 30
0.0
 10
-361.082431137136
 20
-42.64963199984476
 30
0.0
 10
-361.9550693804417
 20
-42.72504026818208
 30
0.0
 10
-363.2722714419706
 20
-42.72491417199392
 30
0.0
 10
-363.7126966214119
 20
-42.70622280203268
 30
0.0
 10
-364.5962257243985
 20
-42.6320482944336
 30
0.0
 10
-365.0353318018423
 20
-42.57687228980711
 30
0.0
 10
-366.3369322073611
 20
-42.3655361469002
 30
0.0
 10
-367.1879387600027
 20
-42.16357389266904
 30
0.0
 10
-368.0278527500478
 20
-41.92111201004511
 30
0.0
  0
LINE
  5
2F7
330
1F
100
AcDbEntity
  8
0
  6
Continuous
 62
     7
370
    15
100
AcDbLine
 10
-368.0278508972
 20
-33.9948348793
 30
0.0
 11
-368.0278508972
 21
-41.921105245
 31
0.0
  0
LINE
  5
2F8
330
1F
100
AcDbEntity
  8
0
  6
Continuous
 62
     7
370
    15
100
AcDbLine
 10
-352.4394183467
 20
-33.9948348793
 30
0.0
 11
-352.4394183467
 21
-41.921105245
 31
0.0
  0
SPLINE
  5
2F9
330
1F
100
AcDbEntity
  8
0
  6
Continuous
 62
     7
370
    15
100
AcDbSpline
210
0.0
220
0.0
230
1.0
 70
     8
 71
     3
 72
    15
 73
    11
 74
     0
 42
0.00000001
 43
0.00000001
 12
1.0
 22
0.0
 32
0.0
 13
1.0
 23
0.0
 33
0.0
 40
0.0
 40
0.0
 40
0.0
 40
0.0
 40
0.1323053784330758
 40
0.264572513437152
 40
0.3998000083634559
 40
0.5350026174257315
 40
0.650193761166936
 40
0.7654022720477975
 40
0.8826897582309483
 40
1.0
 40
1.0
 40
1.0
 40
1.0
 10
-352.4394183467302
 20
-41.92110524503948
 30
0.0
 10
-352.6639123879076
 20
-42.04347819474999
 30
0.0
 10
-353.112835579311
 20
-42.28818872175244
 30
0.0
 10
-353.8041214449452
 20
-42.55145981998493
 30
0.0
 10
-354.5084758122446
 20
-42.70978977896661
 30
0.0
 10
-355.1872951225806
 20
-42.7411298799659
 30
0.0
 10
-355.8294630677246
 20
-42.65979664592815
 30
0.0
 10
-356.4354854877519
 20
-42.49311798876423
 30
0.0
 10
-357.0387786302625
 20
-42.24863520547773
 30
0.0
 10
-357.436628322713
 20
-42.03028895825875
 30
0.0
 10
-357.6355724643144
 20
-41.92110524503948
 30
0.0
  0
SPLINE
  5
2FA
330
1F
100
AcDbEntity
  8
0
  6
Continuous
 62
     7
370
    15
100
AcDbSpline
210
0.0
220
0.0
230
1.0
 70
     8
 71
     3
 72
    15
 73
    11
 74
     0
 42
0.00000001
 43
0.00000001
 12
1.0
 22
0.0
 32
0.0
 13
1.0
 23
0.0
 33
0.0
 40
0.0
 40
0.0
 40
0.0
 40
0.0
 40
0.1323067423269599
 40
0.2645738547552812
 40
0.3998013553938646
 40
0.5350040083858975
 40
0.6501937281112822
 40
0.7654022249182901
 40
0.882689734786698
 40
1.0
 40
1.0
 40
1.0
 40
1.0
 10
-368.0278508971605
 20
-41.92110524503948
 30
0.0
 10
-368.2523568283005
 20
-42.0434779538483
 30
0.0
 10
-368.7013014442169
 20
-42.28818671711284
 30
0.0
 10
-369.3925829183214
 20
-42.55146018553111
 30
0.0
 10
-370.0969359752087
 20
-42.70978955085861
 30
0.0
 10
-370.7757644359565
 20
-42.74113033631996
 30
0.0
 10
-371.4178901040463
 20
-42.6597957617009
 30
0.0
 10
-372.0239203246595
 20
-42.49311800579
 30
0.0
 10
-372.6272106201772
 20
-42.24863519496491
 30
0.0
 10
-373.0250606864315
 20
-42.03028895467806
 30
0.0
 10
-373.2240050147447
 20
-41.92110524503948
 30
0.0
  0
LINE
  5
2FB
330
1F
100
AcDbEntity
  8
0
  6
Continuous
 62
     7
370
    15
100
AcDbLine
 10
-373.2240050147
 20
-33.9948348793
 30
0.0
 11
-373.2240050147
 21
-41.921105245
 31
0.0
  0
LINE
  5
2FC
330
1F
100
AcDbEntity
  8
0
  6
Continuous
 62
     7
370
    15
100
AcDbLine
 10
425.1682908227
 20
2.3420341221
 30
0.0
 11
437.168285339
 21
2.3420341221
 31
0.0
  0
LINE
  5
2FD
330
1F
100
AcDbEntity
  8
0
  6
Continuous
 62
     7
370
    15
100
AcDbLine
 10
-368.8317089389
 20
2.3420341221
 30
0.0
 11
-356.8317144226
 21
2.3420341221
 31
0.0
  0
LINE
  5
2FE
330
1F
100
AcDbEntity
  8
0
  6
Continuous
 62
     7
370
     0
100
AcDbLine
 10
-376.8317251514
 20
-48.9089749846
 30
0.0
 11
445.1683015515
 21
-48.9089749846
 31
0.0
  0
LINE
  5
2FF
330
1F
100
AcDbEntity
  8
0
  6
Continuous
 62
     7
370
     0
100
AcDbLine
 10
-374.0931897472
 20
-51.8975593242
 30
0.0
 11
442.4297661473
 21
-51.8975593242
 31
0.0
  0
LINE
  5
300
330
1F
100
AcDbEntity
  8
0
  6
Continuous
 62
     7
370
     0
100
AcDbLine
 10
383.9803785969
 20
-53.3198304567
 30
0.0
 11
426.1591882397
 21
-53.3198304567
 31
0.0
  0
LINE
  5
301
330
1F
100
AcDbEntity
  8
0
  6
Continuous
 62
     7
370
     0
100
AcDbLine
 10
238.6682928492
 20
-53.3198304567
 30
0.0
 11
371.9909341027
 21
-53.3198304567
 31
0.0
  0
LINE
  5
302
330
1F
100
AcDbEntity
  8
0
  6
Continuous
 62
     7
370
     0
100
AcDbLine
 10
40.1682882522
 20
-53.3198304567
 30
0.0
 11
226.6682834317
 21
-53.3198304567
 31
0.0
  0
LINE
  5
303
330
1F
100
AcDbEntity
  8
0
  6
Continuous
 62
     7
370
     0
100
AcDbLine
 10
-158.3317070316
 20
-53.3198304567
 30
0.0
 11
28.1682881479
 21
-53.3198304567
 31
0.0
  0
LINE
  5
304
330
1F
100
AcDbEntity
  8
0
  6
Continuous
 62
     7
370
     0
100
AcDbLine
 10
-303.6543577026
 20
-53.3198304567
 30
0.0
 11
-170.3317164491
 21
-53.3198304567
 31
0.0
  0
LINE
  5
305
330
1F
100
AcDbEntity
  8
0
  6
Continuous
 62
     7
370
     0
100
AcDbLine
 10
-357.8226118396
 20
-53.3198304567
 30
0.0
 11
-315.6438021968
 21
-53.3198304567
 31
0.0
  0
LINE
  5
306
330
1F
100
AcDbEntity
  8
0
  6
Continuous
 62
     7
370
     0
100
AcDbLine
 10
-353.2791583846
 20
-58.0391250643
 30
0.0
 11
-315.6438021968
 21
-58.0391250643
 31
0.0
  0
LINE
  5
307
330
1F
100
AcDbEntity
  8
0
  6
Continuous
 62
     7
370
     0
100
AcDbLine
 10
-303.6438076805
 20
-58.0391250643
 30
0.0
 11
-170.3317164491
 21
-58.0391250643
 31
0.0
  0
LINE
  5
308
330
1F
100
AcDbEntity
  8
0
  6
Continuous
 62
     7
370
     0
100
AcDbLine
 10
-158.3317070316
 20
-58.0391250643
 30
0.0
 11
28.1682881479
 21
-58.0391250643
 31
0.0
  0
LINE
  5
309
330
1F
100
AcDbEntity
  8
0
  6
Continuous
 62
     7
370
     0
100
AcDbLine
 10
40.1682882522
 20
-58.0391250643
 30
0.0
 11
226.6682834317
 21
-58.0391250643
 31
0.0
  0
LINE
  5
30A
330
1F
100
AcDbEntity
  8
0
  6
Continuous
 62
     7
370
     0
100
AcDbLine
 10
238.6682928492
 20
-58.0391250643
 30
0.0
 11
371.9803840806
 21
-58.0391250643
 31
0.0
  0
LINE
  5
30B
330
1F
100
AcDbEntity
  8
0
  6
Continuous
 62
     7
370
     0
100
AcDbLine
 10
383.9803785969
 20
-58.0391250643
 30
0.0
 11
421.6157347848
 21
-58.0391250643
 31
0.0
  0
LINE
  5
30C
330
1F
100
AcDbEntity
  8
0
  6
Continuous
 62
     7
370
     0
100
AcDbLine
 10
-351.955875666
 20
-83.2888074311
 30
0.0
 11
-315.6438021968
 21
-83.2888074311
 31
0.0
  0
LINE
  5
30D
330
1F
100
AcDbEntity
  8
0
  6
Continuous
 62
     7
370
     0
100
AcDbLine
 10
-303.6438076805
 20
-83.2888074311
 30
0.0
 11
-170.3317164491
 21
-83.2888074311
 31
0.0
  0
LINE
  5
30E
330
1F
100
AcDbEntity
  8
0
  6
Continuous
 62
     7
370
     0
100
AcDbLine
 10
-158.3317070316
 20
-83.2888074311
 30
0.0
 11
28.1682881479
 21
-83.2888074311
 31
0.0
  0
LINE
  5
30F
330
1F
100
AcDbEntity
  8
0
  6
Continuous
 62
     7
370
     0
100
AcDbLine
 10
40.1682882522
 20
-83.2888074311
 30
0.0
 11
226.6682834317
 21
-83.2888074311
 31
0.0
  0
LINE
  5
310
330
1F
100
AcDbEntity
  8
0
  6
Continuous
 62
     7
370
     0
100
AcDbLine
 10
238.6682928492
 20
-83.2888074311
 30
0.0
 11
371.9803840806
 21
-83.2888074311
 31
0.0
  0
LINE
  5
311
330
1F
100
AcDbEntity
  8
0
  6
Continuous
 62
     7
370
     0
100
AcDbLine
 10
383.9803785969
 20
-83.2888074311
 30
0.0
 11
420.2924520661
 21
-83.2888074311
 31
0.0
  0
LINE
  5
312
330
1F
100
AcDbEntity
  8
FORMAT
  6
CENTERX2
370
     0
100
AcDbLine
 10
34.1682882001
 20
10.429485932
 30
0.0
 11
34.1682882001
 21
-177.6579689774
 31
0.0
  0
ENDSEC
  0
SECTION
  2
OBJECTS
  0
DICTIONARY
  5
C
330
0
100
AcDbDictionary
281
     1
  3
ACAD_GROUP
350
D
  3
ACAD_LAYOUT
350
1A
  3
ACAD_MLINESTYLE
350
17
  3
ACAD_PLOTSETTINGS
350
19
  3
ACAD_PLOTSTYLENAME
350
E
  0
DICTIONARY
  5
D
102
{ACAD_REACTORS
330
C
102
}
330
C
100
AcDbDictionary
281
     1
  0
DICTIONARY
  5
1A
102
{ACAD_REACTORS
330
C
102
}
330
C
100
AcDbDictionary
281
     1
  3
Layout1
350
1E
  3
Layout2
350
26
  3
Model
350
22
  0
DICTIONARY
  5
17
102
{ACAD_REACTORS
330
C
102
}
330
C
100
AcDbDictionary
281
     1
  3
Standard
350
18
  0
DICTIONARY
  5
19
102
{ACAD_REACTORS
330
C
102
}
330
C
100
AcDbDictionary
281
     1
  0
ACDBDICTIONARYWDFLT
  5
E
102
{ACAD_REACTORS
330
C
102
}
330
C
100
AcDbDictionary
281
     1
  3
Normal
350
F
100
AcDbDictionaryWithDefault
340
F
  0
LAYOUT
  5
1E
102
{ACAD_REACTORS
330
1A
102
}
330
1A
100
AcDbPlotSettings
  1

  2
none_device
  4

  6

 40
0.0
 41
0.0
 42
0.0
 43
0.0
 44
0.0
 45
0.0
 46
0.0
 47
0.0
 48
0.0
 49
0.0
140
0.0
141
0.0
142
1.0
143
1.0
 70
   688
 72
     0
 73
     0
 74
     5
  7

 75
    16
147
1.0
148
0.0
149
0.0
100
AcDbLayout
  1
Layout1
 70
     1
 71
     1
 10
0.0
 20
0.0
 11
420.0
 21
297.0
 12
0.0
 22
0.0
 32
0.0
 14
1.0000000000E+20
 24
1.0000000000E+20
 34
1.0000000000E+20
 15
-1.0000000000E+20
 25
-1.0000000000E+20
 35
-1.0000000000E+20
146
0.0
 13
0.0
 23
0.0
 33
0.0
 16
1.0
 26
0.0
 36
0.0
 17
0.0
 27
1.0
 37
0.0
 76
     0
330
1B
  0
LAYOUT
  5
26
102
{ACAD_REACTORS
330
1A
102
}
330
1A
100
AcDbPlotSettings
  1

  2
none_device
  4

  6

 40
0.0
 41
0.0
 42
0.0
 43
0.0
 44
0.0
 45
0.0
 46
0.0
 47
0.0
 48
0.0
 49
0.0
140
0.0
141
0.0
142
1.0
143
1.0
 70
   688
 72
     0
 73
     0
 74
     5
  7

 75
    16
147
1.0
148
0.0
149
0.0
100
AcDbLayout
  1
Layout2
 70
     1
 71
     2
 10
0.0
 20
0.0
 11
0.0
 21
0.0
 12
0.0
 22
0.0
 32
0.0
 14
0.0
 24
0.0
 34
0.0
 15
0.0
 25
0.0
 35
0.0
146
0.0
 13
0.0
 23
0.0
 33
0.0
 16
1.0
 26
0.0
 36
0.0
 17
0.0
 27
1.0
 37
0.0
 76
     0
330
23
  0
LAYOUT
  5
22
102
{ACAD_REACTORS
330
1A
102
}
330
1A
100
AcDbPlotSettings
  1

  2
none_device
  4

  6

 40
0.0
 41
0.0
 42
0.0
 43
0.0
 44
0.0
 45
0.0
 46
0.0
 47
0.0
 48
0.0
 49
0.0
140
0.0
141
0.0
142
1.0
143
1.0
 70
  1712
 72
     0
 73
     0
 74
     0
  7

 75
     0
147
1.0
148
0.0
149
0.0
100
AcDbLayout
  1
Model
 70
     1
 71
     0
 10
0.0
 20
0.0
 11
841.0
 21
594.0
 12
0.0
 22
0.0
 32
0.0
 14
0.0
 24
0.0
 34
0.0
 15
841.0
 25
594.0
 35
0.0
146
0.0
 13
0.0
 23
0.0
 33
0.0
 16
1.0
 26
0.0
 36
0.0
 17
0.0
 27
1.0
 37
0.0
 76
     0
330
1F
331
29
  0
MLINESTYLE
  5
18
102
{ACAD_REACTORS
330
17
102
}
330
17
100
AcDbMlineStyle
  2
Standard
 70
     0
  3

 62
   256
 51
90.0
 52
90.0
 71
     2
 49
0.5
 62
   256
  6
BYLAYER
 49
-0.5
 62
   256
  6
BYLAYER
  0
ACDBPLACEHOLDER
  5
F
102
{ACAD_REACTORS
330
E
102
}
330
E
  0
ENDSEC
  0
EOF
