  0
SECTION
  2
HEADER
  9
$ACADVER
  1
AC1015
  9
$ACADMAINTVER
 70
     6
  9
$DWGCODEPAGE
  3
ANSI_1252
  9
$INSBASE
 10
0.0
 20
0.0
 30
0.0
  9
$EXTMIN
 10
0.0
 20
0.0
 30
0.0
  9
$EXTMAX
 10
841.0
 20
594.0
 30
0.0
  9
$LIMMIN
 10
0.0
 20
0.0
  9
$LIMMAX
 10
841.0
 20
594.0
  9
$ORTHOMODE
 70
     0
  9
$REGENMODE
 70
     1
  9
$FILLMODE
 70
     1
  9
$QTEXTMODE
 70
     0
  9
$MIRRTEXT
 70
     1
  9
$LTSCALE
 40
1.0
  9
$ATTMODE
 70
     1
  9
$TEXTSIZE
 40
2.5
  9
$TRACEWID
 40
1.0
  9
$TEXTSTYLE
  7
Standard
  9
$CLAYER
  8
0
  9
$CELTYPE
  6
ByLayer
  9
$CECOLOR
 62
   256
  9
$CELTSCALE
 40
1.0
  9
$DISPSILH
 70
     0
  9
$DIMSCALE
 40
1.0
  9
$DIMASZ
 40
2.5
  9
$DIMEXO
 40
1.0
  9
$DIMDLI
 40
3.75
  9
$DIMRND
 40
0.0
  9
$DIMDLE
 40
0.0
  9
$DIMEXE
 40
1.0
  9
$DIMTP
 40
0.0
  9
$DIMTM
 40
0.0
  9
$DIMTXT
 40
2.5
  9
$DIMCEN
 40
2.5
  9
$DIMTSZ
 40
0.0
  9
$DIMTOL
 70
     0
  9
$DIMLIM
 70
     0
  9
$DIMTIH
 70
     1
  9
$DIMTOH
 70
     1
  9
$DIMSE1
 70
     0
  9
$DIMSE2
 70
     0
  9
$DIMTAD
 70
     1
  9
$DIMZIN
 70
     0
  9
$DIMBLK
  1

  9
$DIMASO
 70
     1
  9
$DIMSHO
 70
     1
  9
$DIMPOST
  1

  9
$DIMAPOST
  1

  9
$DIMALT
 70
     0
  9
$DIMALTD
 70
     3
  9
$DIMALTF
 40
0.0393700787
  9
$DIMLFAC
 40
1.0
  9
$DIMTOFL
 70
     1
  9
$DIMTVP
 40
0.0
  9
$DIMTIX
 70
     0
  9
$DIMSOXD
 70
     0
  9
$DIMSAH
 70
     0
  9
$DIMBLK1
  1

  9
$DIMBLK2
  1

  9
$DIMSTYLE
  2
ISO-25
  9
$DIMCLRD
 70
     0
  9
$DIMCLRE
 70
     0
  9
$DIMCLRT
 70
     0
  9
$DIMTFAC
 40
1.0
  9
$DIMGAP
 40
1.524
  9
$DIMJUST
 70
     0
  9
$DIMSD1
 70
     0
  9
$DIMSD2
 70
     0
  9
$DIMTOLJ
 70
     0
  9
$DIMTZIN
 70
     0
  9
$DIMALTZ
 70
     0
  9
$DIMALTTZ
 70
     0
  9
$DIMUPT
 70
     0
  9
$DIMDEC
 70
     2
  9
$DIMTDEC
 70
     2
  9
$DIMALTU
 70
     2
  9
$DIMALTTD
 70
     3
  9
$DIMTXSTY
  7
Standard
  9
$DIMAUNIT
 70
     0
  9
$DIMADEC
 70
     2
  9
$DIMALTRND
 40
0.0
  9
$DIMAZIN
 70
     0
  9
$DIMDSEP
 70
    44
  9
$DIMATFIT
 70
     3
  9
$DIMFRAC
 70
     0
  9
$DIMLDRBLK
  1

  9
$DIMLUNIT
 70
     2
  9
$DIMLWD
 70
    -2
  9
$DIMLWE
 70
    -2
  9
$DIMTMOVE
 70
     0
  9
$LUNITS
 70
     2
  9
$LUPREC
 70
     2
  9
$SKETCHINC
 40
1.0
  9
$FILLETRAD
 40
10.0
  9
$AUNITS
 70
     0
  9
$AUPREC
 70
     2
  9
$MENU
  1
.
  9
$ELEVATION
 40
0.0
  9
$PELEVATION
 40
0.0
  9
$THICKNESS
 40
0.0
  9
$LIMCHECK
 70
     0
  9
$CHAMFERA
 40
10.0
  9
$CHAMFERB
 40
10.0
  9
$CHAMFERC
 40
20.0
  9
$CHAMFERD
 40
0.0
  9
$SKPOLY
 70
     0
  9
$TDCREATE
 40
2458052.434762754
  9
$TDUCREATE
 40
2458052.351429421
  9
$TDUPDATE
 40
2458052.434764734
  9
$TDUUPDATE
 40
2458052.351431401
  9
$TDINDWG
 40
0.0000000116
  9
$TDUSRTIMER
 40
0.0000000116
  9
$USRTIMER
 70
     1
  9
$ANGBASE
 50
0.0
  9
$ANGDIR
 70
     0
  9
$PDMODE
 70
     0
  9
$PDSIZE
 40
-1.0
  9
$PLINEWID
 40
0.0
  9
$SPLFRAME
 70
     0
  9
$SPLINETYPE
 70
     6
  9
$SPLINESEGS
 70
     8
  9
$HANDSEED
  5
345
  9
$SURFTAB1
 70
     6
  9
$SURFTAB2
 70
     6
  9
$SURFTYPE
 70
     6
  9
$SURFU
 70
     6
  9
$SURFV
 70
     6
  9
$UCSBASE
  2

  9
$UCSNAME
  2

  9
$UCSORG
 10
0.0
 20
0.0
 30
0.0
  9
$UCSXDIR
 10
1.0
 20
0.0
 30
0.0
  9
$UCSYDIR
 10
0.0
 20
1.0
 30
0.0
  9
$UCSORTHOREF
  2

  9
$UCSORTHOVIEW
 70
     0
  9
$UCSORGTOP
 10
0.0
 20
0.0
 30
0.0
  9
$UCSORGBOTTOM
 10
0.0
 20
0.0
 30
0.0
  9
$UCSORGLEFT
 10
0.0
 20
0.0
 30
0.0
  9
$UCSORGRIGHT
 10
0.0
 20
0.0
 30
0.0
  9
$UCSORGFRONT
 10
0.0
 20
0.0
 30
0.0
  9
$UCSORGBACK
 10
0.0
 20
0.0
 30
0.0
  9
$PUCSBASE
  2

  9
$PUCSNAME
  2

  9
$PUCSORG
 10
0.0
 20
0.0
 30
0.0
  9
$PUCSXDIR
 10
1.0
 20
0.0
 30
0.0
  9
$PUCSYDIR
 10
0.0
 20
1.0
 30
0.0
  9
$PUCSORTHOREF
  2

  9
$PUCSORTHOVIEW
 70
     0
  9
$PUCSORGTOP
 10
0.0
 20
0.0
 30
0.0
  9
$PUCSORGBOTTOM
 10
0.0
 20
0.0
 30
0.0
  9
$PUCSORGLEFT
 10
0.0
 20
0.0
 30
0.0
  9
$PUCSORGRIGHT
 10
0.0
 20
0.0
 30
0.0
  9
$PUCSORGFRONT
 10
0.0
 20
0.0
 30
0.0
  9
$PUCSORGBACK
 10
0.0
 20
0.0
 30
0.0
  9
$USERI1
 70
     0
  9
$USERI2
 70
     0
  9
$USERI3
 70
     0
  9
$USERI4
 70
     0
  9
$USERI5
 70
     0
  9
$USERR1
 40
0.0
  9
$USERR2
 40
0.0
  9
$USERR3
 40
0.0
  9
$USERR4
 40
0.0
  9
$USERR5
 40
0.0
  9
$WORLDVIEW
 70
     1
  9
$SHADEDGE
 70
     3
  9
$SHADEDIF
 70
    70
  9
$TILEMODE
 70
     1
  9
$MAXACTVP
 70
    64
  9
$PINSBASE
 10
0.0
 20
0.0
 30
0.0
  9
$PLIMCHECK
 70
     0
  9
$PEXTMIN
 10
1.0000000000E+20
 20
1.0000000000E+20
 30
1.0000000000E+20
  9
$PEXTMAX
 10
-1.0000000000E+20
 20
-1.0000000000E+20
 30
-1.0000000000E+20
  9
$PLIMMIN
 10
0.0
 20
0.0
  9
$PLIMMAX
 10
420.0
 20
297.0
  9
$UNITMODE
 70
     0
  9
$VISRETAIN
 70
     1
  9
$PLINEGEN
 70
     0
  9
$PSLTSCALE
 70
     1
  9
$TREEDEPTH
 70
  3020
  9
$CMLSTYLE
  2
Standard
  9
$CMLJUST
 70
     0
  9
$CMLSCALE
 40
20.0
  9
$PROXYGRAPHICS
 70
     1
  9
$MEASUREMENT
 70
     1
  9
$CELWEIGHT
370
    -1
  9
$ENDCAPS
280
     0
  9
$JOINSTYLE
280
     0
  9
$LWDISPLAY
290
     1
  9
$INSUNITS
 70
     4
  9
$HYPERLINKBASE
  1

  9
$STYLESHEET
  1

  9
$XEDIT
290
     1
  9
$CEPSNTYPE
380
     0
  9
$PSTYLEMODE
290
     1
  9
$FINGERPRINTGUID
  2
{EE479DD1-5349-4734-94C1-654B5988911C}
  9
$VERSIONGUID
  2
{FAEB1C32-E019-11D5-929B-00C0DF256EC4}
  9
$EXTNAMES
290
     1
  9
$PSVPSCALE
 40
0.0
  9
$OLESTARTUP
290
     0
  0
ENDSEC
  0
SECTION
  2
CLASSES
  0
CLASS
  1
ACDBDICTIONARYWDFLT
  2
AcDbDictionaryWithDefault
  3
ObjectDBX Classes
 90
        0
280
     0
281
     0
  0
CLASS
  1
VISUALSTYLE
  2
AcDbVisualStyle
  3
ObjectDBX Classes
 90
     4095
280
     0
281
     0
  0
CLASS
  1
MATERIAL
  2
AcDbMaterial
  3
ObjectDBX Classes
 90
     1153
280
     0
281
     0
  0
CLASS
  1
ACDBPLACEHOLDER
  2
AcDbPlaceHolder
  3
ObjectDBX Classes
 90
        0
280
     0
281
     0
  0
CLASS
  1
LAYOUT
  2
AcDbLayout
  3
ObjectDBX Classes
 90
        0
280
     0
281
     0
  0
ENDSEC
  0
SECTION
  2
TABLES
  0
TABLE
  2
VPORT
  5
8
330
0
100
AcDbSymbolTable
 70
     1
  0
VPORT
  5
29
330
8
100
AcDbSymbolTableRecord
100
AcDbViewportTableRecord
  2
*Active
 70
     0
 10
0.0
 20
0.0
 11
1.0
 21
1.0
 12
420.5
 22
297.0
 13
0.0
 23
0.0
 14
10.0
 24
10.0
 15
10.0
 25
10.0
 16
0.0
 26
0.0
 36
1.0
 17
0.0
 27
0.0
 37
0.0
 40
594.0
 41
1.4158249158
 42
50.0
 43
0.0
 44
0.0
 50
0.0
 51
0.0
 71
     0
 72
  2000
 73
     1
 74
     3
 75
     0
 76
     0
 77
     0
 78
     0
281
     0
 65
     1
110
0.0
120
0.0
130
0.0
111
1.0
121
0.0
131
0.0
112
0.0
122
1.0
132
0.0
 79
     0
146
0.0
  0
ENDTAB
  0
TABLE
  2
LTYPE
  5
5
330
0
100
AcDbSymbolTable
 70
     6
  0
LTYPE
  5
14
330
5
100
AcDbSymbolTableRecord
100
AcDbLinetypeTableRecord
  2
ByBlock
 70
     0
  3

 72
    65
 73
     0
 40
0.0
  0
LTYPE
  5
15
330
5
100
AcDbSymbolTableRecord
100
AcDbLinetypeTableRecord
  2
ByLayer
 70
     0
  3

 72
    65
 73
     0
 40
0.0
  0
LTYPE
  5
16
330
5
100
AcDbSymbolTableRecord
100
AcDbLinetypeTableRecord
  2
Continuous
 70
     0
  3
Solid line
 72
    65
 73
     0
 40
0.0
  0
LTYPE
  5
3F
330
5
100
AcDbSymbolTableRecord
100
AcDbLinetypeTableRecord
  2
HIDDEN
 70
     0
  3
Hidden __ __ __ __ __ __ __ __ __ __ __ __ __ __
 72
    65
 73
     2
 40
1.905
 49
1.27
 74
     0
 49
-0.635
 74
     0
  0
LTYPE
  5
40
330
5
100
AcDbSymbolTableRecord
100
AcDbLinetypeTableRecord
  2
PHANTOM
 70
     0
  3
Phantom ______  __  __  ______  __  __  ______
 72
    65
 73
     6
 40
12.7
 49
6.35
 74
     0
 49
-1.27
 74
     0
 49
1.27
 74
     0
 49
-1.27
 74
     0
 49
1.27
 74
     0
 49
-1.27
 74
     0
  0
LTYPE
  5
41
330
5
100
AcDbSymbolTableRecord
100
AcDbLinetypeTableRecord
  2
CENTER
 70
     0
  3
Center ____ _ ____ _ ____ _ ____ _ ____ _ ____
 72
    65
 73
     4
 40
10.16
 49
6.35
 74
     0
 49
-1.27
 74
     0
 49
1.27
 74
     0
 49
-1.27
 74
     0
  0
LTYPE
  5
42
330
5
100
AcDbSymbolTableRecord
100
AcDbLinetypeTableRecord
  2
CENTERX2
 70
     0
  3
Center (2x) ________  __  ________  __  _____
 72
    65
 73
     4
 40
20.32
 49
12.7
 74
     0
 49
-2.54
 74
     0
 49
2.54
 74
     0
 49
-2.54
 74
     0
  0
LTYPE
  5
43
330
5
100
AcDbSymbolTableRecord
100
AcDbLinetypeTableRecord
  2
DOT2
 70
     0
  3
Dot (.5x) ........................................
 72
    65
 73
     2
 40
0.635
 49
0.0
 74
     0
 49
-0.635
 74
     0
  0
ENDTAB
  0
TABLE
  2
LAYER
  5
2
330
0
100
AcDbSymbolTable
 70
     3
  0
LAYER
  5
10
330
2
100
AcDbSymbolTableRecord
100
AcDbLayerTableRecord
  2
0
 70
     0
 62
     7
  6
Continuous
370
    -3
390
F
  0
LAYER
  5
44
330
2
100
AcDbSymbolTableRecord
100
AcDbLayerTableRecord
  2
FORMAT
 70
     0
 62
     7
  6
Continuous
370
    -3
390
F
  0
LAYER
  5
45
330
2
100
AcDbSymbolTableRecord
100
AcDbLayerTableRecord
  2
PROTOTYPE
 70
     0
 62
     7
  6
Continuous
370
    -3
390
F
  0
ENDTAB
  0
TABLE
  2
STYLE
  5
3
330
0
100
AcDbSymbolTable
 70
     1
  0
STYLE
  5
11
330
3
100
AcDbSymbolTableRecord
100
AcDbTextStyleTableRecord
  2
Standard
 70
     0
 40
0.0
 41
1.0
 50
0.0
 71
     0
 42
2.5
  3
txt
  4

  0
ENDTAB
  0
TABLE
  2
VIEW
  5
6
330
0
100
AcDbSymbolTable
 70
     0
  0
ENDTAB
  0
TABLE
  2
UCS
  5
7
330
0
100
AcDbSymbolTable
 70
     0
  0
ENDTAB
  0
TABLE
  2
APPID
  5
9
330
0
100
AcDbSymbolTable
 70
     1
  0
APPID
  5
12
330
9
100
AcDbSymbolTableRecord
100
AcDbRegAppTableRecord
  2
ACAD
 70
     0
  0
ENDTAB
  0
TABLE
  2
DIMSTYLE
  5
A
330
0
100
AcDbSymbolTable
 70
     1
100
AcDbDimStyleTable
  0
DIMSTYLE
105
27
330
A
100
AcDbSymbolTableRecord
100
AcDbDimStyleTableRecord
  2
ISO-25
 70
     0
 41
2.5
 42
0.625
 43
3.75
 44
1.25
 73
     0
 74
     0
 77
     1
 78
     8
140
2.5
141
2.5
143
0.0393700787
147
0.625
171
     3
172
     1
178
     0
271
     2
272
     2
274
     3
278
    44
283
     0
284
     8
340
11
  0
ENDTAB
  0
TABLE
  2
BLOCK_RECORD
  5
1
330
0
100
AcDbSymbolTable
 70
     2
  0
BLOCK_RECORD
  5
1F
330
1
100
AcDbSymbolTableRecord
100
AcDbBlockTableRecord
  2
*Model_Space
340
22
  0
BLOCK_RECORD
  5
1B
330
1
100
AcDbSymbolTableRecord
100
AcDbBlockTableRecord
  2
*Paper_Space
340
1E
  0
BLOCK_RECORD
  5
23
330
1
100
AcDbSymbolTableRecord
100
AcDbBlockTableRecord
  2
*Paper_Space0
340
26
  0
BLOCK_RECORD
  5
209
330
1
100
AcDbSymbolTableRecord
100
AcDbBlockTableRecord
  2
SW_CENTERMARKSYMBOL_0
340
0
102
{BLKREFS
331
214
102
}
  0
ENDTAB
  0
ENDSEC
  0
SECTION
  2
BLOCKS
  0
BLOCK
  5
20
330
1F
100
AcDbEntity
  8
0
100
AcDbBlockBegin
  2
*Model_Space
 70
     0
 10
0.0
 20
0.0
 30
0.0
  3
*Model_Space
  1

  0
ENDBLK
  5
21
330
1F
100
AcDbEntity
  8
0
100
AcDbBlockEnd
  0
BLOCK
  5
1C
330
1B
100
AcDbEntity
 67
     1
  8
0
100
AcDbBlockBegin
  2
*Paper_Space
 70
     0
 10
0.0
 20
0.0
 30
0.0
  3
*Paper_Space
  1

  0
ENDBLK
  5
1D
330
1B
100
AcDbEntity
 67
     1
  8
0
100
AcDbBlockEnd
  0
BLOCK
  5
24
330
23
100
AcDbEntity
  8
0
100
AcDbBlockBegin
  2
*Paper_Space0
 70
     0
 10
0.0
 20
0.0
 30
0.0
  3
*Paper_Space0
  1

  0
ENDBLK
  5
25
330
23
100
AcDbEntity
  8
0
100
AcDbBlockEnd
  0
BLOCK
  5
20A
330
209
100
AcDbEntity
  8
0
100
AcDbBlockBegin
  2
SW_CENTERMARKSYMBOL_0
 70
     0
 10
0.0
 20
0.0
 30
0.0
  3
SW_CENTERMARKSYMBOL_0
  1

  0
LINE
  5
20C
330
209
100
AcDbEntity
  8
FORMAT
 62
     0
100
AcDbLine
 10
0.0
 20
0.0
 30
0.0
 11
0.0
 21
2.5
 31
0.0
  0
LINE
  5
20D
330
209
100
AcDbEntity
  8
FORMAT
 62
     0
100
AcDbLine
 10
0.0
 20
0.0
 30
0.0
 11
-2.5
 21
0.0
 31
0.0
  0
LINE
  5
20E
330
209
100
AcDbEntity
  8
FORMAT
 62
     0
100
AcDbLine
 10
0.0
 20
0.0
 30
0.0
 11
0.0
 21
-2.5
 31
0.0
  0
LINE
  5
20F
330
209
100
AcDbEntity
  8
FORMAT
 62
     0
100
AcDbLine
 10
0.0
 20
0.0
 30
0.0
 11
2.5
 21
0.0
 31
0.0
  0
LINE
  5
210
330
209
100
AcDbEntity
  8
FORMAT
 62
     0
100
AcDbLine
 10
0.0
 20
5.0
 30
0.0
 11
0.0
 21
95.0
 31
0.0
  0
LINE
  5
211
330
209
100
AcDbEntity
  8
FORMAT
 62
     0
100
AcDbLine
 10
-5.0
 20
0.0
 30
0.0
 11
-95.0
 21
0.0
 31
0.0
  0
LINE
  5
212
330
209
100
AcDbEntity
  8
FORMAT
 62
     0
100
AcDbLine
 10
0.0
 20
-5.0
 30
0.0
 11
0.0
 21
-95.0
 31
0.0
  0
LINE
  5
213
330
209
100
AcDbEntity
  8
FORMAT
 62
     0
100
AcDbLine
 10
5.0
 20
0.0
 30
0.0
 11
95.0
 21
0.0
 31
0.0
  0
ENDBLK
  5
20B
330
209
100
AcDbEntity
  8
0
100
AcDbBlockEnd
  0
ENDSEC
  0
SECTION
  2
ENTITIES
  0
LINE
  5
46
330
1F
100
AcDbEntity
  8
0
  6
Continuous
 62
     7
370
    15
100
AcDbLine
 10
599.5768896093
 20
374.7885595026
 30
0.0
 11
617.5768888345
 21
374.7885595026
 31
0.0
  0
LINE
  5
47
330
1F
100
AcDbEntity
  8
0
  6
Continuous
 62
     7
370
    15
100
AcDbLine
 10
617.5768888345
 20
559.7885544362
 30
0.0
 11
599.5768896093
 21
559.7885544362
 31
0.0
  0
LINE
  5
48
330
1F
100
AcDbEntity
  8
0
  6
Continuous
 62
     7
370
    15
100
AcDbLine
 10
512.0167854031
 20
374.7885595026
 30
0.0
 11
531.0167866548
 21
374.7885595026
 31
0.0
  0
LINE
  5
49
330
1F
100
AcDbEntity
  8
0
  6
Continuous
 62
     7
370
    15
100
AcDbLine
 10
531.0167866548
 20
559.7885544362
 30
0.0
 11
512.0167854031
 21
559.7885544362
 31
0.0
  0
LINE
  5
4A
330
1F
100
AcDbEntity
  8
0
  6
Continuous
 62
     7
370
    15
100
AcDbLine
 10
712.0167883834
 20
559.7885544362
 30
0.0
 11
693.0167871317
 21
559.7885544362
 31
0.0
  0
LINE
  5
4B
330
1F
100
AcDbEntity
  8
0
  6
Continuous
 62
     7
370
    15
100
AcDbLine
 10
693.0167871317
 20
374.7885595026
 30
0.0
 11
712.0167883834
 21
374.7885595026
 31
0.0
  0
LINE
  5
4C
330
1F
100
AcDbEntity
  8
0
  6
Continuous
 62
     7
370
    15
100
AcDbLine
 10
617.5768888345
 20
398.7733158233
 30
0.0
 11
619.5768891623
 21
398.7733158233
 31
0.0
  0
LINE
  5
4D
330
1F
100
AcDbEntity
  8
0
  6
Continuous
 62
     7
370
    15
100
AcDbLine
 10
619.5768891623
 20
433.2733149591
 30
0.0
 11
617.5768888345
 21
433.2733149591
 31
0.0
  0
LINE
  5
4E
330
1F
100
AcDbEntity
  8
0
  6
Continuous
 62
     7
370
    15
100
AcDbLine
 10
693.0167871317
 20
433.2733149591
 30
0.0
 11
691.0167830785
 21
433.2733149591
 31
0.0
  0
LINE
  5
4F
330
1F
100
AcDbEntity
  8
0
  6
Continuous
 62
     7
370
    15
100
AcDbLine
 10
691.0167830785
 20
398.7733158233
 30
0.0
 11
693.0167871317
 21
398.7733158233
 31
0.0
  0
LINE
  5
50
330
1F
100
AcDbEntity
  8
0
  6
Continuous
 62
     7
370
    15
100
AcDbLine
 10
512.0167854031
 20
433.2733149591
 30
0.0
 11
510.0167888006
 21
433.2733149591
 31
0.0
  0
LINE
  5
51
330
1F
100
AcDbEntity
  8
0
  6
Continuous
 62
     7
370
    15
100
AcDbLine
 10
510.0167888006
 20
398.7733158233
 30
0.0
 11
512.0167854031
 21
398.7733158233
 31
0.0
  0
LINE
  5
52
330
1F
100
AcDbEntity
  8
0
  6
Continuous
 62
     7
370
    15
100
AcDbLine
 10
531.0167866548
 20
398.7733158233
 30
0.0
 11
533.0167869826
 21
398.7733158233
 31
0.0
  0
LINE
  5
53
330
1F
100
AcDbEntity
  8
0
  6
Continuous
 62
     7
370
    15
100
AcDbLine
 10
533.0167869826
 20
433.2733149591
 30
0.0
 11
531.0167866548
 21
433.2733149591
 31
0.0
  0
LINE
  5
54
330
1F
100
AcDbEntity
  8
0
  6
Continuous
 62
     7
370
    15
100
AcDbLine
 10
712.0167883834
 20
398.7733158233
 30
0.0
 11
714.0167849859
 21
398.7733158233
 31
0.0
  0
LINE
  5
55
330
1F
100
AcDbEntity
  8
0
  6
Continuous
 62
     7
370
    15
100
AcDbLine
 10
714.0167849859
 20
433.2733149591
 30
0.0
 11
712.0167883834
 21
433.2733149591
 31
0.0
  0
LINE
  5
56
330
1F
100
AcDbEntity
  8
0
  6
Continuous
 62
     7
370
    15
100
AcDbLine
 10
531.0167866548
 20
501.3037989798
 30
0.0
 11
533.0167869826
 21
501.3037989798
 31
0.0
  0
LINE
  5
57
330
1F
100
AcDbEntity
  8
0
  6
Continuous
 62
     7
370
    15
100
AcDbLine
 10
533.0167869826
 20
535.8038018408
 30
0.0
 11
531.0167866548
 21
535.8038018408
 31
0.0
  0
LINE
  5
58
330
1F
100
AcDbEntity
  8
0
  6
Continuous
 62
     7
370
    15
100
AcDbLine
 10
617.5768888345
 20
501.3037989798
 30
0.0
 11
619.5768891623
 21
501.3037989798
 31
0.0
  0
LINE
  5
59
330
1F
100
AcDbEntity
  8
0
  6
Continuous
 62
     7
370
    15
100
AcDbLine
 10
619.5768891623
 20
535.8038018408
 30
0.0
 11
617.5768888345
 21
535.8038018408
 31
0.0
  0
LINE
  5
5A
330
1F
100
AcDbEntity
  8
0
  6
Continuous
 62
     7
370
    15
100
AcDbLine
 10
512.0167854031
 20
535.8038018408
 30
0.0
 11
510.0167888006
 21
535.8038018408
 31
0.0
  0
LINE
  5
5B
330
1F
100
AcDbEntity
  8
0
  6
Continuous
 62
     7
370
    15
100
AcDbLine
 10
510.0167888006
 20
501.3037989798
 30
0.0
 11
512.0167854031
 21
501.3037989798
 31
0.0
  0
LINE
  5
5C
330
1F
100
AcDbEntity
  8
0
  6
Continuous
 62
     7
370
    15
100
AcDbLine
 10
712.0167883834
 20
501.3037989798
 30
0.0
 11
714.0167849859
 21
501.3037989798
 31
0.0
  0
LINE
  5
5D
330
1F
100
AcDbEntity
  8
0
  6
Continuous
 62
     7
370
    15
100
AcDbLine
 10
714.0167849859
 20
535.8038018408
 30
0.0
 11
712.0167883834
 21
535.8038018408
 31
0.0
  0
LINE
  5
5E
330
1F
100
AcDbEntity
  8
0
  6
Continuous
 62
     7
370
    15
100
AcDbLine
 10
693.0167871317
 20
535.8038018408
 30
0.0
 11
691.0167830785
 21
535.8038018408
 31
0.0
  0
LINE
  5
5F
330
1F
100
AcDbEntity
  8
0
  6
Continuous
 62
     7
370
    15
100
AcDbLine
 10
691.0167830785
 20
501.3037989798
 30
0.0
 11
693.0167871317
 21
501.3037989798
 31
0.0
  0
LINE
  5
60
330
1F
100
AcDbEntity
  8
0
  6
Continuous
 62
     7
370
    15
100
AcDbLine
 10
496.0167827805
 20
424.0233148399
 30
0.0
 11
447.0167803367
 21
424.0233148399
 31
0.0
  0
LINE
  5
61
330
1F
100
AcDbEntity
  8
0
  6
Continuous
 62
     7
370
    15
100
AcDbLine
 10
447.0167803367
 20
408.0233159425
 30
0.0
 11
496.0167827805
 21
408.0233159425
 31
0.0
  0
LINE
  5
62
330
1F
100
AcDbEntity
  8
0
  6
Continuous
 62
     7
370
    15
100
AcDbLine
 10
677.0167845091
 20
424.0233148399
 30
0.0
 11
633.5768895944
 21
424.0233148399
 31
0.0
  0
LINE
  5
63
330
1F
100
AcDbEntity
  8
0
  6
Continuous
 62
     7
370
    15
100
AcDbLine
 10
633.5768895944
 20
408.0233159425
 30
0.0
 11
677.0167845091
 21
408.0233159425
 31
0.0
  0
LINE
  5
64
330
1F
100
AcDbEntity
  8
0
  6
Continuous
 62
     7
370
    15
100
AcDbLine
 10
599.5768896093
 20
424.0233148399
 30
0.0
 11
547.0167855521
 21
424.0233148399
 31
0.0
  0
LINE
  5
65
330
1F
100
AcDbEntity
  8
0
  6
Continuous
 62
     7
370
    15
100
AcDbLine
 10
547.0167855521
 20
408.0233159425
 30
0.0
 11
599.5768896093
 21
408.0233159425
 31
0.0
  0
LINE
  5
66
330
1F
100
AcDbEntity
  8
0
  6
Continuous
 62
     7
370
    15
100
AcDbLine
 10
777.0167934497
 20
424.0233148399
 30
0.0
 11
728.0167835554
 21
424.0233148399
 31
0.0
  0
LINE
  5
67
330
1F
100
AcDbEntity
  8
0
  6
Continuous
 62
     7
370
    15
100
AcDbLine
 10
728.0167835554
 20
408.0233159425
 30
0.0
 11
777.0167934497
 21
408.0233159425
 31
0.0
  0
LINE
  5
68
330
1F
100
AcDbEntity
  8
0
  6
Continuous
 62
     7
370
    15
100
AcDbLine
 10
777.0167934497
 20
526.5538017216
 30
0.0
 11
728.0167835554
 21
526.5538017216
 31
0.0
  0
LINE
  5
69
330
1F
100
AcDbEntity
  8
0
  6
Continuous
 62
     7
370
    15
100
AcDbLine
 10
728.0167835554
 20
510.553799099
 30
0.0
 11
777.0167934497
 21
510.553799099
 31
0.0
  0
LINE
  5
6A
330
1F
100
AcDbEntity
  8
0
  6
Continuous
 62
     7
370
    15
100
AcDbLine
 10
496.0167827805
 20
526.5538017216
 30
0.0
 11
447.0167803367
 21
526.5538017216
 31
0.0
  0
LINE
  5
6B
330
1F
100
AcDbEntity
  8
0
  6
Continuous
 62
     7
370
    15
100
AcDbLine
 10
447.0167803367
 20
510.553799099
 30
0.0
 11
496.0167827805
 21
510.553799099
 31
0.0
  0
LINE
  5
6C
330
1F
100
AcDbEntity
  8
0
  6
Continuous
 62
     7
370
    15
100
AcDbLine
 10
599.5768896093
 20
526.5538017216
 30
0.0
 11
547.0167855521
 21
526.5538017216
 31
0.0
  0
LINE
  5
6D
330
1F
100
AcDbEntity
  8
0
  6
Continuous
 62
     7
370
    15
100
AcDbLine
 10
547.0167855521
 20
510.553799099
 30
0.0
 11
599.5768896093
 21
510.553799099
 31
0.0
  0
LINE
  5
6E
330
1F
100
AcDbEntity
  8
0
  6
Continuous
 62
     7
370
    15
100
AcDbLine
 10
677.0167845091
 20
526.5538017216
 30
0.0
 11
633.5768895944
 21
526.5538017216
 31
0.0
  0
LINE
  5
6F
330
1F
100
AcDbEntity
  8
0
  6
Continuous
 62
     7
370
    15
100
AcDbLine
 10
633.5768895944
 20
510.553799099
 30
0.0
 11
677.0167845091
 21
510.553799099
 31
0.0
  0
LINE
  5
70
330
1F
100
AcDbEntity
  8
0
  6
Continuous
 62
     7
370
    15
100
AcDbLine
 10
726.9706773361
 20
504.7418880227
 30
0.0
 11
728.0167835554
 21
506.5537984433
 31
0.0
  0
LINE
  5
71
330
1F
100
AcDbEntity
  8
0
  6
Continuous
 62
     7
370
    15
100
AcDbLine
 10
545.9706793328
 20
504.7418880227
 30
0.0
 11
547.0167855521
 21
506.5537984433
 31
0.0
  0
LINE
  5
72
330
1F
100
AcDbEntity
  8
0
  6
Continuous
 62
     7
370
    15
100
AcDbLine
 10
632.5307833751
 20
504.7418880227
 30
0.0
 11
633.5768895944
 21
506.5537984433
 31
0.0
  0
LINE
  5
73
330
1F
100
AcDbEntity
  8
0
  6
Continuous
 62
     7
370
    15
100
AcDbLine
 10
678.0885803302
 20
429.8797226461
 30
0.0
 11
677.0167845091
 21
428.0233154955
 31
0.0
  0
LINE
  5
74
330
1F
100
AcDbEntity
  8
0
  6
Continuous
 62
     7
370
    15
100
AcDbLine
 10
497.0885860523
 20
429.8797226461
 30
0.0
 11
496.0167827805
 21
428.0233154955
 31
0.0
  0
LINE
  5
75
330
1F
100
AcDbEntity
  8
0
  6
Continuous
 62
     7
370
    15
100
AcDbLine
 10
496.0167827805
 20
404.0233152869
 30
0.0
 11
497.0885860523
 21
402.1669099989
 31
0.0
  0
LINE
  5
76
330
1F
100
AcDbEntity
  8
0
  6
Continuous
 62
     7
370
    15
100
AcDbLine
 10
677.0167845091
 20
404.0233152869
 30
0.0
 11
678.0885803302
 21
402.1669099989
 31
0.0
  0
LINE
  5
77
330
1F
100
AcDbEntity
  8
0
  6
Continuous
 62
     7
370
    15
100
AcDbLine
 10
728.0167835554
 20
530.5537949267
 30
0.0
 11
726.9706773361
 21
532.3657090726
 31
0.0
  0
LINE
  5
78
330
1F
100
AcDbEntity
  8
0
  6
Continuous
 62
     7
370
    15
100
AcDbLine
 10
633.5768895944
 20
530.5537949267
 30
0.0
 11
632.5307833751
 21
532.3657090726
 31
0.0
  0
LINE
  5
79
330
1F
100
AcDbEntity
  8
0
  6
Continuous
 62
     7
370
    15
100
AcDbLine
 10
547.0167855521
 20
530.5537949267
 30
0.0
 11
545.9706793328
 21
532.3657090726
 31
0.0
  0
LINE
  5
7A
330
1F
100
AcDbEntity
  8
0
  6
Continuous
 62
     7
370
    15
100
AcDbLine
 10
592.0167860597
 20
424.0233148399
 30
0.0
 11
592.0167860597
 21
510.553799099
 31
0.0
  0
LINE
  5
7B
330
1F
100
AcDbEntity
  8
0
  6
Continuous
 62
     7
370
    15
100
AcDbLine
 10
677.0167845091
 20
507.2885560754
 30
0.0
 11
633.5768895944
 21
507.2885560754
 31
0.0
  0
LINE
  5
7C
330
1F
100
AcDbEntity
  8
0
  6
Continuous
 62
     7
370
    15
100
AcDbLine
 10
633.5768895944
 20
427.2885578635
 30
0.0
 11
677.0167845091
 21
427.2885578635
 31
0.0
  0
LINE
  5
7D
330
1F
100
AcDbEntity
  8
0
  6
Continuous
 62
     7
370
    15
100
AcDbLine
 10
545.9706793328
 20
402.2114048662
 30
0.0
 11
547.0167855521
 21
404.0233152869
 31
0.0
  0
LINE
  5
7E
330
1F
100
AcDbEntity
  8
0
  6
Continuous
 62
     7
370
    15
100
AcDbLine
 10
726.9706773361
 20
402.2114048662
 30
0.0
 11
728.0167835554
 21
404.0233152869
 31
0.0
  0
LINE
  5
7F
330
1F
100
AcDbEntity
  8
0
  6
Continuous
 62
     7
370
    15
100
AcDbLine
 10
632.5307833751
 20
402.2114048662
 30
0.0
 11
633.5768895944
 21
404.0233152869
 31
0.0
  0
LINE
  5
80
330
1F
100
AcDbEntity
  8
0
  6
Continuous
 62
     7
370
    15
100
AcDbLine
 10
496.0167827805
 20
506.5537984433
 30
0.0
 11
497.0885860523
 21
504.6973931554
 31
0.0
  0
LINE
  5
81
330
1F
100
AcDbEntity
  8
0
  6
Continuous
 62
     7
370
    15
100
AcDbLine
 10
497.0885860523
 20
532.4102039399
 30
0.0
 11
496.0167827805
 21
530.5537949267
 31
0.0
  0
LINE
  5
82
330
1F
100
AcDbEntity
  8
0
  6
Continuous
 62
     7
370
    15
100
AcDbLine
 10
678.0885803302
 20
532.4102039399
 30
0.0
 11
677.0167845091
 21
530.5537949267
 31
0.0
  0
LINE
  5
83
330
1F
100
AcDbEntity
  8
0
  6
Continuous
 62
     7
370
    15
100
AcDbLine
 10
728.0167835554
 20
428.0233154955
 30
0.0
 11
726.9706773361
 21
429.8352277788
 31
0.0
  0
LINE
  5
84
330
1F
100
AcDbEntity
  8
0
  6
Continuous
 62
     7
370
    15
100
AcDbLine
 10
599.5768896093
 20
467.2885569694
 30
0.0
 11
599.5768896093
 21
559.7885544362
 31
0.0
  0
LINE
  5
85
330
1F
100
AcDbEntity
  8
0
  6
Continuous
 62
     7
370
    15
100
AcDbLine
 10
599.5768896093
 20
374.7885595026
 30
0.0
 11
599.5768896093
 21
467.2885569694
 31
0.0
  0
LINE
  5
86
330
1F
100
AcDbEntity
  8
0
  6
Continuous
 62
     7
370
    15
100
AcDbLine
 10
617.5768888345
 20
467.2885569694
 30
0.0
 11
617.5768888345
 21
559.7885544362
 31
0.0
  0
LINE
  5
87
330
1F
100
AcDbEntity
  8
0
  6
Continuous
 62
     7
370
    15
100
AcDbLine
 10
617.5768888345
 20
374.7885595026
 30
0.0
 11
617.5768888345
 21
467.2885569694
 31
0.0
  0
LINE
  5
88
330
1F
100
AcDbEntity
  8
0
  6
Continuous
 62
     7
370
    15
100
AcDbLine
 10
512.0167854031
 20
467.2885569694
 30
0.0
 11
512.0167854031
 21
374.7885595026
 31
0.0
  0
LINE
  5
89
330
1F
100
AcDbEntity
  8
0
  6
Continuous
 62
     7
370
    15
100
AcDbLine
 10
512.0167854031
 20
559.7885544362
 30
0.0
 11
512.0167854031
 21
467.2885569694
 31
0.0
  0
LINE
  5
8A
330
1F
100
AcDbEntity
  8
0
  6
Continuous
 62
     7
370
    15
100
AcDbLine
 10
531.0167866548
 20
467.2885569694
 30
0.0
 11
531.0167866548
 21
374.7885595026
 31
0.0
  0
LINE
  5
8B
330
1F
100
AcDbEntity
  8
0
  6
Continuous
 62
     7
370
    15
100
AcDbLine
 10
531.0167866548
 20
559.7885544362
 30
0.0
 11
531.0167866548
 21
467.2885569694
 31
0.0
  0
LINE
  5
8C
330
1F
100
AcDbEntity
  8
0
  6
Continuous
 62
     7
370
    15
100
AcDbLine
 10
693.0167871317
 20
467.2885569694
 30
0.0
 11
693.0167871317
 21
559.7885544362
 31
0.0
  0
LINE
  5
8D
330
1F
100
AcDbEntity
  8
0
  6
Continuous
 62
     7
370
    15
100
AcDbLine
 10
693.0167871317
 20
374.7885595026
 30
0.0
 11
693.0167871317
 21
467.2885569694
 31
0.0
  0
LINE
  5
8E
330
1F
100
AcDbEntity
  8
0
  6
Continuous
 62
     7
370
    15
100
AcDbLine
 10
712.0167883834
 20
467.2885569694
 30
0.0
 11
712.0167883834
 21
559.7885544362
 31
0.0
  0
LINE
  5
8F
330
1F
100
AcDbEntity
  8
0
  6
Continuous
 62
     7
370
    15
100
AcDbLine
 10
712.0167883834
 20
374.7885595026
 30
0.0
 11
712.0167883834
 21
467.2885569694
 31
0.0
  0
LINE
  5
90
330
1F
100
AcDbEntity
  8
0
  6
Continuous
 62
     7
370
    15
100
AcDbLine
 10
520.4453590115
 20
448.2885571147
 30
0.0
 11
520.4453590115
 21
446.3834487784
 31
0.0
  0
SPLINE
  5
91
330
1F
100
AcDbEntity
  8
0
  6
Continuous
 62
     7
370
    15
100
AcDbSpline
210
0.0
220
0.0
230
1.0
 70
     8
 71
     3
 72
     9
 73
     5
 74
     0
 42
0.00000001
 43
0.00000001
 12
1.0
 22
0.0
 32
0.0
 13
1.0
 23
0.0
 33
0.0
 40
0.0
 40
0.0
 40
0.0
 40
0.0
 40
0.4960164335805085
 40
1.0
 40
1.0
 40
1.0
 40
1.0
 10
524.8382146335592
 20
446.6022970840781
 30
0.0
 10
524.1120546172012
 20
446.8810436326796
 30
0.0
 10
522.648070831188
 20
447.4430140226306
 30
0.0
 10
521.1834847880508
 20
448.0052162624143
 30
0.0
 10
520.4453574907023
 20
448.2885569522696
 30
0.0
  0
LINE
  5
92
330
1F
100
AcDbEntity
  8
0
  6
Continuous
 62
     7
370
    15
100
AcDbLine
 10
524.8382138809
 20
448.2885571147
 30
0.0
 11
524.8382138809
 21
446.6022974762
 31
0.0
  0
LINE
  5
93
330
1F
100
AcDbEntity
  8
0
  6
Continuous
 62
     7
370
    15
100
AcDbLine
 10
526.5525030693
 20
448.2885571147
 30
0.0
 11
524.8382138809
 21
448.2885571147
 31
0.0
  0
LINE
  5
94
330
1F
100
AcDbEntity
  8
0
  6
Continuous
 62
     7
370
    15
100
AcDbLine
 10
526.5525030693
 20
443.4119383755
 30
0.0
 11
526.5525030693
 21
448.2885571147
 31
0.0
  0
SPLINE
  5
95
330
1F
100
AcDbEntity
  8
0
  6
Continuous
 62
     7
370
    15
100
AcDbSpline
210
0.0
220
0.0
230
1.0
 70
     8
 71
     3
 72
    10
 73
     6
 74
     0
 42
0.00000001
 43
0.00000001
 12
1.0
 22
0.0
 32
0.0
 13
1.0
 23
0.0
 33
0.0
 40
0.0
 40
0.0
 40
0.0
 40
0.0
 40
0.3289255572276431
 40
0.6622587918877627
 40
0.9999999999999999
 40
0.9999999999999999
 40
0.9999999999999999
 40
0.9999999999999999
 10
520.445357490702
 20
440.9254591042574
 30
0.0
 10
521.1146308373812
 20
441.1979486123448
 30
0.0
 10
522.4621459461194
 20
441.7465790500311
 30
0.0
 10
524.4978714575172
 20
442.5754101610215
 30
0.0
 10
525.864631515682
 20
443.131877460121
 30
0.0
 10
526.5525003478449
 20
443.4119386960942
 30
0.0
  0
LINE
  5
96
330
1F
100
AcDbEntity
  8
0
  6
Continuous
 62
     7
370
    15
100
AcDbLine
 10
520.4453590115
 20
442.8457939016
 30
0.0
 11
520.4453590115
 21
440.9254589069
 31
0.0
  0
LINE
  5
97
330
1F
100
AcDbEntity
  8
0
  6
Continuous
 62
     7
370
    15
100
AcDbLine
 10
521.3882150849
 20
443.2296710971
 30
0.0
 11
520.4453590115
 21
442.8457939016
 31
0.0
  0
LINE
  5
98
330
1F
100
AcDbEntity
  8
0
  6
Continuous
 62
     7
370
    15
100
AcDbLine
 10
521.3882150849
 20
446.0215200621
 30
0.0
 11
521.3882150849
 21
443.2296710971
 31
0.0
  0
LINE
  5
99
330
1F
100
AcDbEntity
  8
0
  6
Continuous
 62
     7
370
    15
100
AcDbLine
 10
520.4453590115
 20
446.3834487784
 30
0.0
 11
521.3882150849
 21
446.0215200621
 31
0.0
  0
SPLINE
  5
9A
330
1F
100
AcDbEntity
  8
0
  6
Continuous
 62
     7
370
    15
100
AcDbSpline
210
0.0
220
0.0
230
1.0
 70
    24
 71
     3
 72
     9
 73
     5
 74
     0
 42
0.00000001
 43
0.00000001
 12
1.0
 22
0.0
 32
0.0
 13
1.0
 23
0.0
 33
0.0
 40
0.0
 40
0.0
 40
0.0
 40
0.0
 40
0.5002424641553858
 40
1.0
 40
1.0
 40
1.0
 40
1.0
 10
523.0167860621308
 20
445.5799949795475
 30
0.0
 10
523.3725083565602
 20
445.4434459842557
 30
0.0
 10
524.0836081130153
 20
445.1704803624301
 30
0.0
 10
524.7945462079065
 20
444.8975767966648
 30
0.0
 10
525.1498428783472
 20
444.7611911831148
 30
0.0
  0
LINE
  5
9B
330
1F
100
AcDbEntity
  8
0
  6
Continuous
 62
     7
370
    15
100
AcDbLine
 10
523.0167853435
 20
445.5799949306
 30
0.0
 11
523.0167853435
 21
443.8927327233
 31
0.0
  0
SPLINE
  5
9C
330
1F
100
AcDbEntity
  8
0
  6
Continuous
 62
     7
370
    15
100
AcDbSpline
210
0.0
220
0.0
230
1.0
 70
    24
 71
     3
 72
     9
 73
     5
 74
     0
 42
0.00000001
 43
0.00000001
 12
1.0
 22
0.0
 32
0.0
 13
1.0
 23
0.0
 33
0.0
 40
0.0
 40
0.0
 40
0.0
 40
0.0
 40
0.5002636023165259
 40
1.0
 40
1.0
 40
1.0
 40
1.0
 10
525.1498428783473
 20
444.7611911831147
 30
0.0
 10
524.7940963014867
 20
444.6163515053929
 30
0.0
 10
524.0829780526009
 20
444.3268247897751
 30
0.0
 10
523.3720584589196
 20
444.0373789552048
 30
0.0
 10
523.0167860621307
 20
443.8927323365122
 30
0.0
  0
LINE
  5
9D
330
1F
100
AcDbEntity
  8
0
  6
Continuous
 62
     7
370
    15
100
AcDbLine
 10
699.1953599056
 20
486.2885563585
 30
0.0
 11
699.1953599056
 21
487.9748183253
 31
0.0
  0
LINE
  5
9E
330
1F
100
AcDbEntity
  8
0
  6
Continuous
 62
     7
370
    15
100
AcDbLine
 10
697.4810707172
 20
486.2885563585
 30
0.0
 11
699.1953599056
 21
486.2885563585
 31
0.0
  0
LINE
  5
9F
330
1F
100
AcDbEntity
  8
0
  6
Continuous
 62
     7
370
    15
100
AcDbLine
 10
697.4810707172
 20
491.1651755634
 30
0.0
 11
697.4810707172
 21
486.2885563585
 31
0.0
  0
SPLINE
  5
A0
330
1F
100
AcDbEntity
  8
0
  6
Continuous
 62
     7
370
    15
100
AcDbSpline
210
0.0
220
0.0
230
1.0
 70
     8
 71
     3
 72
    10
 73
     6
 74
     0
 42
0.00000001
 43
0.00000001
 12
1.0
 22
0.0
 32
0.0
 13
1.0
 23
0.0
 33
0.0
 40
0.0
 40
0.0
 40
0.0
 40
0.0
 40
0.328925557228258
 40
0.6622587918883798
 40
1.0
 40
1.0
 40
1.0
 40
1.0
 10
703.5882146335595
 20
493.6516548002706
 30
0.0
 10
702.9189412868791
 20
493.3791652921827
 30
0.0
 10
701.5714261781395
 20
492.830534854496
 30
0.0
 10
699.5357006667417
 20
492.0017037435056
 30
0.0
 10
698.1689406085782
 20
491.4452364444065
 30
0.0
 10
697.4810717764166
 20
491.1651752084339
 30
0.0
  0
LINE
  5
A1
330
1F
100
AcDbEntity
  8
0
  6
Continuous
 62
     7
370
    15
100
AcDbLine
 10
703.588214775
 20
491.7313191059
 30
0.0
 11
703.588214775
 21
493.6516541007
 31
0.0
  0
LINE
  5
A2
330
1F
100
AcDbEntity
  8
0
  6
Continuous
 62
     7
370
    15
100
AcDbLine
 10
702.6453587016
 20
491.3474428418
 30
0.0
 11
703.588214775
 21
491.7313191059
 31
0.0
  0
LINE
  5
A3
330
1F
100
AcDbEntity
  8
0
  6
Continuous
 62
     7
370
    15
100
AcDbLine
 10
702.6453587016
 20
488.5555948081
 30
0.0
 11
702.6453587016
 21
491.3474428418
 31
0.0
  0
LINE
  5
A4
330
1F
100
AcDbEntity
  8
0
  6
Continuous
 62
     7
370
    15
100
AcDbLine
 10
703.588214775
 20
488.1936642292
 30
0.0
 11
702.6453587016
 21
488.5555948081
 31
0.0
  0
SPLINE
  5
A5
330
1F
100
AcDbEntity
  8
0
  6
Continuous
 62
     7
370
    15
100
AcDbSpline
210
0.0
220
0.0
230
1.0
 70
    24
 71
     3
 72
     9
 73
     5
 74
     0
 42
0.00000001
 43
0.00000001
 12
1.0
 22
0.0
 32
0.0
 13
1.0
 23
0.0
 33
0.0
 40
0.0
 40
0.0
 40
0.0
 40
0.0
 40
0.500242464155372
 40
1.0
 40
1.0
 40
1.0
 40
1.0
 10
701.0167860621307
 20
488.9971189249808
 30
0.0
 10
700.6610637677013
 20
489.1336679202724
 30
0.0
 10
699.949964011246
 20
489.4066335420981
 30
0.0
 10
699.239025916355
 20
489.6795371078634
 30
0.0
 10
698.8837292459141
 20
489.8159227214135
 30
0.0
  0
LINE
  5
A6
330
1F
100
AcDbEntity
  8
0
  6
Continuous
 62
     7
370
    15
100
AcDbLine
 10
701.016788443
 20
488.9971199396
 30
0.0
 11
701.016788443
 21
490.6843821469
 31
0.0
  0
SPLINE
  5
A7
330
1F
100
AcDbEntity
  8
0
  6
Continuous
 62
     7
370
    15
100
AcDbSpline
210
0.0
220
0.0
230
1.0
 70
    24
 71
     3
 72
     9
 73
     5
 74
     0
 42
0.00000001
 43
0.00000001
 12
1.0
 22
0.0
 32
0.0
 13
1.0
 23
0.0
 33
0.0
 40
0.0
 40
0.0
 40
0.0
 40
0.0
 40
0.5002636023165166
 40
1.0
 40
1.0
 40
1.0
 40
1.0
 10
698.8837292459142
 20
489.8159227214135
 30
0.0
 10
699.2394758227748
 20
489.9607623991353
 30
0.0
 10
699.9505940716607
 20
490.2502891147531
 30
0.0
 10
700.661513665342
 20
490.5397349493233
 30
0.0
 10
701.0167860621308
 20
490.6843815680159
 30
0.0
  0
LINE
  5
A8
330
1F
100
AcDbEntity
  8
0
  6
Continuous
 62
     7
370
    15
100
AcDbLine
 10
703.588214775
 20
486.2885563585
 30
0.0
 11
703.588214775
 21
488.1936642292
 31
0.0
  0
SPLINE
  5
A9
330
1F
100
AcDbEntity
  8
0
  6
Continuous
 62
     7
370
    15
100
AcDbSpline
210
0.0
220
0.0
230
1.0
 70
     8
 71
     3
 72
     9
 73
     5
 74
     0
 42
0.00000001
 43
0.00000001
 12
1.0
 22
0.0
 32
0.0
 13
1.0
 23
0.0
 33
0.0
 40
0.0
 40
0.0
 40
0.0
 40
0.0
 40
0.4960164335806321
 40
1.0
 40
1.0
 40
1.0
 40
1.0
 10
699.1953574907021
 20
487.97481682045
 30
0.0
 10
699.9215175070605
 20
487.6960702718486
 30
0.0
 10
701.3855012930737
 20
487.1340998818977
 30
0.0
 10
702.850087336211
 20
486.5718976421138
 30
0.0
 10
703.5882146335593
 20
486.2885569522587
 30
0.0
  0
LINE
  5
AA
330
1F
100
AcDbEntity
  8
0
  6
Continuous
 62
     7
370
    15
100
AcDbLine
 10
527.2382172545
 20
435.6263610485
 30
0.0
 11
527.2382172545
 21
430.2885564926
 31
0.0
  0
SPLINE
  5
AB
330
1F
100
AcDbEntity
  8
0
  6
Continuous
 62
     7
370
    15
100
AcDbSpline
210
0.0
220
0.0
230
1.0
 70
     8
 71
     3
 72
    11
 73
     7
 74
     0
 42
0.00000001
 43
0.00000001
 12
1.0
 22
0.0
 32
0.0
 13
1.0
 23
0.0
 33
0.0
 40
0.0
 40
0.0
 40
0.0
 40
0.0
 40
0.2537204256813489
 40
0.5049604034997871
 40
0.7537201777231038
 40
1.0
 40
1.0
 40
1.0
 40
1.0
 10
520.445357490702
 20
438.3920247113152
 30
0.0
 10
521.0202688285224
 20
438.1579533702017
 30
0.0
 10
522.1644709964905
 20
437.6920990404251
 30
0.0
 10
523.8714270548328
 20
436.9971231826769
 30
0.0
 10
525.5609110878095
 20
436.3092627051763
 30
0.0
 10
526.6809838249651
 20
435.8532336909284
 30
0.0
 10
527.2382146335591
 20
435.6263614460088
 30
0.0
  0
LINE
  5
AC
330
1F
100
AcDbEntity
  8
0
  6
Continuous
 62
     7
370
    15
100
AcDbLine
 10
520.4453590115
 20
440.1850900563
 30
0.0
 11
520.4453590115
 21
438.3920240166
 31
0.0
  0
SPLINE
  5
AD
330
1F
100
AcDbEntity
  8
0
  6
Continuous
 62
     7
370
    15
100
AcDbSpline
210
0.0
220
0.0
230
1.0
 70
     8
 71
     3
 72
    11
 73
     7
 74
     0
 42
0.00000001
 43
0.00000001
 12
1.0
 22
0.0
 32
0.0
 13
1.0
 23
0.0
 33
0.0
 40
0.0
 40
0.0
 40
0.0
 40
0.0
 40
0.2540754438825782
 40
0.505433816919942
 40
0.7540752801624829
 40
1.0
 40
1.0
 40
1.0
 40
1.0
 10
527.2382146335594
 20
442.9507524585297
 30
0.0
 10
526.6625828201967
 20
442.7163877715788
 30
0.0
 10
525.5174749730056
 20
442.2501646826146
 30
0.0
 10
523.809778539627
 20
441.5548873034248
 30
0.0
 10
522.1210367372802
 20
440.8673291039811
 30
0.0
 10
521.0018679726386
 20
440.4116681535509
 30
0.0
 10
520.4453574907021
 20
440.1850891932234
 30
0.0
  0
LINE
  5
AE
330
1F
100
AcDbEntity
  8
0
  6
Continuous
 62
     7
370
    15
100
AcDbLine
 10
529.016786327
 20
441.7314142871
 30
0.0
 11
529.016786327
 21
448.2885571147
 31
0.0
  0
SPLINE
  5
AF
330
1F
100
AcDbEntity
  8
0
  6
Continuous
 62
     7
370
    15
100
AcDbSpline
210
0.0
220
0.0
230
1.0
 70
     8
 71
     3
 72
    10
 73
     6
 74
     0
 42
0.00000001
 43
0.00000001
 12
1.0
 22
0.0
 32
0.0
 13
1.0
 23
0.0
 33
0.0
 40
0.0
 40
0.0
 40
0.0
 40
0.0
 40
0.3291705126077039
 40
0.6625037344550303
 40
1.0
 40
1.0
 40
1.0
 40
1.0
 10
523.0167860621307
 20
439.2885569522692
 30
0.0
 10
523.6747857346252
 20
439.5564564901636
 30
0.0
 10
524.9991061813275
 20
440.0956434389207
 30
0.0
 10
526.999117455367
 20
440.9099337533668
 30
0.0
 10
528.3414530976532
 20
441.4564567742856
 30
0.0
 10
529.0167860621307
 20
441.7314140951265
 30
0.0
  0
SPLINE
  5
B0
330
1F
100
AcDbEntity
  8
0
  6
Continuous
 62
     7
370
    15
100
AcDbSpline
210
0.0
220
0.0
230
1.0
 70
     8
 71
     3
 72
    10
 73
     6
 74
     0
 42
0.00000001
 43
0.00000001
 12
1.0
 22
0.0
 32
0.0
 13
1.0
 23
0.0
 33
0.0
 40
0.0
 40
0.0
 40
0.0
 40
0.0
 40
0.3293684180272599
 40
0.6627016121416146
 40
0.9999999999999999
 40
0.9999999999999999
 40
0.9999999999999999
 40
0.9999999999999999
 10
529.0167860621307
 20
436.8456998094119
 30
0.0
 10
528.3584340535507
 20
437.1137428032162
 30
0.0
 10
527.0338051165816
 20
437.6530553614185
 30
0.0
 10
525.0337927773985
 20
438.4673461100674
 30
0.0
 10
523.6917666001866
 20
439.0137431244664
 30
0.0
 10
523.0167860621306
 20
439.2885569522692
 30
0.0
  0
LINE
  5
B1
330
1F
100
AcDbEntity
  8
0
  6
Continuous
 62
     7
370
    15
100
AcDbLine
 10
529.016786327
 20
430.2885564926
 30
0.0
 11
529.016786327
 21
436.8457007172
 31
0.0
  0
LINE
  5
B2
330
1F
100
AcDbEntity
  8
0
  6
Continuous
 62
     7
370
    15
100
AcDbLine
 10
529.016786327
 20
430.2885564926
 30
0.0
 11
527.2382172545
 21
430.2885564926
 31
0.0
  0
LINE
  5
B3
330
1F
100
AcDbEntity
  8
0
  6
Continuous
 62
     7
370
    15
100
AcDbLine
 10
529.016786327
 20
448.2885571147
 30
0.0
 11
527.2382172545
 21
448.2885571147
 31
0.0
  0
LINE
  5
B4
330
1F
100
AcDbEntity
  8
0
  6
Continuous
 62
     7
370
    15
100
AcDbLine
 10
527.2382172545
 20
448.2885571147
 30
0.0
 11
527.2382172545
 21
442.9507520932
 31
0.0
  0
LINE
  5
B5
330
1F
100
AcDbEntity
  8
0
  6
Continuous
 62
     7
370
    15
100
AcDbLine
 10
696.795356532
 20
498.9507528904
 30
0.0
 11
696.795356532
 21
504.2885574463
 31
0.0
  0
SPLINE
  5
B6
330
1F
100
AcDbEntity
  8
0
  6
Continuous
 62
     7
370
    15
100
AcDbSpline
210
0.0
220
0.0
230
1.0
 70
     8
 71
     3
 72
    11
 73
     7
 74
     0
 42
0.00000001
 43
0.00000001
 12
1.0
 22
0.0
 32
0.0
 13
1.0
 23
0.0
 33
0.0
 40
0.0
 40
0.0
 40
0.0
 40
0.0
 40
0.2537204256814981
 40
0.5049604034999876
 40
0.7537201777232567
 40
1.0
 40
1.0
 40
1.0
 40
1.0
 10
703.5882146335595
 20
496.1850891932128
 30
0.0
 10
703.0133032957388
 20
496.4191605343264
 30
0.0
 10
701.8691011277703
 20
496.8850148641031
 30
0.0
 10
700.1621450694275
 20
497.5799907218514
 30
0.0
 10
698.4726610364513
 20
498.267851199352
 30
0.0
 10
697.3525882992961
 20
498.7238802135996
 30
0.0
 10
696.7953574907024
 20
498.9507524585189
 30
0.0
  0
LINE
  5
B7
330
1F
100
AcDbEntity
  8
0
  6
Continuous
 62
     7
370
    15
100
AcDbLine
 10
703.588214775
 20
494.3920257452
 30
0.0
 11
703.588214775
 21
496.1850899222
 31
0.0
  0
SPLINE
  5
B8
330
1F
100
AcDbEntity
  8
0
  6
Continuous
 62
     7
370
    15
100
AcDbSpline
210
0.0
220
0.0
230
1.0
 70
     8
 71
     3
 72
    11
 73
     7
 74
     0
 42
0.00000001
 43
0.00000001
 12
1.0
 22
0.0
 32
0.0
 13
1.0
 23
0.0
 33
0.0
 40
0.0
 40
0.0
 40
0.0
 40
0.0
 40
0.2540754438825324
 40
0.5054338169198807
 40
0.7540752801624317
 40
1.0
 40
1.0
 40
1.0
 40
1.0
 10
696.7953574907023
 20
491.6263614459985
 30
0.0
 10
697.3709893040648
 20
491.8607261329494
 30
0.0
 10
698.5160971512556
 20
492.3269492219133
 30
0.0
 10
700.223793584634
 20
493.0222266011031
 30
0.0
 10
701.9125353869811
 20
493.7097848005467
 30
0.0
 10
703.0317041516228
 20
494.1654457509769
 30
0.0
 10
703.5882146335593
 20
494.3920247113045
 30
0.0
  0
LINE
  5
B9
330
1F
100
AcDbEntity
  8
0
  6
Continuous
 62
     7
370
    15
100
AcDbLine
 10
696.795356532
 20
486.2885563585
 30
0.0
 11
696.795356532
 21
491.626362777
 31
0.0
  0
LINE
  5
BA
330
1F
100
AcDbEntity
  8
0
  6
Continuous
 62
     7
370
    15
100
AcDbLine
 10
695.0167837342
 20
486.2885563585
 30
0.0
 11
696.795356532
 21
486.2885563585
 31
0.0
  0
LINE
  5
BB
330
1F
100
AcDbEntity
  8
0
  6
Continuous
 62
     7
370
    15
100
AcDbLine
 10
695.0167837342
 20
492.8456987205
 30
0.0
 11
695.0167837342
 21
486.2885563585
 31
0.0
  0
SPLINE
  5
BC
330
1F
100
AcDbEntity
  8
0
  6
Continuous
 62
     7
370
    15
100
AcDbSpline
210
0.0
220
0.0
230
1.0
 70
     8
 71
     3
 72
    10
 73
     6
 74
     0
 42
0.00000001
 43
0.00000001
 12
1.0
 22
0.0
 32
0.0
 13
1.0
 23
0.0
 33
0.0
 40
0.0
 40
0.0
 40
0.0
 40
0.0
 40
0.3291705126078623
 40
0.6625037344551874
 40
1.0
 40
1.0
 40
1.0
 40
1.0
 10
701.0167860621309
 20
495.2885569522587
 30
0.0
 10
700.358786389636
 20
495.0206574143643
 30
0.0
 10
699.0344659429334
 20
494.4814704656071
 30
0.0
 10
697.0344546688938
 20
493.6671801511609
 30
0.0
 10
695.692119026608
 20
493.1206571302423
 30
0.0
 10
695.0167860621309
 20
492.8456998094017
 30
0.0
  0
SPLINE
  5
BD
330
1F
100
AcDbEntity
  8
0
  6
Continuous
 62
     7
370
    15
100
AcDbSpline
210
0.0
220
0.0
230
1.0
 70
     8
 71
     3
 72
    10
 73
     6
 74
     0
 42
0.00000001
 43
0.00000001
 12
1.0
 22
0.0
 32
0.0
 13
1.0
 23
0.0
 33
0.0
 40
0.0
 40
0.0
 40
0.0
 40
0.0
 40
0.3293684180273772
 40
0.6627016121417286
 40
1.0
 40
1.0
 40
1.0
 40
1.0
 10
695.016786062131
 20
497.7314140951158
 30
0.0
 10
695.6751380707111
 20
497.4633711013116
 30
0.0
 10
696.9997670076804
 20
496.9240585431092
 30
0.0
 10
698.9997793468634
 20
496.1097677944604
 30
0.0
 10
700.3418055240751
 20
495.5633707800615
 30
0.0
 10
701.0167860621309
 20
495.2885569522587
 30
0.0
  0
LINE
  5
BE
330
1F
100
AcDbEntity
  8
0
  6
Continuous
 62
     7
370
    15
100
AcDbLine
 10
695.0167837342
 20
504.2885574463
 30
0.0
 11
695.0167837342
 21
497.7314132216
 31
0.0
  0
LINE
  5
BF
330
1F
100
AcDbEntity
  8
0
  6
Continuous
 62
     7
370
    15
100
AcDbLine
 10
695.0167837342
 20
504.2885574463
 30
0.0
 11
696.795356532
 21
504.2885574463
 31
0.0
  0
LINE
  5
C0
330
1F
100
AcDbEntity
  8
0
  6
Continuous
 62
     7
370
    15
100
AcDbLine
 10
524.8382138809
 20
430.8028421315
 30
0.0
 11
524.8382138809
 21
430.2885564926
 31
0.0
  0
SPLINE
  5
C1
330
1F
100
AcDbEntity
  8
0
  6
Continuous
 62
     7
370
    15
100
AcDbSpline
210
0.0
220
0.0
230
1.0
 70
     8
 71
     3
 72
    19
 73
    15
 74
     0
 42
0.00000001
 43
0.00000001
 12
1.0
 22
0.0
 32
0.0
 13
1.0
 23
0.0
 33
0.0
 40
0.0
 40
0.0
 40
0.0
 40
0.0
 40
0.0629061515878287
 40
0.1259336749440644
 40
0.1886907237611559
 40
0.2514828965052539
 40
0.3765858205570979
 40
0.5012861435020686
 40
0.6256466536282369
 40
0.7498721559094566
 40
0.812339970423456
 40
0.8744464489160556
 40
0.9373281107331348
 40
1.0
 40
1.0
 40
1.0
 40
1.0
 10
523.1614149289323
 20
432.7638244637307
 30
0.0
 10
523.1738076787875
 20
432.7102839336683
 30
0.0
 10
523.1986170891953
 20
432.6030995719005
 30
0.0
 10
523.2485225797682
 20
432.4455533176999
 30
0.0
 10
523.3074077174596
 20
432.2909723540017
 30
0.0
 10
523.3986064482998
 20
432.090270433308
 30
0.0
 10
523.5354284624605
 20
431.8497424033208
 30
0.0
 10
523.7343236467691
 20
431.5818193867092
 30
0.0
 10
523.9658134387779
 20
431.3384819019283
 30
0.0
 10
524.1844952472652
 20
431.1593444181958
 30
0.0
 10
524.3731376014254
 20
431.0325736583079
 30
0.0
 10
524.5219037811854
 20
430.9461000285336
 30
0.0
 10
524.6764858292319
 20
430.8681978347424
 30
0.0
 10
524.7843651130205
 20
430.8246034437164
 30
0.0
 10
524.8382146335591
 20
430.8028426665545
 30
0.0
  0
SPLINE
  5
C2
330
1F
100
AcDbEntity
  8
0
  6
Continuous
 62
     7
370
    15
100
AcDbSpline
210
0.0
220
0.0
230
1.0
 70
     8
 71
     3
 72
     9
 73
     5
 74
     0
 42
0.00000001
 43
0.00000001
 12
1.0
 22
0.0
 32
0.0
 13
1.0
 23
0.0
 33
0.0
 40
0.0
 40
0.0
 40
0.0
 40
0.0
 40
0.4968533133909819
 40
1.0
 40
1.0
 40
1.0
 40
1.0
 10
520.445357490702
 20
430.7171283808402
 30
0.0
 10
520.8945105302006
 20
431.0555891668697
 30
0.0
 10
521.7985057887475
 20
431.7367978393437
 30
0.0
 10
522.7052098066098
 20
432.4200489375475
 30
0.0
 10
523.1614149289325
 20
432.7638244637307
 30
0.0
  0
LINE
  5
C3
330
1F
100
AcDbEntity
  8
0
  6
Continuous
 62
     7
370
    15
100
AcDbLine
 10
520.4453590115
 20
432.9441408577
 30
0.0
 11
520.4453590115
 21
430.7171287897
 31
0.0
  0
SPLINE
  5
C4
330
1F
100
AcDbEntity
  8
0
  6
Continuous
 62
     7
370
    15
100
AcDbSpline
210
0.0
220
0.0
230
1.0
 70
     8
 71
     3
 72
     9
 73
     5
 74
     0
 42
0.00000001
 43
0.00000001
 12
1.0
 22
0.0
 32
0.0
 13
1.0
 23
0.0
 33
0.0
 40
0.0
 40
0.0
 40
0.0
 40
0.0
 40
0.5028690475658446
 40
1.0
 40
1.0
 40
1.0
 40
1.0
 10
522.8466555720572
 20
434.7536489818419
 30
0.0
 10
522.4436585128637
 20
434.4499686940177
 30
0.0
 10
521.6422628788631
 20
433.8460733274326
 30
0.0
 10
520.8427968159813
 20
433.2436328803671
 30
0.0
 10
520.4453574907021
 20
432.9441410871326
 30
0.0
  0
SPLINE
  5
C5
330
1F
100
AcDbEntity
  8
0
  6
Continuous
 62
     7
370
    15
100
AcDbSpline
210
0.0
220
0.0
230
1.0
 70
     8
 71
     3
 72
     9
 73
     5
 74
     0
 42
0.00000001
 43
0.00000001
 12
1.0
 22
0.0
 32
0.0
 13
1.0
 23
0.0
 33
0.0
 40
0.0
 40
0.0
 40
0.0
 40
0.0
 40
0.5017081781411367
 40
1.0
 40
1.0
 40
1.0
 40
1.0
 10
520.445357490702
 20
435.7313203435365
 30
0.0
 10
520.8470403185789
 20
435.5677779821157
 30
0.0
 10
521.647670735578
 20
435.2418068926534
 30
0.0
 10
522.4479052553071
 20
434.9159972581818
 30
0.0
 10
522.8466555720571
 20
434.7536489818418
 30
0.0
  0
LINE
  5
C6
330
1F
100
AcDbEntity
  8
0
  6
Continuous
 62
     7
370
    15
100
AcDbLine
 10
520.4453590115
 20
437.6516542348
 30
0.0
 11
520.4453590115
 21
435.7313211026
 31
0.0
  0
SPLINE
  5
C7
330
1F
100
AcDbEntity
  8
0
  6
Continuous
 62
     7
370
    15
100
AcDbSpline
210
0.0
220
0.0
230
1.0
 70
     8
 71
     3
 72
    10
 73
     6
 74
     0
 42
0.00000001
 43
0.00000001
 12
1.0
 22
0.0
 32
0.0
 13
1.0
 23
0.0
 33
0.0
 40
0.0
 40
0.0
 40
0.0
 40
0.0
 40
0.3294062732453779
 40
0.6627394397496752
 40
1.0
 40
1.0
 40
1.0
 40
1.0
 10
526.5525003478449
 20
435.1651752084442
 30
0.0
 10
525.8823548974625
 20
435.4380198009694
 30
0.0
 10
524.5340751092195
 20
435.9869616004298
 30
0.0
 10
522.4983469353283
 20
436.8157937967952
 30
0.0
 10
521.132353993282
 20
437.3719487416158
 30
0.0
 10
520.445357490702
 20
437.6516548002811
 30
0.0
  0
LINE
  5
C8
330
1F
100
AcDbEntity
  8
0
  6
Continuous
 62
     7
370
    15
100
AcDbLine
 10
526.5525030693
 20
433.2448407027
 30
0.0
 11
526.5525030693
 21
435.1651756975
 31
0.0
  0
SPLINE
  5
C9
330
1F
100
AcDbEntity
  8
0
  6
Continuous
 62
     7
370
    15
100
AcDbSpline
210
0.0
220
0.0
230
1.0
 70
     8
 71
     3
 72
     9
 73
     5
 74
     0
 42
0.00000001
 43
0.00000001
 12
1.0
 22
0.0
 32
0.0
 13
1.0
 23
0.0
 33
0.0
 40
0.0
 40
0.0
 40
0.0
 40
0.0
 40
0.5015545017069793
 40
0.9999999999999999
 40
0.9999999999999999
 40
0.9999999999999999
 40
0.9999999999999999
 10
524.3253584058132
 20
434.1516056852411
 30
0.0
 10
524.6977944445104
 20
433.9999709485299
 30
0.0
 10
525.4403578896187
 20
433.697641418648
 30
0.0
 10
526.1825553599258
 20
433.3954611475176
 30
0.0
 10
526.5525003478449
 20
433.2448407516996
 30
0.0
  0
SPLINE
  5
CA
330
1F
100
AcDbEntity
  8
0
  6
Continuous
 62
     7
370
    15
100
AcDbSpline
210
0.0
220
0.0
230
1.0
 70
     8
 71
     3
 72
    26
 73
    22
 74
     0
 42
0.00000001
 43
0.00000001
 12
1.0
 22
0.0
 32
0.0
 13
1.0
 23
0.0
 33
0.0
 40
0.0
 40
0.0
 40
0.0
 40
0.0
 40
0.0180131253422311
 40
0.0359881886444341
 40
0.0718435468178869
 40
0.1254635814784587
 40
0.187895617442195
 40
0.2502861111888404
 40
0.3126691518003612
 40
0.3750410055216966
 40
0.4373791944909615
 40
0.4996615791561076
 40
0.5618930493989982
 40
0.6241475088283798
 40
0.6864909208982201
 40
0.7489534092148635
 40
0.8115407444339368
 40
0.8742458208940996
 40
0.9370600339024563
 40
0.9685569660764127
 40
1.0
 40
1.0
 40
1.0
 40
1.0
 10
526.5525003478449
 20
432.0028426665546
 30
0.0
 10
526.5312099943474
 20
432.0030277734406
 30
0.0
 10
526.4886742742311
 20
432.0033975960787
 30
0.0
 10
526.4038506036688
 20
432.0073281726955
 30
0.0
 10
526.2773589711785
 20
432.0185356018036
 30
0.0
 10
526.1002831273154
 20
432.0473770065192
 30
0.0
 10
525.896801698759
 20
432.0999769457208
 30
0.0
 10
525.6906062048031
 20
432.1751463196709
 30
0.0
 10
525.4936528893359
 20
432.2690245365254
 30
0.0
 10
525.3077245263579
 20
432.3804371933268
 30
0.0
 10
525.1345682432303
 20
432.5081807294583
 30
0.0
 10
524.9760714466656
 20
432.6512070454465
 30
0.0
 10
524.8335913905634
 20
432.8079997712929
 30
0.0
 10
524.7073725688621
 20
432.9765324441388
 30
0.0
 10
524.5980509775807
 20
433.1553760728161
 30
0.0
 10
524.5060847855385
 20
433.3430088971178
 30
0.0
 10
524.4320061066159
 20
433.5379489434451
 30
0.0
 10
524.3762341571677
 20
433.7386856425891
 30
0.0
 10
524.3457138579874
 20
433.9095715000306
 30
0.0
 10
524.3305273806027
 20
434.0475672615586
 30
0.0
 10
524.32708041348
 20
434.1169460147022
 30
0.0
 10
524.3253584058132
 20
434.1516056852411
 30
0.0
  0
LINE
  5
CB
330
1F
100
AcDbEntity
  8
0
  6
Continuous
 62
     7
370
    15
100
AcDbLine
 10
526.5525030693
 20
430.2885564926
 30
0.0
 11
526.5525030693
 21
432.0028419557
 31
0.0
  0
LINE
  5
CC
330
1F
100
AcDbEntity
  8
0
  6
Continuous
 62
     7
370
    15
100
AcDbLine
 10
526.5525030693
 20
430.2885564926
 30
0.0
 11
524.8382138809
 21
430.2885564926
 31
0.0
  0
LINE
  5
CD
330
1F
100
AcDbEntity
  8
0
  6
Continuous
 62
     7
370
    15
100
AcDbLine
 10
699.1953599056
 20
503.7742699447
 30
0.0
 11
699.1953599056
 21
504.2885574463
 31
0.0
  0
SPLINE
  5
CE
330
1F
100
AcDbEntity
  8
0
  6
Continuous
 62
     7
370
    15
100
AcDbSpline
210
0.0
220
0.0
230
1.0
 70
     8
 71
     3
 72
    19
 73
    15
 74
     0
 42
0.00000001
 43
0.00000001
 12
1.0
 22
0.0
 32
0.0
 13
1.0
 23
0.0
 33
0.0
 40
0.0
 40
0.0
 40
0.0
 40
0.0
 40
0.0629061515951785
 40
0.1259336749440629
 40
0.1886907237685209
 40
0.2514828965052013
 40
0.3765858205570269
 40
0.5012861435019764
 40
0.6256466536281222
 40
0.7498721559093255
 40
0.8123399703816777
 40
0.874446448916085
 40
0.937328110734271
 40
1.0
 40
1.0
 40
1.0
 40
1.0
 10
700.8721571953291
 20
501.813289440797
 30
0.0
 10
700.859764445473
 20
501.8668299708656
 30
0.0
 10
700.8349550350663
 20
501.9740143326337
 30
0.0
 10
700.7850495444891
 20
502.13156058684
 30
0.0
 10
700.7261644067977
 20
502.2861415505312
 30
0.0
 10
700.6349656759594
 20
502.4868434712255
 30
0.0
 10
700.4981436618008
 20
502.7273715012067
 30
0.0
 10
700.299248477492
 20
502.9952945178178
 30
0.0
 10
700.067758685485
 20
503.2386320026012
 30
0.0
 10
699.8490768770209
 20
503.4177694863018
 30
0.0
 10
699.6604345228765
 20
503.5445402462097
 30
0.0
 10
699.5116683431077
 20
503.6310138759742
 30
0.0
 10
699.3570862950291
 20
503.708916069786
 30
0.0
 10
699.2492070112402
 20
503.7525104608116
 30
0.0
 10
699.1953574907023
 20
503.774271237973
 30
0.0
  0
SPLINE
  5
CF
330
1F
100
AcDbEntity
  8
0
  6
Continuous
 62
     7
370
    15
100
AcDbSpline
210
0.0
220
0.0
230
1.0
 70
     8
 71
     3
 72
     9
 73
     5
 74
     0
 42
0.00000001
 43
0.00000001
 12
1.0
 22
0.0
 32
0.0
 13
1.0
 23
0.0
 33
0.0
 40
0.0
 40
0.0
 40
0.0
 40
0.0
 40
0.4968533133904767
 40
1.0
 40
1.0
 40
1.0
 40
1.0
 10
703.5882146335596
 20
503.8599855236873
 30
0.0
 10
703.1390615940613
 20
503.5215247376582
 30
0.0
 10
702.2350663355146
 20
502.8403160651842
 30
0.0
 10
701.3283623176521
 20
502.1570649669804
 30
0.0
 10
700.8721571953291
 20
501.813289440797
 30
0.0
  0
LINE
  5
D0
330
1F
100
AcDbEntity
  8
0
  6
Continuous
 62
     7
370
    15
100
AcDbLine
 10
703.588214775
 20
501.6329730811
 30
0.0
 11
703.588214775
 21
503.8599851492
 31
0.0
  0
SPLINE
  5
D1
330
1F
100
AcDbEntity
  8
0
  6
Continuous
 62
     7
370
    15
100
AcDbSpline
210
0.0
220
0.0
230
1.0
 70
     8
 71
     3
 72
     9
 73
     5
 74
     0
 42
0.00000001
 43
0.00000001
 12
1.0
 22
0.0
 32
0.0
 13
1.0
 23
0.0
 33
0.0
 40
0.0
 40
0.0
 40
0.0
 40
0.0
 40
0.5028690475659119
 40
1.0
 40
1.0
 40
1.0
 40
1.0
 10
701.1869165522044
 20
499.8234649226858
 30
0.0
 10
701.5899136113977
 20
500.1271452105099
 30
0.0
 10
702.3913092453986
 20
500.731040577095
 30
0.0
 10
703.1907753082803
 20
501.3334810241605
 30
0.0
 10
703.5882146335595
 20
501.6329728173951
 30
0.0
  0
SPLINE
  5
D2
330
1F
100
AcDbEntity
  8
0
  6
Continuous
 62
     7
370
    15
100
AcDbSpline
210
0.0
220
0.0
230
1.0
 70
     8
 71
     3
 72
     9
 73
     5
 74
     0
 42
0.00000001
 43
0.00000001
 12
1.0
 22
0.0
 32
0.0
 13
1.0
 23
0.0
 33
0.0
 40
0.0
 40
0.0
 40
0.0
 40
0.0
 40
0.5017081781391436
 40
1.0
 40
1.0
 40
1.0
 40
1.0
 10
703.5882146335596
 20
498.8457935609912
 30
0.0
 10
703.1865318056841
 20
499.0093359224114
 30
0.0
 10
702.385901388685
 20
499.3353070118737
 30
0.0
 10
701.5856668689561
 20
499.6611166463452
 30
0.0
 10
701.1869165522045
 20
499.8234649226858
 30
0.0
  0
LINE
  5
D3
330
1F
100
AcDbEntity
  8
0
  6
Continuous
 62
     7
370
    15
100
AcDbLine
 10
703.588214775
 20
496.9254578414
 30
0.0
 11
703.588214775
 21
498.8457928362
 31
0.0
  0
SPLINE
  5
D4
330
1F
100
AcDbEntity
  8
0
  6
Continuous
 62
     7
370
    15
100
AcDbSpline
210
0.0
220
0.0
230
1.0
 70
     8
 71
     3
 72
    10
 73
     6
 74
     0
 42
0.00000001
 43
0.00000001
 12
1.0
 22
0.0
 32
0.0
 13
1.0
 23
0.0
 33
0.0
 40
0.0
 40
0.0
 40
0.0
 40
0.0
 40
0.3294062732453801
 40
0.6627394397496804
 40
1.0
 40
1.0
 40
1.0
 40
1.0
 10
697.4810717764166
 20
499.4119386960836
 30
0.0
 10
698.151217226799
 20
499.1390941035584
 30
0.0
 10
699.4994970150419
 20
498.590152304098
 30
0.0
 10
701.5352251889333
 20
497.7613201077327
 30
0.0
 10
702.9012181309795
 20
497.205165162912
 30
0.0
 10
703.5882146335595
 20
496.9254591042468
 30
0.0
  0
LINE
  5
D5
330
1F
100
AcDbEntity
  8
0
  6
Continuous
 62
     7
370
    15
100
AcDbLine
 10
697.4810707172
 20
501.3322713735
 30
0.0
 11
697.4810707172
 21
499.411940104
 31
0.0
  0
SPLINE
  5
D6
330
1F
100
AcDbEntity
  8
0
  6
Continuous
 62
     7
370
    15
100
AcDbSpline
210
0.0
220
0.0
230
1.0
 70
     8
 71
     3
 72
     9
 73
     5
 74
     0
 42
0.00000001
 43
0.00000001
 12
1.0
 22
0.0
 32
0.0
 13
1.0
 23
0.0
 33
0.0
 40
0.0
 40
0.0
 40
0.0
 40
0.0
 40
0.5015545017073568
 40
1.0
 40
1.0
 40
1.0
 40
1.0
 10
699.7082137184484
 20
500.4255082192865
 30
0.0
 10
699.335777679751
 20
500.5771429559979
 30
0.0
 10
698.5932142346426
 20
500.8794724858797
 30
0.0
 10
697.8510167643354
 20
501.1816527570102
 30
0.0
 10
697.4810717764167
 20
501.332273152828
 30
0.0
  0
SPLINE
  5
D7
330
1F
100
AcDbEntity
  8
0
  6
Continuous
 62
     7
370
    15
100
AcDbSpline
210
0.0
220
0.0
230
1.0
 70
     8
 71
     3
 72
    26
 73
    22
 74
     0
 42
0.00000001
 43
0.00000001
 12
1.0
 22
0.0
 32
0.0
 13
1.0
 23
0.0
 33
0.0
 40
0.0
 40
0.0
 40
0.0
 40
0.0
 40
0.0180131253422309
 40
0.0359881886444346
 40
0.0718435468178834
 40
0.1254635814784573
 40
0.1878956174421976
 40
0.2502861111888393
 40
0.3126691518003638
 40
0.3750410055216959
 40
0.4373791944909626
 40
0.49966157915611
 40
0.5618930493990072
 40
0.6241475088283785
 40
0.6864909208982323
 40
0.7489534092148756
 40
0.8115407444339483
 40
0.8742458208941112
 40
0.9370600339024658
 40
0.9685569660764133
 40
1.0
 40
1.0
 40
1.0
 40
1.0
 10
697.4810717764167
 20
502.5742712379729
 30
0.0
 10
697.5023621299142
 20
502.574086131087
 30
0.0
 10
697.5448978500303
 20
502.5737163084489
 30
0.0
 10
697.6297215205926
 20
502.569785731832
 30
0.0
 10
697.756213153083
 20
502.558578302724
 30
0.0
 10
697.9332889969462
 20
502.5297368980084
 30
0.0
 10
698.1367704255025
 20
502.4771369588067
 30
0.0
 10
698.3429659194585
 20
502.4019675848567
 30
0.0
 10
698.5399192349256
 20
502.3080893680022
 30
0.0
 10
698.7258475979037
 20
502.1966767112007
 30
0.0
 10
698.8990038810313
 20
502.0689331750693
 30
0.0
 10
699.057500677596
 20
501.9259068590811
 30
0.0
 10
699.199980733698
 20
501.7691141332347
 30
0.0
 10
699.3261995553995
 20
501.6005814603888
 30
0.0
 10
699.4355211466808
 20
501.4217378317115
 30
0.0
 10
699.527487338723
 20
501.2341050074098
 30
0.0
 10
699.6015660176457
 20
501.0391649610826
 30
0.0
 10
699.6573379670938
 20
500.8384282619386
 30
0.0
 10
699.6878582662741
 20
500.6675424044971
 30
0.0
 10
699.7030447436589
 20
500.5295466429691
 30
0.0
 10
699.7064917107815
 20
500.4601678898255
 30
0.0
 10
699.7082137184484
 20
500.4255082192865
 30
0.0
  0
LINE
  5
D8
330
1F
100
AcDbEntity
  8
0
  6
Continuous
 62
     7
370
    15
100
AcDbLine
 10
697.4810707172
 20
504.2885574463
 30
0.0
 11
697.4810707172
 21
502.5742719832
 31
0.0
  0
LINE
  5
D9
330
1F
100
AcDbEntity
  8
0
  6
Continuous
 62
     7
370
    15
100
AcDbLine
 10
697.4810707172
 20
504.2885574463
 30
0.0
 11
699.1953599056
 21
504.2885574463
 31
0.0
  0
LINE
  5
DA
330
1F
100
AcDbEntity
  8
0
  6
Continuous
 62
     7
370
    15
100
AcDbLine
 10
619.5768891623
 20
433.2733149591
 30
0.0
 11
619.5768891623
 21
398.7733158233
 31
0.0
  0
LINE
  5
DB
330
1F
100
AcDbEntity
  8
0
  6
Continuous
 62
     7
370
    15
100
AcDbLine
 10
691.0167830785
 20
398.7733158233
 30
0.0
 11
691.0167830785
 21
433.2733149591
 31
0.0
  0
LINE
  5
DC
330
1F
100
AcDbEntity
  8
0
  6
Continuous
 62
     7
370
    15
100
AcDbLine
 10
510.0167888006
 20
398.7733158233
 30
0.0
 11
510.0167888006
 21
433.2733149591
 31
0.0
  0
LINE
  5
DD
330
1F
100
AcDbEntity
  8
0
  6
Continuous
 62
     7
370
    15
100
AcDbLine
 10
533.0167869826
 20
433.2733149591
 30
0.0
 11
533.0167869826
 21
398.7733158233
 31
0.0
  0
LINE
  5
DE
330
1F
100
AcDbEntity
  8
0
  6
Continuous
 62
     7
370
    15
100
AcDbLine
 10
714.0167849859
 20
433.2733149591
 30
0.0
 11
714.0167849859
 21
398.7733158233
 31
0.0
  0
LINE
  5
DF
330
1F
100
AcDbEntity
  8
0
  6
Continuous
 62
     7
370
    15
100
AcDbLine
 10
533.0167869826
 20
503.6641540888
 30
0.0
 11
533.0167869826
 21
501.3037989798
 31
0.0
  0
LINE
  5
E0
330
1F
100
AcDbEntity
  8
0
  6
Continuous
 62
     7
370
    15
100
AcDbLine
 10
533.0167869826
 20
535.8038018408
 30
0.0
 11
533.0167869826
 21
503.6641540888
 31
0.0
  0
LINE
  5
E1
330
1F
100
AcDbEntity
  8
0
  6
Continuous
 62
     7
370
    15
100
AcDbLine
 10
619.5768891623
 20
503.6641540888
 30
0.0
 11
619.5768891623
 21
501.3037989798
 31
0.0
  0
LINE
  5
E2
330
1F
100
AcDbEntity
  8
0
  6
Continuous
 62
     7
370
    15
100
AcDbLine
 10
619.5768891623
 20
535.8038018408
 30
0.0
 11
619.5768891623
 21
503.6641540888
 31
0.0
  0
LINE
  5
E3
330
1F
100
AcDbEntity
  8
0
  6
Continuous
 62
     7
370
    15
100
AcDbLine
 10
510.0167888006
 20
501.3037989798
 30
0.0
 11
510.0167888006
 21
535.8038018408
 31
0.0
  0
LINE
  5
E4
330
1F
100
AcDbEntity
  8
0
  6
Continuous
 62
     7
370
    15
100
AcDbLine
 10
714.0167849859
 20
503.6641540888
 30
0.0
 11
714.0167849859
 21
501.3037989798
 31
0.0
  0
LINE
  5
E5
330
1F
100
AcDbEntity
  8
0
  6
Continuous
 62
     7
370
    15
100
AcDbLine
 10
714.0167849859
 20
535.8038018408
 30
0.0
 11
714.0167849859
 21
503.6641540888
 31
0.0
  0
LINE
  5
E6
330
1F
100
AcDbEntity
  8
0
  6
Continuous
 62
     7
370
    15
100
AcDbLine
 10
691.0167830785
 20
501.3037989798
 30
0.0
 11
691.0167830785
 21
535.8038018408
 31
0.0
  0
SPLINE
  5
E7
330
1F
100
AcDbEntity
  8
0
  6
Continuous
 62
     7
370
    15
100
AcDbSpline
210
0.0
220
0.0
230
1.0
 70
     8
 71
     3
 72
    12
 73
     8
 74
     0
 42
0.00000001
 43
0.00000001
 12
1.0
 22
0.0
 32
0.0
 13
1.0
 23
0.0
 33
0.0
 40
0.0
 40
0.0
 40
0.0
 40
0.0
 40
0.2499999999999992
 40
0.2499999999999992
 40
0.4999999999999984
 40
0.4999999999999984
 40
1.0
 40
1.0
 40
1.0
 40
1.0
 10
677.0167860621308
 20
524.5537985882924
 30
0.0
 10
677.0167860621309
 20
524.044598633299
 30
0.0
 10
677.042119315424
 20
523.5331141563234
 30
0.0
 10
677.1401562025007
 20
522.5212913190474
 30
0.0
 10
677.2127655714296
 20
522.0187640349487
 30
0.0
 10
677.4928122703636
 20
520.5201074826655
 30
0.0
 10
677.7622260992694
 20
519.5328687860498
 30
0.0
 10
678.0885828318551
 20
518.5537985882924
 30
0.0
  0
SPLINE
  5
E8
330
1F
100
AcDbEntity
  8
0
  6
Continuous
 62
     7
370
    15
100
AcDbSpline
210
0.0
220
0.0
230
1.0
 70
     8
 71
     3
 72
    10
 73
     6
 74
     0
 42
0.00000001
 43
0.00000001
 12
1.0
 22
0.0
 32
0.0
 13
1.0
 23
0.0
 33
0.0
 40
0.0
 40
0.0
 40
0.0
 40
0.0
 40
0.5
 40
0.5
 40
1.0
 40
1.0
 40
1.0
 40
1.0
 10
678.088582831855
 20
518.5537985882925
 30
0.0
 10
677.7614090707435
 20
517.5722773049578
 30
0.0
 10
677.4918665268252
 20
516.5835866126639
 30
0.0
 10
677.118934018567
 20
514.5855356005607
 30
0.0
 10
677.0167860621308
 20
513.5760207731246
 30
0.0
 10
677.0167860621308
 20
512.5537985882924
 30
0.0
  0
LINE
  5
E9
330
1F
100
AcDbEntity
  8
0
  6
Continuous
 62
     7
370
    15
100
AcDbLine
 10
677.0167845091
 20
524.5537976685
 30
0.0
 11
677.0167845091
 21
512.5537994268
 31
0.0
  0
SPLINE
  5
EA
330
1F
100
AcDbEntity
  8
0
  6
Continuous
 62
     7
370
    15
100
AcDbSpline
210
0.0
220
0.0
230
1.0
 70
     8
 71
     3
 72
    12
 73
     8
 74
     0
 42
0.00000001
 43
0.00000001
 12
1.0
 22
0.0
 32
0.0
 13
1.0
 23
0.0
 33
0.0
 40
0.0
 40
0.0
 40
0.0
 40
0.0
 40
0.2499999999999997
 40
0.2499999999999997
 40
0.4999999999999993
 40
0.4999999999999993
 40
1.0
 40
1.0
 40
1.0
 40
1.0
 10
496.0167860621308
 20
524.5537985882924
 30
0.0
 10
496.0167860621308
 20
524.0445986332988
 30
0.0
 10
496.042119315424
 20
523.5331141563234
 30
0.0
 10
496.1401562025008
 20
522.5212913190474
 30
0.0
 10
496.2127655714295
 20
522.0187640349487
 30
0.0
 10
496.4928122703636
 20
520.5201074826654
 30
0.0
 10
496.7622260992694
 20
519.5328687860498
 30
0.0
 10
497.0885828318552
 20
518.5537985882924
 30
0.0
  0
SPLINE
  5
EB
330
1F
100
AcDbEntity
  8
0
  6
Continuous
 62
     7
370
    15
100
AcDbSpline
210
0.0
220
0.0
230
1.0
 70
     8
 71
     3
 72
    10
 73
     6
 74
     0
 42
0.00000001
 43
0.00000001
 12
1.0
 22
0.0
 32
0.0
 13
1.0
 23
0.0
 33
0.0
 40
0.0
 40
0.0
 40
0.0
 40
0.0
 40
0.5
 40
0.5
 40
1.0
 40
1.0
 40
1.0
 40
1.0
 10
497.088582831855
 20
530.5537985882925
 30
0.0
 10
496.7614090707435
 20
529.5722773049578
 30
0.0
 10
496.4918665268252
 20
528.5835866126639
 30
0.0
 10
496.118934018567
 20
526.5855356005607
 30
0.0
 10
496.0167860621308
 20
525.5760207731246
 30
0.0
 10
496.0167860621308
 20
524.5537985882924
 30
0.0
  0
LINE
  5
EC
330
1F
100
AcDbEntity
  8
0
  6
Continuous
 62
     7
370
    15
100
AcDbLine
 10
497.0885860523
 20
530.5537949267
 30
0.0
 11
510.0167888006
 21
530.5537949267
 31
0.0
  0
LINE
  5
ED
330
1F
100
AcDbEntity
  8
0
  6
Continuous
 62
     7
370
    15
100
AcDbLine
 10
497.0885860523
 20
518.5538004103
 30
0.0
 11
510.0167888006
 21
518.5538004103
 31
0.0
  0
SPLINE
  5
EE
330
1F
100
AcDbEntity
  8
0
  6
Continuous
 62
     7
370
    15
100
AcDbSpline
210
0.0
220
0.0
230
1.0
 70
     8
 71
     3
 72
    10
 73
     6
 74
     0
 42
0.00000001
 43
0.00000001
 12
1.0
 22
0.0
 32
0.0
 13
1.0
 23
0.0
 33
0.0
 40
0.0
 40
0.0
 40
0.0
 40
0.0
 40
0.5
 40
0.5
 40
1.0
 40
1.0
 40
1.0
 40
1.0
 10
497.088582831855
 20
518.5537985882925
 30
0.0
 10
496.7614090707435
 20
517.5722773049578
 30
0.0
 10
496.4918665268252
 20
516.5835866126639
 30
0.0
 10
496.118934018567
 20
514.5855356005607
 30
0.0
 10
496.0167860621308
 20
513.5760207731246
 30
0.0
 10
496.0167860621308
 20
512.5537985882924
 30
0.0
  0
LINE
  5
EF
330
1F
100
AcDbEntity
  8
0
  6
Continuous
 62
     7
370
    15
100
AcDbLine
 10
496.0167827805
 20
524.5537976685
 30
0.0
 11
496.0167827805
 21
512.5537994268
 31
0.0
  0
SPLINE
  5
F0
330
1F
100
AcDbEntity
  8
0
  6
Continuous
 62
     7
370
    15
100
AcDbSpline
210
0.0
220
0.0
230
1.0
 70
     8
 71
     3
 72
    10
 73
     6
 74
     0
 42
0.00000001
 43
0.00000001
 12
1.0
 22
0.0
 32
0.0
 13
1.0
 23
0.0
 33
0.0
 40
0.0
 40
0.0
 40
0.0
 40
0.0
 40
0.5
 40
0.5
 40
1.0
 40
1.0
 40
1.0
 40
1.0
 10
678.088582831855
 20
530.5537985882925
 30
0.0
 10
677.7614090707435
 20
529.5722773049578
 30
0.0
 10
677.4918665268252
 20
528.5835866126639
 30
0.0
 10
677.118934018567
 20
526.5855356005607
 30
0.0
 10
677.0167860621308
 20
525.5760207731246
 30
0.0
 10
677.0167860621308
 20
524.5537985882924
 30
0.0
  0
LINE
  5
F1
330
1F
100
AcDbEntity
  8
0
  6
Continuous
 62
     7
370
    15
100
AcDbLine
 10
678.0885803302
 20
530.5537949267
 30
0.0
 11
691.0167830785
 21
530.5537949267
 31
0.0
  0
LINE
  5
F2
330
1F
100
AcDbEntity
  8
0
  6
Continuous
 62
     7
370
    15
100
AcDbLine
 10
678.0885803302
 20
518.5538004103
 30
0.0
 11
691.0167830785
 21
518.5538004103
 31
0.0
  0
SPLINE
  5
F3
330
1F
100
AcDbEntity
  8
0
  6
Continuous
 62
     7
370
    15
100
AcDbSpline
210
0.0
220
0.0
230
1.0
 70
     8
 71
     3
 72
    12
 73
     8
 74
     0
 42
0.00000001
 43
0.00000001
 12
1.0
 22
0.0
 32
0.0
 13
1.0
 23
0.0
 33
0.0
 40
0.0
 40
0.0
 40
0.0
 40
0.0
 40
0.2500000000000002
 40
0.2500000000000002
 40
0.5000000000000004
 40
0.5000000000000004
 40
1.0
 40
1.0
 40
1.0
 40
1.0
 10
677.0167860621308
 20
512.5537985882924
 30
0.0
 10
677.0167860621309
 20
512.044598633299
 30
0.0
 10
677.042119315424
 20
511.5331141563234
 30
0.0
 10
677.1401562025007
 20
510.5212913190475
 30
0.0
 10
677.2127655714296
 20
510.0187640349488
 30
0.0
 10
677.4928122703636
 20
508.5201074826655
 30
0.0
 10
677.7622260992694
 20
507.5328687860497
 30
0.0
 10
678.0885828318551
 20
506.5537985882924
 30
0.0
  0
LINE
  5
F4
330
1F
100
AcDbEntity
  8
0
  6
Continuous
 62
     7
370
    15
100
AcDbLine
 10
678.0885803302
 20
506.5537984433
 30
0.0
 11
691.0167830785
 21
506.5537984433
 31
0.0
  0
SPLINE
  5
F5
330
1F
100
AcDbEntity
  8
0
  6
Continuous
 62
     7
370
    15
100
AcDbSpline
210
0.0
220
0.0
230
1.0
 70
     8
 71
     3
 72
    12
 73
     8
 74
     0
 42
0.00000001
 43
0.00000001
 12
1.0
 22
0.0
 32
0.0
 13
1.0
 23
0.0
 33
0.0
 40
0.0
 40
0.0
 40
0.0
 40
0.0
 40
0.2499999999999998
 40
0.2499999999999998
 40
0.4999999999999996
 40
0.4999999999999996
 40
1.0
 40
1.0
 40
1.0
 40
1.0
 10
496.0167860621308
 20
512.5537985882924
 30
0.0
 10
496.0167860621308
 20
512.044598633299
 30
0.0
 10
496.042119315424
 20
511.5331141563234
 30
0.0
 10
496.1401562025007
 20
510.5212913190475
 30
0.0
 10
496.2127655714295
 20
510.0187640349488
 30
0.0
 10
496.4928122703636
 20
508.5201074826655
 30
0.0
 10
496.7622260992694
 20
507.5328687860497
 30
0.0
 10
497.0885828318552
 20
506.5537985882924
 30
0.0
  0
LINE
  5
F6
330
1F
100
AcDbEntity
  8
0
  6
Continuous
 62
     7
370
    15
100
AcDbLine
 10
497.0885860523
 20
506.5537984433
 30
0.0
 11
510.0167888006
 21
506.5537984433
 31
0.0
  0
SPLINE
  5
F7
330
1F
100
AcDbEntity
  8
0
  6
Continuous
 62
     7
370
    15
100
AcDbSpline
210
0.0
220
0.0
230
1.0
 70
     8
 71
     3
 72
    12
 73
     8
 74
     0
 42
0.00000001
 43
0.00000001
 12
1.0
 22
0.0
 32
0.0
 13
1.0
 23
0.0
 33
0.0
 40
0.0
 40
0.0
 40
0.0
 40
0.0
 40
0.2500000000000011
 40
0.2500000000000011
 40
0.5000000000000022
 40
0.5000000000000022
 40
1.0
 40
1.0
 40
1.0
 40
1.0
 10
728.0167860621308
 20
422.0823213131076
 30
0.0
 10
728.0167860621308
 20
422.5878994076392
 30
0.0
 10
727.9918946546709
 20
423.0950969327934
 30
0.0
 10
727.8929715303872
 20
424.1126890430475
 30
0.0
 10
727.819451013197
 20
424.6177641375842
 30
0.0
 10
727.5376963650435
 20
426.1159087896749
 30
0.0
 10
727.2683781422821
 20
427.0955579534323
 30
0.0
 10
726.9449892924064
 20
428.0625232698384
 30
0.0
  0
SPLINE
  5
F8
330
1F
100
AcDbEntity
  8
0
  6
Continuous
 62
     7
370
    15
100
AcDbSpline
210
0.0
220
0.0
230
1.0
 70
     8
 71
     3
 72
    10
 73
     6
 74
     0
 42
0.00000001
 43
0.00000001
 12
1.0
 22
0.0
 32
0.0
 13
1.0
 23
0.0
 33
0.0
 40
0.0
 40
0.0
 40
0.0
 40
0.0
 40
0.5
 40
0.5
 40
1.0
 40
1.0
 40
1.0
 40
1.0
 10
726.9449892924064
 20
416.1021193563769
 30
0.0
 10
727.270273089144
 20
417.0747507552483
 30
0.0
 10
727.543100046343
 20
418.0709161136361
 30
0.0
 10
727.9161530088858
 20
420.0677569175089
 30
0.0
 10
728.0167860621308
 20
421.071765530873
 30
0.0
 10
728.0167860621308
 20
422.0823213131076
 30
0.0
  0
LINE
  5
F9
330
1F
100
AcDbEntity
  8
0
  6
Continuous
 62
     7
370
    15
100
AcDbLine
 10
726.9449877342
 20
416.1021183195
 30
0.0
 11
714.0167849859
 21
416.1021183195
 31
0.0
  0
LINE
  5
FA
330
1F
100
AcDbEntity
  8
0
  6
Continuous
 62
     7
370
    15
100
AcDbLine
 10
726.9449877342
 20
428.0625241759
 30
0.0
 11
714.0167849859
 21
428.0625241759
 31
0.0
  0
SPLINE
  5
FB
330
1F
100
AcDbEntity
  8
0
  6
Continuous
 62
     7
370
    15
100
AcDbSpline
210
0.0
220
0.0
230
1.0
 70
     8
 71
     3
 72
    12
 73
     8
 74
     0
 42
0.00000001
 43
0.00000001
 12
1.0
 22
0.0
 32
0.0
 13
1.0
 23
0.0
 33
0.0
 40
0.0
 40
0.0
 40
0.0
 40
0.0
 40
0.2500000000000007
 40
0.2500000000000007
 40
0.5000000000000014
 40
0.5000000000000014
 40
1.0
 40
1.0
 40
1.0
 40
1.0
 10
633.5768895155002
 20
410.0825153795751
 30
0.0
 10
633.5768895155002
 20
410.5933790585859
 30
0.0
 10
633.5515562622071
 20
411.106534723865
 30
0.0
 10
633.4535193751303
 20
412.1216635197127
 30
0.0
 10
633.3809100062015
 20
412.6258327260146
 30
0.0
 10
633.1008633072674
 20
414.129385883012
 30
0.0
 10
632.8314494783617
 20
415.1198502137121
 30
0.0
 10
632.5050927457759
 20
416.1021193563769
 30
0.0
  0
SPLINE
  5
FC
330
1F
100
AcDbEntity
  8
0
  6
Continuous
 62
     7
370
    15
100
AcDbSpline
210
0.0
220
0.0
230
1.0
 70
     8
 71
     3
 72
    10
 73
     6
 74
     0
 42
0.00000001
 43
0.00000001
 12
1.0
 22
0.0
 32
0.0
 13
1.0
 23
0.0
 33
0.0
 40
0.0
 40
0.0
 40
0.0
 40
0.0
 40
0.5
 40
0.5
 40
1.0
 40
1.0
 40
1.0
 40
1.0
 10
632.505092745776
 20
404.0629114027733
 30
0.0
 10
632.8322665068875
 20
405.0476396395193
 30
0.0
 10
633.1018090508059
 20
406.0395607100459
 30
0.0
 10
633.474741559064
 20
408.0441400130975
 30
0.0
 10
633.5768895155002
 20
409.0569532580765
 30
0.0
 10
633.5768895155002
 20
410.0825153795751
 30
0.0
  0
LINE
  5
FD
330
1F
100
AcDbEntity
  8
0
  6
Continuous
 62
     7
370
    15
100
AcDbLine
 10
632.5050937732
 20
404.0629113975
 30
0.0
 11
619.5768891623
 21
404.0629113975
 31
0.0
  0
LINE
  5
FE
330
1F
100
AcDbEntity
  8
0
  6
Continuous
 62
     7
370
    15
100
AcDbLine
 10
632.5050937732
 20
416.1021183195
 30
0.0
 11
619.5768891623
 21
416.1021183195
 31
0.0
  0
SPLINE
  5
FF
330
1F
100
AcDbEntity
  8
0
  6
Continuous
 62
     7
370
    15
100
AcDbSpline
210
0.0
220
0.0
230
1.0
 70
     8
 71
     3
 72
    12
 73
     8
 74
     0
 42
0.00000001
 43
0.00000001
 12
1.0
 22
0.0
 32
0.0
 13
1.0
 23
0.0
 33
0.0
 40
0.0
 40
0.0
 40
0.0
 40
0.0
 40
0.25
 40
0.25
 40
0.5
 40
0.5
 40
1.0
 40
1.0
 40
1.0
 40
1.0
 10
633.5768895155002
 20
422.0823213131076
 30
0.0
 10
633.5768895155002
 20
422.5878994076393
 30
0.0
 10
633.5519981080402
 20
423.0950969327934
 30
0.0
 10
633.4530749837564
 20
424.1126890430474
 30
0.0
 10
633.3795544665663
 20
424.6177641375842
 30
0.0
 10
633.0977998184129
 20
426.1159087896749
 30
0.0
 10
632.8284815956515
 20
427.0955579534323
 30
0.0
 10
632.5050927457758
 20
428.0625232698384
 30
0.0
  0
SPLINE
  5
100
330
1F
100
AcDbEntity
  8
0
  6
Continuous
 62
     7
370
    15
100
AcDbSpline
210
0.0
220
0.0
230
1.0
 70
     8
 71
     3
 72
    10
 73
     6
 74
     0
 42
0.00000001
 43
0.00000001
 12
1.0
 22
0.0
 32
0.0
 13
1.0
 23
0.0
 33
0.0
 40
0.0
 40
0.0
 40
0.0
 40
0.0
 40
0.5
 40
0.5
 40
1.0
 40
1.0
 40
1.0
 40
1.0
 10
632.5050927457758
 20
416.1021193563769
 30
0.0
 10
632.8303765425132
 20
417.0747507552483
 30
0.0
 10
633.1032034997124
 20
418.0709161136361
 30
0.0
 10
633.4762564622552
 20
420.0677569175089
 30
0.0
 10
633.5768895155002
 20
421.071765530873
 30
0.0
 10
633.5768895155002
 20
422.0823213131076
 30
0.0
  0
LINE
  5
101
330
1F
100
AcDbEntity
  8
0
  6
Continuous
 62
     7
370
    15
100
AcDbLine
 10
632.5050937732
 20
428.0625241759
 30
0.0
 11
619.5768891623
 21
428.0625241759
 31
0.0
  0
SPLINE
  5
102
330
1F
100
AcDbEntity
  8
0
  6
Continuous
 62
     7
370
    15
100
AcDbSpline
210
0.0
220
0.0
230
1.0
 70
     8
 71
     3
 72
    12
 73
     8
 74
     0
 42
0.00000001
 43
0.00000001
 12
1.0
 22
0.0
 32
0.0
 13
1.0
 23
0.0
 33
0.0
 40
0.0
 40
0.0
 40
0.0
 40
0.0
 40
0.2500000000000007
 40
0.2500000000000007
 40
0.5000000000000014
 40
0.5000000000000014
 40
1.0
 40
1.0
 40
1.0
 40
1.0
 10
728.0167860621308
 20
410.0825153795751
 30
0.0
 10
728.0167860621308
 20
410.5933790585859
 30
0.0
 10
727.9914528088377
 20
411.106534723865
 30
0.0
 10
727.893415921761
 20
412.1216635197127
 30
0.0
 10
727.820806552832
 20
412.6258327260146
 30
0.0
 10
727.5407598538981
 20
414.129385883012
 30
0.0
 10
727.2713460249923
 20
415.1198502137121
 30
0.0
 10
726.9449892924065
 20
416.1021193563769
 30
0.0
  0
SPLINE
  5
103
330
1F
100
AcDbEntity
  8
0
  6
Continuous
 62
     7
370
    15
100
AcDbSpline
210
0.0
220
0.0
230
1.0
 70
     8
 71
     3
 72
    10
 73
     6
 74
     0
 42
0.00000001
 43
0.00000001
 12
1.0
 22
0.0
 32
0.0
 13
1.0
 23
0.0
 33
0.0
 40
0.0
 40
0.0
 40
0.0
 40
0.0
 40
0.5
 40
0.5
 40
1.0
 40
1.0
 40
1.0
 40
1.0
 10
726.9449892924066
 20
404.0629114027733
 30
0.0
 10
727.2721630535182
 20
405.0476396395193
 30
0.0
 10
727.5417055974365
 20
406.0395607100459
 30
0.0
 10
727.9146381056947
 20
408.0441400130975
 30
0.0
 10
728.0167860621308
 20
409.0569532580765
 30
0.0
 10
728.0167860621308
 20
410.0825153795751
 30
0.0
  0
LINE
  5
104
330
1F
100
AcDbEntity
  8
0
  6
Continuous
 62
     7
370
    15
100
AcDbLine
 10
726.9449877342
 20
404.0629113975
 30
0.0
 11
714.0167849859
 21
404.0629113975
 31
0.0
  0
SPLINE
  5
105
330
1F
100
AcDbEntity
  8
0
  6
Continuous
 62
     7
370
    15
100
AcDbSpline
210
0.0
220
0.0
230
1.0
 70
     8
 71
     3
 72
    12
 73
     8
 74
     0
 42
0.00000001
 43
0.00000001
 12
1.0
 22
0.0
 32
0.0
 13
1.0
 23
0.0
 33
0.0
 40
0.0
 40
0.0
 40
0.0
 40
0.0
 40
0.2500000000000007
 40
0.2500000000000007
 40
0.5000000000000014
 40
0.5000000000000014
 40
1.0
 40
1.0
 40
1.0
 40
1.0
 10
547.0167860621309
 20
410.0825153795751
 30
0.0
 10
547.0167860621309
 20
410.5933790585859
 30
0.0
 10
546.9914528088376
 20
411.106534723865
 30
0.0
 10
546.8934159217608
 20
412.1216635197127
 30
0.0
 10
546.8208065528321
 20
412.6258327260146
 30
0.0
 10
546.5407598538981
 20
414.129385883012
 30
0.0
 10
546.2713460249922
 20
415.1198502137121
 30
0.0
 10
545.9449892924065
 20
416.1021193563769
 30
0.0
  0
SPLINE
  5
106
330
1F
100
AcDbEntity
  8
0
  6
Continuous
 62
     7
370
    15
100
AcDbSpline
210
0.0
220
0.0
230
1.0
 70
     8
 71
     3
 72
    10
 73
     6
 74
     0
 42
0.00000001
 43
0.00000001
 12
1.0
 22
0.0
 32
0.0
 13
1.0
 23
0.0
 33
0.0
 40
0.0
 40
0.0
 40
0.0
 40
0.0
 40
0.5
 40
0.5
 40
1.0
 40
1.0
 40
1.0
 40
1.0
 10
545.9449892924066
 20
404.0629114027733
 30
0.0
 10
546.272163053518
 20
405.0476396395193
 30
0.0
 10
546.5417055974365
 20
406.0395607100459
 30
0.0
 10
546.9146381056947
 20
408.0441400130975
 30
0.0
 10
547.0167860621309
 20
409.0569532580765
 30
0.0
 10
547.0167860621309
 20
410.0825153795751
 30
0.0
  0
LINE
  5
107
330
1F
100
AcDbEntity
  8
0
  6
Continuous
 62
     7
370
    15
100
AcDbLine
 10
545.9449897309
 20
404.0629113975
 30
0.0
 11
533.0167869826
 21
404.0629113975
 31
0.0
  0
LINE
  5
108
330
1F
100
AcDbEntity
  8
0
  6
Continuous
 62
     7
370
    15
100
AcDbLine
 10
545.9449897309
 20
416.1021183195
 30
0.0
 11
533.0167869826
 21
416.1021183195
 31
0.0
  0
LINE
  5
109
330
1F
100
AcDbEntity
  8
0
  6
Continuous
 62
     7
370
    15
100
AcDbLine
 10
728.0167835554
 20
410.0825148585
 30
0.0
 11
728.0167835554
 21
422.0823231104
 31
0.0
  0
SPLINE
  5
10A
330
1F
100
AcDbEntity
  8
0
  6
Continuous
 62
     7
370
    15
100
AcDbSpline
210
0.0
220
0.0
230
1.0
 70
     8
 71
     3
 72
    12
 73
     8
 74
     0
 42
0.00000001
 43
0.00000001
 12
1.0
 22
0.0
 32
0.0
 13
1.0
 23
0.0
 33
0.0
 40
0.0
 40
0.0
 40
0.0
 40
0.0
 40
0.25
 40
0.25
 40
0.5
 40
0.5
 40
1.0
 40
1.0
 40
1.0
 40
1.0
 10
547.0167860621309
 20
422.0823213131076
 30
0.0
 10
547.0167860621309
 20
422.5878994076393
 30
0.0
 10
546.9918946546708
 20
423.0950969327934
 30
0.0
 10
546.8929715303872
 20
424.1126890430474
 30
0.0
 10
546.819451013197
 20
424.6177641375842
 30
0.0
 10
546.5376963650435
 20
426.1159087896749
 30
0.0
 10
546.2683781422821
 20
427.0955579534323
 30
0.0
 10
545.9449892924063
 20
428.0625232698384
 30
0.0
  0
SPLINE
  5
10B
330
1F
100
AcDbEntity
  8
0
  6
Continuous
 62
     7
370
    15
100
AcDbSpline
210
0.0
220
0.0
230
1.0
 70
     8
 71
     3
 72
    10
 73
     6
 74
     0
 42
0.00000001
 43
0.00000001
 12
1.0
 22
0.0
 32
0.0
 13
1.0
 23
0.0
 33
0.0
 40
0.0
 40
0.0
 40
0.0
 40
0.0
 40
0.5
 40
0.5
 40
1.0
 40
1.0
 40
1.0
 40
1.0
 10
545.9449892924064
 20
416.1021193563769
 30
0.0
 10
546.270273089144
 20
417.0747507552483
 30
0.0
 10
546.5431000463429
 20
418.0709161136361
 30
0.0
 10
546.9161530088859
 20
420.0677569175089
 30
0.0
 10
547.0167860621309
 20
421.071765530873
 30
0.0
 10
547.0167860621309
 20
422.0823213131076
 30
0.0
  0
LINE
  5
10C
330
1F
100
AcDbEntity
  8
0
  6
Continuous
 62
     7
370
    15
100
AcDbLine
 10
545.9449897309
 20
428.0625241759
 30
0.0
 11
533.0167869826
 21
428.0625241759
 31
0.0
  0
LINE
  5
10D
330
1F
100
AcDbEntity
  8
0
  6
Continuous
 62
     7
370
    15
100
AcDbLine
 10
547.0167855521
 20
410.0825148585
 30
0.0
 11
547.0167855521
 21
422.0823231104
 31
0.0
  0
LINE
  5
10E
330
1F
100
AcDbEntity
  8
0
  6
Continuous
 62
     7
370
    15
100
AcDbLine
 10
633.5768895944
 20
410.0825148585
 30
0.0
 11
633.5768895944
 21
422.0823231104
 31
0.0
  0
SPLINE
  5
10F
330
1F
100
AcDbEntity
  8
0
  6
Continuous
 62
     7
370
    15
100
AcDbSpline
210
0.0
220
0.0
230
1.0
 70
     8
 71
     3
 72
    12
 73
     8
 74
     0
 42
0.00000001
 43
0.00000001
 12
1.0
 22
0.0
 32
0.0
 13
1.0
 23
0.0
 33
0.0
 40
0.0
 40
0.0
 40
0.0
 40
0.0
 40
0.2499999999999986
 40
0.2499999999999986
 40
0.4999999999999971
 40
0.4999999999999971
 40
1.0
 40
1.0
 40
1.0
 40
1.0
 10
547.0167860621309
 20
518.6220448889762
 30
0.0
 10
547.0167860621308
 20
519.210008842322
 30
0.0
 10
546.9914528088376
 20
519.8006106917693
 30
0.0
 10
546.8934159217608
 20
520.9689441718815
 30
0.0
 10
546.8208065528321
 20
521.5492033131586
 30
0.0
 10
546.5407598538981
 20
523.2796748549315
 30
0.0
 10
546.2713460249922
 20
524.4196214736733
 30
0.0
 10
545.9449892924064
 20
525.5501360749245
 30
0.0
  0
SPLINE
  5
110
330
1F
100
AcDbEntity
  8
0
  6
Continuous
 62
     7
370
    15
100
AcDbSpline
210
0.0
220
0.0
230
1.0
 70
     8
 71
     3
 72
    10
 73
     6
 74
     0
 42
0.00000001
 43
0.00000001
 12
1.0
 22
0.0
 32
0.0
 13
1.0
 23
0.0
 33
0.0
 40
0.0
 40
0.0
 40
0.0
 40
0.0
 40
0.5
 40
0.5
 40
1.0
 40
1.0
 40
1.0
 40
1.0
 10
545.9449892924066
 20
511.6939537030279
 30
0.0
 10
546.272163053518
 20
512.8272985283431
 30
0.0
 10
546.5417055974365
 20
513.9689217401615
 30
0.0
 10
546.9146381056947
 20
516.2760350078328
 30
0.0
 10
547.0167860621309
 20
517.44170347084
 30
0.0
 10
547.0167860621309
 20
518.6220448889762
 30
0.0
  0
LINE
  5
111
330
1F
100
AcDbEntity
  8
0
  6
Continuous
 62
     7
370
    15
100
AcDbLine
 10
545.9449897309
 20
511.6939539972
 30
0.0
 11
533.0167869826
 21
511.6939539972
 31
0.0
  0
LINE
  5
112
330
1F
100
AcDbEntity
  8
0
  6
Continuous
 62
     7
370
    15
100
AcDbLine
 10
545.9449897309
 20
525.5501340094
 30
0.0
 11
533.0167869826
 21
525.5501340094
 31
0.0
  0
LINE
  5
113
330
1F
100
AcDbEntity
  8
0
  6
Continuous
 62
     7
370
    15
100
AcDbLine
 10
547.0167855521
 20
508.1957834723
 30
0.0
 11
547.0167855521
 21
518.6220477286
 31
0.0
  0
SPLINE
  5
114
330
1F
100
AcDbEntity
  8
0
  6
Continuous
 62
     7
370
    15
100
AcDbSpline
210
0.0
220
0.0
230
1.0
 70
     8
 71
     3
 72
    10
 73
     6
 74
     0
 42
0.00000001
 43
0.00000001
 12
1.0
 22
0.0
 32
0.0
 13
1.0
 23
0.0
 33
0.0
 40
0.0
 40
0.0
 40
0.0
 40
0.0
 40
0.5
 40
0.5
 40
1.0
 40
1.0
 40
1.0
 40
1.0
 10
545.9449892924064
 20
511.6939537030279
 30
0.0
 10
546.270273089144
 20
511.1250048978006
 30
0.0
 10
546.5431000463429
 20
510.5422897077285
 30
0.0
 10
546.9161530088859
 20
509.3742211147232
 30
0.0
 10
547.0167860621309
 20
508.786917947589
 30
0.0
 10
547.0167860621309
 20
508.1957849597118
 30
0.0
  0
SPLINE
  5
115
330
1F
100
AcDbEntity
  8
0
  6
Continuous
 62
     7
370
    15
100
AcDbSpline
210
0.0
220
0.0
230
1.0
 70
     8
 71
     3
 72
    10
 73
     6
 74
     0
 42
0.00000001
 43
0.00000001
 12
1.0
 22
0.0
 32
0.0
 13
1.0
 23
0.0
 33
0.0
 40
0.0
 40
0.0
 40
0.0
 40
0.0
 40
0.5
 40
0.5
 40
1.0
 40
1.0
 40
1.0
 40
1.0
 10
632.505092745776
 20
511.6939537030279
 30
0.0
 10
632.8322665068875
 20
512.8272985283431
 30
0.0
 10
633.1018090508059
 20
513.9689217401615
 30
0.0
 10
633.474741559064
 20
516.2760350078328
 30
0.0
 10
633.5768895155002
 20
517.44170347084
 30
0.0
 10
633.5768895155002
 20
518.6220448889762
 30
0.0
  0
LINE
  5
116
330
1F
100
AcDbEntity
  8
0
  6
Continuous
 62
     7
370
    15
100
AcDbLine
 10
633.5768895944
 20
508.1957834723
 30
0.0
 11
633.5768895944
 21
518.6220477286
 31
0.0
  0
SPLINE
  5
117
330
1F
100
AcDbEntity
  8
0
  6
Continuous
 62
     7
370
    15
100
AcDbSpline
210
0.0
220
0.0
230
1.0
 70
     8
 71
     3
 72
    10
 73
     6
 74
     0
 42
0.00000001
 43
0.00000001
 12
1.0
 22
0.0
 32
0.0
 13
1.0
 23
0.0
 33
0.0
 40
0.0
 40
0.0
 40
0.0
 40
0.0
 40
0.5
 40
0.5
 40
1.0
 40
1.0
 40
1.0
 40
1.0
 10
632.5050927457758
 20
511.6939537030279
 30
0.0
 10
632.8303765425132
 20
511.1250048978006
 30
0.0
 10
633.1032034997124
 20
510.5422897077285
 30
0.0
 10
633.4762564622552
 20
509.3742211147232
 30
0.0
 10
633.5768895155002
 20
508.786917947589
 30
0.0
 10
633.5768895155002
 20
508.1957849597118
 30
0.0
  0
SPLINE
  5
118
330
1F
100
AcDbEntity
  8
0
  6
Continuous
 62
     7
370
    15
100
AcDbSpline
210
0.0
220
0.0
230
1.0
 70
     8
 71
     3
 72
    12
 73
     8
 74
     0
 42
0.00000001
 43
0.00000001
 12
1.0
 22
0.0
 32
0.0
 13
1.0
 23
0.0
 33
0.0
 40
0.0
 40
0.0
 40
0.0
 40
0.0
 40
0.2499999999999986
 40
0.2499999999999986
 40
0.4999999999999971
 40
0.4999999999999971
 40
1.0
 40
1.0
 40
1.0
 40
1.0
 10
633.5768895155002
 20
518.6220448889762
 30
0.0
 10
633.5768895155002
 20
519.210008842322
 30
0.0
 10
633.5515562622071
 20
519.8006106917693
 30
0.0
 10
633.4535193751303
 20
520.9689441718815
 30
0.0
 10
633.3809100062015
 20
521.5492033131586
 30
0.0
 10
633.1008633072674
 20
523.2796748549315
 30
0.0
 10
632.8314494783617
 20
524.4196214736733
 30
0.0
 10
632.5050927457759
 20
525.5501360749245
 30
0.0
  0
LINE
  5
119
330
1F
100
AcDbEntity
  8
0
  6
Continuous
 62
     7
370
    15
100
AcDbLine
 10
632.5050937732
 20
511.6939539972
 30
0.0
 11
619.5768891623
 21
511.6939539972
 31
0.0
  0
LINE
  5
11A
330
1F
100
AcDbEntity
  8
0
  6
Continuous
 62
     7
370
    15
100
AcDbLine
 10
632.5050937732
 20
525.5501340094
 30
0.0
 11
619.5768891623
 21
525.5501340094
 31
0.0
  0
SPLINE
  5
11B
330
1F
100
AcDbEntity
  8
0
  6
Continuous
 62
     7
370
    15
100
AcDbSpline
210
0.0
220
0.0
230
1.0
 70
     8
 71
     3
 72
    12
 73
     8
 74
     0
 42
0.00000001
 43
0.00000001
 12
1.0
 22
0.0
 32
0.0
 13
1.0
 23
0.0
 33
0.0
 40
0.0
 40
0.0
 40
0.0
 40
0.0
 40
0.2499999999999986
 40
0.2499999999999986
 40
0.4999999999999971
 40
0.4999999999999971
 40
1.0
 40
1.0
 40
1.0
 40
1.0
 10
728.0167860621308
 20
518.6220448889762
 30
0.0
 10
728.0167860621308
 20
519.210008842322
 30
0.0
 10
727.9914528088377
 20
519.8006106917693
 30
0.0
 10
727.893415921761
 20
520.9689441718815
 30
0.0
 10
727.820806552832
 20
521.5492033131586
 30
0.0
 10
727.5407598538981
 20
523.2796748549315
 30
0.0
 10
727.2713460249923
 20
524.4196214736733
 30
0.0
 10
726.9449892924065
 20
525.5501360749245
 30
0.0
  0
SPLINE
  5
11C
330
1F
100
AcDbEntity
  8
0
  6
Continuous
 62
     7
370
    15
100
AcDbSpline
210
0.0
220
0.0
230
1.0
 70
     8
 71
     3
 72
    10
 73
     6
 74
     0
 42
0.00000001
 43
0.00000001
 12
1.0
 22
0.0
 32
0.0
 13
1.0
 23
0.0
 33
0.0
 40
0.0
 40
0.0
 40
0.0
 40
0.0
 40
0.5
 40
0.5
 40
1.0
 40
1.0
 40
1.0
 40
1.0
 10
726.9449892924066
 20
511.6939537030279
 30
0.0
 10
727.2721630535182
 20
512.8272985283431
 30
0.0
 10
727.5417055974364
 20
513.9689217401615
 30
0.0
 10
727.9146381056946
 20
516.2760350078328
 30
0.0
 10
728.0167860621308
 20
517.44170347084
 30
0.0
 10
728.0167860621308
 20
518.6220448889762
 30
0.0
  0
LINE
  5
11D
330
1F
100
AcDbEntity
  8
0
  6
Continuous
 62
     7
370
    15
100
AcDbLine
 10
726.9449877342
 20
511.6939539972
 30
0.0
 11
714.0167849859
 21
511.6939539972
 31
0.0
  0
LINE
  5
11E
330
1F
100
AcDbEntity
  8
0
  6
Continuous
 62
     7
370
    15
100
AcDbLine
 10
726.9449877342
 20
525.5501340094
 30
0.0
 11
714.0167849859
 21
525.5501340094
 31
0.0
  0
LINE
  5
11F
330
1F
100
AcDbEntity
  8
0
  6
Continuous
 62
     7
370
    15
100
AcDbLine
 10
728.0167835554
 20
508.1957834723
 30
0.0
 11
728.0167835554
 21
518.6220477286
 31
0.0
  0
SPLINE
  5
120
330
1F
100
AcDbEntity
  8
0
  6
Continuous
 62
     7
370
    15
100
AcDbSpline
210
0.0
220
0.0
230
1.0
 70
     8
 71
     3
 72
    10
 73
     6
 74
     0
 42
0.00000001
 43
0.00000001
 12
1.0
 22
0.0
 32
0.0
 13
1.0
 23
0.0
 33
0.0
 40
0.0
 40
0.0
 40
0.0
 40
0.0
 40
0.5
 40
0.5
 40
1.0
 40
1.0
 40
1.0
 40
1.0
 10
726.9449892924064
 20
511.6939537030279
 30
0.0
 10
727.270273089144
 20
511.1250048978006
 30
0.0
 10
727.543100046343
 20
510.5422897077285
 30
0.0
 10
727.9161530088858
 20
509.3742211147232
 30
0.0
 10
728.0167860621308
 20
508.786917947589
 30
0.0
 10
728.0167860621308
 20
508.1957849597118
 30
0.0
  0
SPLINE
  5
121
330
1F
100
AcDbEntity
  8
0
  6
Continuous
 62
     7
370
    15
100
AcDbSpline
210
0.0
220
0.0
230
1.0
 70
     8
 71
     3
 72
    10
 73
     6
 74
     0
 42
0.00000001
 43
0.00000001
 12
1.0
 22
0.0
 32
0.0
 13
1.0
 23
0.0
 33
0.0
 40
0.0
 40
0.0
 40
0.0
 40
0.0
 40
0.5
 40
0.5
 40
1.0
 40
1.0
 40
1.0
 40
1.0
 10
726.9449892924066
 20
525.5501360749245
 30
0.0
 10
727.2721630535182
 20
526.1112263878629
 30
0.0
 10
727.5417055974364
 20
526.6764151202497
 30
0.0
 10
727.9146381056946
 20
527.8186084549058
 30
0.0
 10
728.0167860621308
 20
528.3957013820379
 30
0.0
 10
728.0167860621308
 20
528.9800585175568
 30
0.0
  0
LINE
  5
122
330
1F
100
AcDbEntity
  8
0
  6
Continuous
 62
     7
370
    15
100
AcDbLine
 10
728.0167835554
 20
518.6220477286
 30
0.0
 11
728.0167835554
 21
528.9800609412
 31
0.0
  0
SPLINE
  5
123
330
1F
100
AcDbEntity
  8
0
  6
Continuous
 62
     7
370
    15
100
AcDbSpline
210
0.0
220
0.0
230
1.0
 70
     8
 71
     3
 72
    10
 73
     6
 74
     0
 42
0.00000001
 43
0.00000001
 12
1.0
 22
0.0
 32
0.0
 13
1.0
 23
0.0
 33
0.0
 40
0.0
 40
0.0
 40
0.0
 40
0.0
 40
0.5
 40
0.5
 40
1.0
 40
1.0
 40
1.0
 40
1.0
 10
632.505092745776
 20
525.5501360749245
 30
0.0
 10
632.8322665068875
 20
526.1112263878629
 30
0.0
 10
633.1018090508059
 20
526.6764151202497
 30
0.0
 10
633.474741559064
 20
527.8186084549058
 30
0.0
 10
633.5768895155002
 20
528.3957013820379
 30
0.0
 10
633.5768895155002
 20
528.9800585175568
 30
0.0
  0
LINE
  5
124
330
1F
100
AcDbEntity
  8
0
  6
Continuous
 62
     7
370
    15
100
AcDbLine
 10
633.5768895944
 20
518.6220477286
 30
0.0
 11
633.5768895944
 21
528.9800609412
 31
0.0
  0
SPLINE
  5
125
330
1F
100
AcDbEntity
  8
0
  6
Continuous
 62
     7
370
    15
100
AcDbSpline
210
0.0
220
0.0
230
1.0
 70
     8
 71
     3
 72
    10
 73
     6
 74
     0
 42
0.00000001
 43
0.00000001
 12
1.0
 22
0.0
 32
0.0
 13
1.0
 23
0.0
 33
0.0
 40
0.0
 40
0.0
 40
0.0
 40
0.0
 40
0.5
 40
0.5
 40
1.0
 40
1.0
 40
1.0
 40
1.0
 10
545.9449892924066
 20
525.5501360749245
 30
0.0
 10
546.272163053518
 20
526.1112263878629
 30
0.0
 10
546.5417055974365
 20
526.6764151202497
 30
0.0
 10
546.9146381056947
 20
527.8186084549058
 30
0.0
 10
547.0167860621309
 20
528.3957013820379
 30
0.0
 10
547.0167860621309
 20
528.9800585175568
 30
0.0
  0
LINE
  5
126
330
1F
100
AcDbEntity
  8
0
  6
Continuous
 62
     7
370
    15
100
AcDbLine
 10
547.0167855521
 20
518.6220477286
 30
0.0
 11
547.0167855521
 21
528.9800609412
 31
0.0
  0
SPLINE
  5
127
330
1F
100
AcDbEntity
  8
0
  6
Continuous
 62
     7
370
    15
100
AcDbSpline
210
0.0
220
0.0
230
1.0
 70
     8
 71
     3
 72
    12
 73
     8
 74
     0
 42
0.00000001
 43
0.00000001
 12
1.0
 22
0.0
 32
0.0
 13
1.0
 23
0.0
 33
0.0
 40
0.0
 40
0.0
 40
0.0
 40
0.0
 40
0.2500000000000013
 40
0.2500000000000013
 40
0.5000000000000026
 40
0.5000000000000026
 40
1.0
 40
1.0
 40
1.0
 40
1.0
 10
633.5768895155002
 20
508.1957849597118
 30
0.0
 10
633.5768895155002
 20
507.9000428592959
 30
0.0
 10
633.55199810804
 20
507.6033534595031
 30
0.0
 10
633.4530749837564
 20
507.0081045131814
 30
0.0
 10
633.3795544665663
 20
506.7126566467849
 30
0.0
 10
633.0977998184129
 20
505.8363045046952
 30
0.0
 10
632.8284815956514
 20
505.263250599682
 30
0.0
 10
632.5050927457758
 20
504.6976162163959
 30
0.0
  0
LINE
  5
128
330
1F
100
AcDbEntity
  8
0
  6
Continuous
 62
     7
370
    15
100
AcDbLine
 10
632.5050937732
 20
504.6976166728
 30
0.0
 11
619.5768891623
 21
504.6976166728
 31
0.0
  0
SPLINE
  5
129
330
1F
100
AcDbEntity
  8
0
  6
Continuous
 62
     7
370
    15
100
AcDbSpline
210
0.0
220
0.0
230
1.0
 70
     8
 71
     3
 72
    12
 73
     8
 74
     0
 42
0.00000001
 43
0.00000001
 12
1.0
 22
0.0
 32
0.0
 13
1.0
 23
0.0
 33
0.0
 40
0.0
 40
0.0
 40
0.0
 40
0.0
 40
0.2499999999999992
 40
0.2499999999999992
 40
0.4999999999999984
 40
0.4999999999999984
 40
1.0
 40
1.0
 40
1.0
 40
1.0
 10
728.0167860621308
 20
508.1957849597118
 30
0.0
 10
728.0167860621308
 20
507.9000428592959
 30
0.0
 10
727.9918946546709
 20
507.6033534595031
 30
0.0
 10
727.8929715303872
 20
507.0081045131814
 30
0.0
 10
727.819451013197
 20
506.7126566467849
 30
0.0
 10
727.5376963650436
 20
505.8363045046952
 30
0.0
 10
727.2683781422821
 20
505.263250599682
 30
0.0
 10
726.9449892924064
 20
504.6976162163959
 30
0.0
  0
LINE
  5
12A
330
1F
100
AcDbEntity
  8
0
  6
Continuous
 62
     7
370
    15
100
AcDbLine
 10
726.9449877342
 20
504.6976166728
 30
0.0
 11
714.0167849859
 21
504.6976166728
 31
0.0
  0
SPLINE
  5
12B
330
1F
100
AcDbEntity
  8
0
  6
Continuous
 62
     7
370
    15
100
AcDbSpline
210
0.0
220
0.0
230
1.0
 70
     8
 71
     3
 72
    12
 73
     8
 74
     0
 42
0.00000001
 43
0.00000001
 12
1.0
 22
0.0
 32
0.0
 13
1.0
 23
0.0
 33
0.0
 40
0.0
 40
0.0
 40
0.0
 40
0.0
 40
0.2500000000000013
 40
0.2500000000000013
 40
0.5000000000000026
 40
0.5000000000000026
 40
1.0
 40
1.0
 40
1.0
 40
1.0
 10
547.0167860621309
 20
508.1957849597118
 30
0.0
 10
547.0167860621309
 20
507.9000428592959
 30
0.0
 10
546.9918946546708
 20
507.6033534595031
 30
0.0
 10
546.8929715303872
 20
507.0081045131814
 30
0.0
 10
546.819451013197
 20
506.7126566467849
 30
0.0
 10
546.5376963650435
 20
505.8363045046952
 30
0.0
 10
546.2683781422821
 20
505.263250599682
 30
0.0
 10
545.9449892924063
 20
504.6976162163959
 30
0.0
  0
LINE
  5
12C
330
1F
100
AcDbEntity
  8
0
  6
Continuous
 62
     7
370
    15
100
AcDbLine
 10
545.9449897309
 20
504.6976166728
 30
0.0
 11
533.0167869826
 21
504.6976166728
 31
0.0
  0
SPLINE
  5
12D
330
1F
100
AcDbEntity
  8
0
  6
Continuous
 62
     7
370
    15
100
AcDbSpline
210
0.0
220
0.0
230
1.0
 70
     8
 71
     3
 72
    12
 73
     8
 74
     0
 42
0.00000001
 43
0.00000001
 12
1.0
 22
0.0
 32
0.0
 13
1.0
 23
0.0
 33
0.0
 40
0.0
 40
0.0
 40
0.0
 40
0.0
 40
0.2499999999999995
 40
0.2499999999999995
 40
0.499999999999999
 40
0.499999999999999
 40
1.0
 40
1.0
 40
1.0
 40
1.0
 10
677.0167860621308
 20
416.0233153162347
 30
0.0
 10
677.0167860621308
 20
415.4375913201166
 30
0.0
 10
677.0416774695909
 20
414.8499911759098
 30
0.0
 10
677.1406005938745
 20
413.6710870190979
 30
0.0
 10
677.2141211110646
 20
413.0859457601871
 30
0.0
 10
677.495875759218
 20
411.3503102928343
 30
0.0
 10
677.7651939819796
 20
410.2153639231316
 30
0.0
 10
678.0885828318553
 20
409.0951120859593
 30
0.0
  0
SPLINE
  5
12E
330
1F
100
AcDbEntity
  8
0
  6
Continuous
 62
     7
370
    15
100
AcDbSpline
210
0.0
220
0.0
230
1.0
 70
     8
 71
     3
 72
    10
 73
     6
 74
     0
 42
0.00000001
 43
0.00000001
 12
1.0
 22
0.0
 32
0.0
 13
1.0
 23
0.0
 33
0.0
 40
0.0
 40
0.0
 40
0.0
 40
0.0
 40
0.5
 40
0.5
 40
1.0
 40
1.0
 40
1.0
 40
1.0
 10
678.0885828318552
 20
422.9515185465103
 30
0.0
 10
677.7632990351177
 20
421.8247024208535
 30
0.0
 10
677.4904720779186
 20
420.6706216550521
 30
0.0
 10
677.1174191153758
 20
418.357235082519
 30
0.0
 10
677.0167860621308
 20
417.1940677231784
 30
0.0
 10
677.0167860621308
 20
416.0233153162347
 30
0.0
  0
LINE
  5
12F
330
1F
100
AcDbEntity
  8
0
  6
Continuous
 62
     7
370
    15
100
AcDbLine
 10
678.0885803302
 20
422.9515190187
 30
0.0
 11
691.0167830785
 21
422.9515190187
 31
0.0
  0
LINE
  5
130
330
1F
100
AcDbEntity
  8
0
  6
Continuous
 62
     7
370
    15
100
AcDbLine
 10
678.0885803302
 20
409.0951117637
 30
0.0
 11
691.0167830785
 21
409.0951117637
 31
0.0
  0
SPLINE
  5
131
330
1F
100
AcDbEntity
  8
0
  6
Continuous
 62
     7
370
    15
100
AcDbSpline
210
0.0
220
0.0
230
1.0
 70
     8
 71
     3
 72
    12
 73
     8
 74
     0
 42
0.00000001
 43
0.00000001
 12
1.0
 22
0.0
 32
0.0
 13
1.0
 23
0.0
 33
0.0
 40
0.0
 40
0.0
 40
0.0
 40
0.0
 40
0.2500000000000005
 40
0.2500000000000005
 40
0.500000000000001
 40
0.500000000000001
 40
1.0
 40
1.0
 40
1.0
 40
1.0
 10
496.0167860621308
 20
416.0233153162347
 30
0.0
 10
496.0167860621308
 20
415.4375913201166
 30
0.0
 10
496.0416774695909
 20
414.8499911759098
 30
0.0
 10
496.1406005938745
 20
413.6710870190979
 30
0.0
 10
496.2141211110646
 20
413.0859457601871
 30
0.0
 10
496.4958757592181
 20
411.3503102928343
 30
0.0
 10
496.7651939819795
 20
410.2153639231316
 30
0.0
 10
497.0885828318553
 20
409.0951120859593
 30
0.0
  0
SPLINE
  5
132
330
1F
100
AcDbEntity
  8
0
  6
Continuous
 62
     7
370
    15
100
AcDbSpline
210
0.0
220
0.0
230
1.0
 70
     8
 71
     3
 72
    10
 73
     6
 74
     0
 42
0.00000001
 43
0.00000001
 12
1.0
 22
0.0
 32
0.0
 13
1.0
 23
0.0
 33
0.0
 40
0.0
 40
0.0
 40
0.0
 40
0.0
 40
0.5
 40
0.5
 40
1.0
 40
1.0
 40
1.0
 40
1.0
 10
497.0885828318553
 20
422.9515185465103
 30
0.0
 10
496.7632990351177
 20
421.8247024208535
 30
0.0
 10
496.4904720779186
 20
420.6706216550521
 30
0.0
 10
496.1174191153759
 20
418.357235082519
 30
0.0
 10
496.0167860621308
 20
417.1940677231784
 30
0.0
 10
496.0167860621308
 20
416.0233153162347
 30
0.0
  0
LINE
  5
133
330
1F
100
AcDbEntity
  8
0
  6
Continuous
 62
     7
370
    15
100
AcDbLine
 10
497.0885860523
 20
422.9515190187
 30
0.0
 11
510.0167888006
 21
422.9515190187
 31
0.0
  0
LINE
  5
134
330
1F
100
AcDbEntity
  8
0
  6
Continuous
 62
     7
370
    15
100
AcDbLine
 10
497.0885860523
 20
409.0951117637
 30
0.0
 11
510.0167888006
 21
409.0951117637
 31
0.0
  0
SPLINE
  5
135
330
1F
100
AcDbEntity
  8
0
  6
Continuous
 62
     7
370
    15
100
AcDbSpline
210
0.0
220
0.0
230
1.0
 70
     8
 71
     3
 72
    12
 73
     8
 74
     0
 42
0.00000001
 43
0.00000001
 12
1.0
 22
0.0
 32
0.0
 13
1.0
 23
0.0
 33
0.0
 40
0.0
 40
0.0
 40
0.0
 40
0.0
 40
0.2499999999999986
 40
0.2499999999999986
 40
0.4999999999999972
 40
0.4999999999999972
 40
1.0
 40
1.0
 40
1.0
 40
1.0
 10
496.0167860621308
 20
426.4156201616481
 30
0.0
 10
496.0167860621308
 20
426.1216334305613
 30
0.0
 10
496.042119315424
 20
425.8263277300932
 30
0.0
 10
496.1401562025008
 20
425.2421515426196
 30
0.0
 10
496.2127655714296
 20
424.9520172798702
 30
0.0
 10
496.4928122703636
 20
424.0867675159865
 30
0.0
 10
496.7622260992694
 20
423.5167849887411
 30
0.0
 10
497.0885828318552
 20
422.9515185465103
 30
0.0
  0
SPLINE
  5
136
330
1F
100
AcDbEntity
  8
0
  6
Continuous
 62
     7
370
    15
100
AcDbSpline
210
0.0
220
0.0
230
1.0
 70
     8
 71
     3
 72
    10
 73
     6
 74
     0
 42
0.00000001
 43
0.00000001
 12
1.0
 22
0.0
 32
0.0
 13
1.0
 23
0.0
 33
0.0
 40
0.0
 40
0.0
 40
0.0
 40
0.0
 40
0.5
 40
0.5
 40
1.0
 40
1.0
 40
1.0
 40
1.0
 10
497.088582831855
 20
429.8797217767859
 30
0.0
 10
496.7614090707435
 20
429.3130401996373
 30
0.0
 10
496.4918665268252
 20
428.7422193622962
 30
0.0
 10
496.118934018567
 20
427.5886440726037
 30
0.0
 10
496.0167860621308
 20
427.0058004152326
 30
0.0
 10
496.0167860621308
 20
426.4156201616481
 30
0.0
  0
LINE
  5
137
330
1F
100
AcDbEntity
  8
0
  6
Continuous
 62
     7
370
    15
100
AcDbLine
 10
497.0885860523
 20
429.8797226461
 30
0.0
 11
510.0167888006
 21
429.8797226461
 31
0.0
  0
SPLINE
  5
138
330
1F
100
AcDbEntity
  8
0
  6
Continuous
 62
     7
370
    15
100
AcDbSpline
210
0.0
220
0.0
230
1.0
 70
     8
 71
     3
 72
    12
 73
     8
 74
     0
 42
0.00000001
 43
0.00000001
 12
1.0
 22
0.0
 32
0.0
 13
1.0
 23
0.0
 33
0.0
 40
0.0
 40
0.0
 40
0.0
 40
0.0
 40
0.2499999999999981
 40
0.2499999999999981
 40
0.4999999999999962
 40
0.4999999999999962
 40
1.0
 40
1.0
 40
1.0
 40
1.0
 10
677.0167860621308
 20
426.4156201616481
 30
0.0
 10
677.0167860621309
 20
426.1216334305613
 30
0.0
 10
677.042119315424
 20
425.8263277300932
 30
0.0
 10
677.1401562025007
 20
425.2421515426196
 30
0.0
 10
677.2127655714296
 20
424.9520172798701
 30
0.0
 10
677.4928122703636
 20
424.0867675159865
 30
0.0
 10
677.7622260992694
 20
423.5167849887411
 30
0.0
 10
678.0885828318552
 20
422.9515185465103
 30
0.0
  0
SPLINE
  5
139
330
1F
100
AcDbEntity
  8
0
  6
Continuous
 62
     7
370
    15
100
AcDbSpline
210
0.0
220
0.0
230
1.0
 70
     8
 71
     3
 72
    10
 73
     6
 74
     0
 42
0.00000001
 43
0.00000001
 12
1.0
 22
0.0
 32
0.0
 13
1.0
 23
0.0
 33
0.0
 40
0.0
 40
0.0
 40
0.0
 40
0.0
 40
0.5
 40
0.5
 40
1.0
 40
1.0
 40
1.0
 40
1.0
 10
678.088582831855
 20
429.8797217767859
 30
0.0
 10
677.7614090707435
 20
429.3130401996373
 30
0.0
 10
677.4918665268252
 20
428.7422193622962
 30
0.0
 10
677.118934018567
 20
427.5886440726037
 30
0.0
 10
677.0167860621308
 20
427.0058004152326
 30
0.0
 10
677.0167860621308
 20
426.4156201616481
 30
0.0
  0
LINE
  5
13A
330
1F
100
AcDbEntity
  8
0
  6
Continuous
 62
     7
370
    15
100
AcDbLine
 10
678.0885803302
 20
429.8797226461
 30
0.0
 11
691.0167830785
 21
429.8797226461
 31
0.0
  0
LINE
  5
13B
330
1F
100
AcDbEntity
  8
0
  6
Continuous
 62
     7
370
    15
100
AcDbLine
 10
496.0167827805
 20
426.4156199011
 30
0.0
 11
496.0167827805
 21
416.0233135286
 31
0.0
  0
LINE
  5
13C
330
1F
100
AcDbEntity
  8
0
  6
Continuous
 62
     7
370
    15
100
AcDbLine
 10
677.0167845091
 20
426.4156199011
 30
0.0
 11
677.0167845091
 21
416.0233135286
 31
0.0
  0
SPLINE
  5
13D
330
1F
100
AcDbEntity
  8
0
  6
Continuous
 62
     7
370
    15
100
AcDbSpline
210
0.0
220
0.0
230
1.0
 70
     8
 71
     3
 72
    10
 73
     6
 74
     0
 42
0.00000001
 43
0.00000001
 12
1.0
 22
0.0
 32
0.0
 13
1.0
 23
0.0
 33
0.0
 40
0.0
 40
0.0
 40
0.0
 40
0.0
 40
0.5
 40
0.5
 40
1.0
 40
1.0
 40
1.0
 40
1.0
 10
678.088582831855
 20
409.0951120859593
 30
0.0
 10
677.7614090707435
 20
408.5284305088107
 30
0.0
 10
677.4918665268252
 20
407.9576096714695
 30
0.0
 10
677.118934018567
 20
406.8040343817772
 30
0.0
 10
677.0167860621308
 20
406.221190724406
 30
0.0
 10
677.0167860621308
 20
405.6310104708215
 30
0.0
  0
LINE
  5
13E
330
1F
100
AcDbEntity
  8
0
  6
Continuous
 62
     7
370
    15
100
AcDbLine
 10
677.0167845091
 20
416.0233135286
 30
0.0
 11
677.0167845091
 21
405.6310090187
 31
0.0
  0
SPLINE
  5
13F
330
1F
100
AcDbEntity
  8
0
  6
Continuous
 62
     7
370
    15
100
AcDbSpline
210
0.0
220
0.0
230
1.0
 70
     8
 71
     3
 72
    10
 73
     6
 74
     0
 42
0.00000001
 43
0.00000001
 12
1.0
 22
0.0
 32
0.0
 13
1.0
 23
0.0
 33
0.0
 40
0.0
 40
0.0
 40
0.0
 40
0.0
 40
0.5
 40
0.5
 40
1.0
 40
1.0
 40
1.0
 40
1.0
 10
497.088582831855
 20
409.0951120859593
 30
0.0
 10
496.7614090707435
 20
408.5284305088107
 30
0.0
 10
496.4918665268252
 20
407.9576096714695
 30
0.0
 10
496.118934018567
 20
406.8040343817772
 30
0.0
 10
496.0167860621308
 20
406.221190724406
 30
0.0
 10
496.0167860621308
 20
405.6310104708215
 30
0.0
  0
LINE
  5
140
330
1F
100
AcDbEntity
  8
0
  6
Continuous
 62
     7
370
    15
100
AcDbLine
 10
496.0167827805
 20
416.0233135286
 30
0.0
 11
496.0167827805
 21
405.6310090187
 31
0.0
  0
SPLINE
  5
141
330
1F
100
AcDbEntity
  8
0
  6
Continuous
 62
     7
370
    15
100
AcDbSpline
210
0.0
220
0.0
230
1.0
 70
     8
 71
     3
 72
    12
 73
     8
 74
     0
 42
0.00000001
 43
0.00000001
 12
1.0
 22
0.0
 32
0.0
 13
1.0
 23
0.0
 33
0.0
 40
0.0
 40
0.0
 40
0.0
 40
0.0
 40
0.2499999999999984
 40
0.2499999999999984
 40
0.4999999999999969
 40
0.4999999999999969
 40
1.0
 40
1.0
 40
1.0
 40
1.0
 10
677.0167860621308
 20
405.6310104708215
 30
0.0
 10
677.0167860621309
 20
405.3370237397348
 30
0.0
 10
677.042119315424
 20
405.0417180392666
 30
0.0
 10
677.1401562025007
 20
404.4575418517931
 30
0.0
 10
677.2127655714296
 20
404.1674075890437
 30
0.0
 10
677.4928122703636
 20
403.3021578251601
 30
0.0
 10
677.7622260992694
 20
402.7321752979146
 30
0.0
 10
678.0885828318552
 20
402.1669088556839
 30
0.0
  0
LINE
  5
142
330
1F
100
AcDbEntity
  8
0
  6
Continuous
 62
     7
370
    15
100
AcDbLine
 10
678.0885803302
 20
402.1669099989
 30
0.0
 11
691.0167830785
 21
402.1669099989
 31
0.0
  0
SPLINE
  5
143
330
1F
100
AcDbEntity
  8
0
  6
Continuous
 62
     7
370
    15
100
AcDbSpline
210
0.0
220
0.0
230
1.0
 70
     8
 71
     3
 72
    12
 73
     8
 74
     0
 42
0.00000001
 43
0.00000001
 12
1.0
 22
0.0
 32
0.0
 13
1.0
 23
0.0
 33
0.0
 40
0.0
 40
0.0
 40
0.0
 40
0.0
 40
0.249999999999999
 40
0.249999999999999
 40
0.499999999999998
 40
0.499999999999998
 40
1.0
 40
1.0
 40
1.0
 40
1.0
 10
496.0167860621308
 20
405.6310104708215
 30
0.0
 10
496.0167860621308
 20
405.3370237397348
 30
0.0
 10
496.042119315424
 20
405.0417180392666
 30
0.0
 10
496.1401562025008
 20
404.4575418517931
 30
0.0
 10
496.2127655714295
 20
404.1674075890437
 30
0.0
 10
496.4928122703636
 20
403.3021578251601
 30
0.0
 10
496.7622260992694
 20
402.7321752979146
 30
0.0
 10
497.0885828318552
 20
402.1669088556839
 30
0.0
  0
LINE
  5
144
330
1F
100
AcDbEntity
  8
0
  6
Continuous
 62
     7
370
    15
100
AcDbLine
 10
497.0885860523
 20
402.1669099989
 30
0.0
 11
510.0167888006
 21
402.1669099989
 31
0.0
  0
SPLINE
  5
145
330
1F
100
AcDbEntity
  8
0
  6
Continuous
 62
     7
370
    15
100
AcDbSpline
210
0.0
220
0.0
230
1.0
 70
     8
 71
     3
 72
    12
 73
     8
 74
     0
 42
0.00000001
 43
0.00000001
 12
1.0
 22
0.0
 32
0.0
 13
1.0
 23
0.0
 33
0.0
 40
0.0
 40
0.0
 40
0.0
 40
0.0
 40
0.2500000000000007
 40
0.2500000000000007
 40
0.5000000000000014
 40
0.5000000000000014
 40
1.0
 40
1.0
 40
1.0
 40
1.0
 10
728.0167860621308
 20
528.9800585175568
 30
0.0
 10
728.0167860621308
 20
529.27114457646
 30
0.0
 10
727.9914528088377
 20
529.5635365908993
 30
0.0
 10
727.893415921761
 20
530.1419489004895
 30
0.0
 10
727.820806552832
 20
530.4292205021169
 30
0.0
 10
727.5407598538981
 20
531.2859331258627
 30
0.0
 10
727.2713460249923
 20
531.8502918194888
 30
0.0
 10
726.9449892924065
 20
532.4099809601889
 30
0.0
  0
LINE
  5
146
330
1F
100
AcDbEntity
  8
0
  6
Continuous
 62
     7
370
    15
100
AcDbLine
 10
726.9449877342
 20
532.4099804225
 30
0.0
 11
714.0167849859
 21
532.4099804225
 31
0.0
  0
SPLINE
  5
147
330
1F
100
AcDbEntity
  8
0
  6
Continuous
 62
     7
370
    15
100
AcDbSpline
210
0.0
220
0.0
230
1.0
 70
     8
 71
     3
 72
    12
 73
     8
 74
     0
 42
0.00000001
 43
0.00000001
 12
1.0
 22
0.0
 32
0.0
 13
1.0
 23
0.0
 33
0.0
 40
0.0
 40
0.0
 40
0.0
 40
0.0
 40
0.2500000000000007
 40
0.2500000000000007
 40
0.5000000000000014
 40
0.5000000000000014
 40
1.0
 40
1.0
 40
1.0
 40
1.0
 10
547.0167860621309
 20
528.9800585175568
 30
0.0
 10
547.0167860621309
 20
529.27114457646
 30
0.0
 10
546.9914528088376
 20
529.5635365908993
 30
0.0
 10
546.8934159217608
 20
530.1419489004895
 30
0.0
 10
546.8208065528321
 20
530.4292205021169
 30
0.0
 10
546.5407598538981
 20
531.2859331258627
 30
0.0
 10
546.2713460249922
 20
531.8502918194888
 30
0.0
 10
545.9449892924064
 20
532.4099809601889
 30
0.0
  0
LINE
  5
148
330
1F
100
AcDbEntity
  8
0
  6
Continuous
 62
     7
370
    15
100
AcDbLine
 10
545.9449897309
 20
532.4099804225
 30
0.0
 11
533.0167869826
 21
532.4099804225
 31
0.0
  0
SPLINE
  5
149
330
1F
100
AcDbEntity
  8
0
  6
Continuous
 62
     7
370
    15
100
AcDbSpline
210
0.0
220
0.0
230
1.0
 70
     8
 71
     3
 72
    12
 73
     8
 74
     0
 42
0.00000001
 43
0.00000001
 12
1.0
 22
0.0
 32
0.0
 13
1.0
 23
0.0
 33
0.0
 40
0.0
 40
0.0
 40
0.0
 40
0.0
 40
0.2500000000000007
 40
0.2500000000000007
 40
0.5000000000000014
 40
0.5000000000000014
 40
1.0
 40
1.0
 40
1.0
 40
1.0
 10
633.5768895155002
 20
528.9800585175568
 30
0.0
 10
633.5768895155002
 20
529.27114457646
 30
0.0
 10
633.5515562622071
 20
529.5635365908993
 30
0.0
 10
633.4535193751303
 20
530.1419489004895
 30
0.0
 10
633.3809100062015
 20
530.4292205021169
 30
0.0
 10
633.1008633072674
 20
531.2859331258627
 30
0.0
 10
632.8314494783617
 20
531.8502918194888
 30
0.0
 10
632.5050927457759
 20
532.4099809601889
 30
0.0
  0
LINE
  5
14A
330
1F
100
AcDbEntity
  8
0
  6
Continuous
 62
     7
370
    15
100
AcDbLine
 10
632.5050937732
 20
532.4099804225
 30
0.0
 11
619.5768891623
 21
532.4099804225
 31
0.0
  0
SPLINE
  5
14B
330
1F
100
AcDbEntity
  8
0
  6
Continuous
 62
     7
370
    15
100
AcDbSpline
210
0.0
220
0.0
230
1.0
 70
     8
 71
     3
 72
    12
 73
     8
 74
     0
 42
0.00000001
 43
0.00000001
 12
1.0
 22
0.0
 32
0.0
 13
1.0
 23
0.0
 33
0.0
 40
0.0
 40
0.0
 40
0.0
 40
0.0
 40
0.2499999999999986
 40
0.2499999999999986
 40
0.4999999999999971
 40
0.4999999999999971
 40
1.0
 40
1.0
 40
1.0
 40
1.0
 10
728.0167860621308
 20
404.0235093827023
 30
0.0
 10
728.0167860621308
 20
404.0268533005101
 30
0.0
 10
727.9914528088377
 20
404.0302122207814
 30
0.0
 10
727.893415921761
 20
404.0368568647385
 30
0.0
 10
727.820806552832
 20
404.0401569630943
 30
0.0
 10
727.5407598538981
 20
404.0499986456863
 30
0.0
 10
727.2713460249923
 20
404.0564818455094
 30
0.0
 10
726.9449892924065
 20
404.0629114027733
 30
0.0
  0
LINE
  5
14C
330
1F
100
AcDbEntity
  8
0
  6
Continuous
 62
     7
370
    15
100
AcDbLine
 10
728.0167835554
 20
404.023509002
 30
0.0
 11
728.0167835554
 21
410.0825148585
 31
0.0
  0
SPLINE
  5
14D
330
1F
100
AcDbEntity
  8
0
  6
Continuous
 62
     7
370
    15
100
AcDbSpline
210
0.0
220
0.0
230
1.0
 70
     8
 71
     3
 72
    12
 73
     8
 74
     0
 42
0.00000001
 43
0.00000001
 12
1.0
 22
0.0
 32
0.0
 13
1.0
 23
0.0
 33
0.0
 40
0.0
 40
0.0
 40
0.0
 40
0.0
 40
0.2500000000000015
 40
0.2500000000000015
 40
0.500000000000003
 40
0.500000000000003
 40
1.0
 40
1.0
 40
1.0
 40
1.0
 10
633.5768895155002
 20
404.0235093827023
 30
0.0
 10
633.5768895155002
 20
404.0268533005101
 30
0.0
 10
633.5515562622071
 20
404.0302122207814
 30
0.0
 10
633.4535193751303
 20
404.0368568647385
 30
0.0
 10
633.3809100062015
 20
404.0401569630943
 30
0.0
 10
633.1008633072674
 20
404.0499986456863
 30
0.0
 10
632.8314494783617
 20
404.0564818455094
 30
0.0
 10
632.5050927457759
 20
404.0629114027733
 30
0.0
  0
LINE
  5
14E
330
1F
100
AcDbEntity
  8
0
  6
Continuous
 62
     7
370
    15
100
AcDbLine
 10
633.5768895944
 20
404.023509002
 30
0.0
 11
633.5768895944
 21
410.0825148585
 31
0.0
  0
SPLINE
  5
14F
330
1F
100
AcDbEntity
  8
0
  6
Continuous
 62
     7
370
    15
100
AcDbSpline
210
0.0
220
0.0
230
1.0
 70
     8
 71
     3
 72
    12
 73
     8
 74
     0
 42
0.00000001
 43
0.00000001
 12
1.0
 22
0.0
 32
0.0
 13
1.0
 23
0.0
 33
0.0
 40
0.0
 40
0.0
 40
0.0
 40
0.0
 40
0.2500000000000015
 40
0.2500000000000015
 40
0.500000000000003
 40
0.500000000000003
 40
1.0
 40
1.0
 40
1.0
 40
1.0
 10
547.0167860621309
 20
404.0235093827023
 30
0.0
 10
547.0167860621309
 20
404.0268533005101
 30
0.0
 10
546.9914528088376
 20
404.0302122207814
 30
0.0
 10
546.8934159217608
 20
404.0368568647385
 30
0.0
 10
546.8208065528321
 20
404.0401569630943
 30
0.0
 10
546.5407598538981
 20
404.0499986456863
 30
0.0
 10
546.2713460249922
 20
404.0564818455094
 30
0.0
 10
545.9449892924065
 20
404.0629114027733
 30
0.0
  0
LINE
  5
150
330
1F
100
AcDbEntity
  8
0
  6
Continuous
 62
     7
370
    15
100
AcDbLine
 10
547.0167855521
 20
404.023509002
 30
0.0
 11
547.0167855521
 21
410.0825148585
 31
0.0
  0
SPLINE
  5
151
330
1F
100
AcDbEntity
  8
0
  6
Continuous
 62
     7
370
    15
100
AcDbSpline
210
0.0
220
0.0
230
1.0
 70
    24
 71
     3
 72
    12
 73
     8
 74
     0
 42
0.00000001
 43
0.00000001
 12
1.0
 22
0.0
 32
0.0
 13
1.0
 23
0.0
 33
0.0
 40
0.0
 40
0.0
 40
0.0
 40
0.0
 40
0.2500000000000012
 40
0.2500000000000012
 40
0.5000000000000024
 40
0.5000000000000024
 40
1.0
 40
1.0
 40
1.0
 40
1.0
 10
496.0167860621308
 20
530.5537985882925
 30
0.0
 10
496.0167860621308
 20
530.5537985882925
 30
0.0
 10
496.0416774695909
 20
530.5537985882924
 30
0.0
 10
496.1406005938745
 20
530.5537985882924
 30
0.0
 10
496.2141211110647
 20
530.5537985882924
 30
0.0
 10
496.4958757592181
 20
530.5537985882925
 30
0.0
 10
496.7651939819795
 20
530.5537985882925
 30
0.0
 10
497.0885828318553
 20
530.5537985882924
 30
0.0
  0
LINE
  5
152
330
1F
100
AcDbEntity
  8
0
  6
Continuous
 62
     7
370
    15
100
AcDbLine
 10
496.0167827805
 20
530.5537949267
 30
0.0
 11
496.0167827805
 21
524.5537976685
 31
0.0
  0
SPLINE
  5
153
330
1F
100
AcDbEntity
  8
0
  6
Continuous
 62
     7
370
    15
100
AcDbSpline
210
0.0
220
0.0
230
1.0
 70
    24
 71
     3
 72
    12
 73
     8
 74
     0
 42
0.00000001
 43
0.00000001
 12
1.0
 22
0.0
 32
0.0
 13
1.0
 23
0.0
 33
0.0
 40
0.0
 40
0.0
 40
0.0
 40
0.0
 40
0.2500000000000017
 40
0.2500000000000017
 40
0.5000000000000033
 40
0.5000000000000033
 40
1.0
 40
1.0
 40
1.0
 40
1.0
 10
677.0167860621308
 20
530.5537985882925
 30
0.0
 10
677.0167860621308
 20
530.5537985882924
 30
0.0
 10
677.0416774695909
 20
530.5537985882924
 30
0.0
 10
677.1406005938745
 20
530.5537985882924
 30
0.0
 10
677.2141211110646
 20
530.5537985882924
 30
0.0
 10
677.495875759218
 20
530.5537985882925
 30
0.0
 10
677.7651939819796
 20
530.5537985882925
 30
0.0
 10
678.0885828318553
 20
530.5537985882924
 30
0.0
  0
LINE
  5
154
330
1F
100
AcDbEntity
  8
0
  6
Continuous
 62
     7
370
    15
100
AcDbLine
 10
677.0167845091
 20
530.5537949267
 30
0.0
 11
677.0167845091
 21
524.5537976685
 31
0.0
  0
SPLINE
  5
155
330
1F
100
AcDbEntity
  8
0
  6
Continuous
 62
     7
370
    15
100
AcDbSpline
210
0.0
220
0.0
230
1.0
 70
    24
 71
     3
 72
    12
 73
     8
 74
     0
 42
0.00000001
 43
0.00000001
 12
1.0
 22
0.0
 32
0.0
 13
1.0
 23
0.0
 33
0.0
 40
0.0
 40
0.0
 40
0.0
 40
0.0
 40
0.2500000000000002
 40
0.2500000000000002
 40
0.5000000000000004
 40
0.5000000000000004
 40
1.0
 40
1.0
 40
1.0
 40
1.0
 10
677.0167860621308
 20
506.5537985882924
 30
0.0
 10
677.0167860621309
 20
506.5537985882924
 30
0.0
 10
677.0416774695909
 20
506.5537985882924
 30
0.0
 10
677.1406005938745
 20
506.5537985882924
 30
0.0
 10
677.2141211110646
 20
506.5537985882924
 30
0.0
 10
677.495875759218
 20
506.5537985882924
 30
0.0
 10
677.7651939819796
 20
506.5537985882924
 30
0.0
 10
678.0885828318553
 20
506.5537985882924
 30
0.0
  0
LINE
  5
156
330
1F
100
AcDbEntity
  8
0
  6
Continuous
 62
     7
370
    15
100
AcDbLine
 10
677.0167845091
 20
512.5537994268
 30
0.0
 11
677.0167845091
 21
506.5537984433
 31
0.0
  0
SPLINE
  5
157
330
1F
100
AcDbEntity
  8
0
  6
Continuous
 62
     7
370
    15
100
AcDbSpline
210
0.0
220
0.0
230
1.0
 70
    24
 71
     3
 72
    12
 73
     8
 74
     0
 42
0.00000001
 43
0.00000001
 12
1.0
 22
0.0
 32
0.0
 13
1.0
 23
0.0
 33
0.0
 40
0.0
 40
0.0
 40
0.0
 40
0.0
 40
0.2499999999999998
 40
0.2499999999999998
 40
0.4999999999999996
 40
0.4999999999999996
 40
1.0
 40
1.0
 40
1.0
 40
1.0
 10
496.0167860621308
 20
506.5537985882924
 30
0.0
 10
496.0167860621308
 20
506.5537985882924
 30
0.0
 10
496.0416774695909
 20
506.5537985882924
 30
0.0
 10
496.1406005938745
 20
506.5537985882924
 30
0.0
 10
496.2141211110647
 20
506.5537985882924
 30
0.0
 10
496.4958757592181
 20
506.5537985882924
 30
0.0
 10
496.7651939819796
 20
506.5537985882924
 30
0.0
 10
497.0885828318553
 20
506.5537985882924
 30
0.0
  0
LINE
  5
158
330
1F
100
AcDbEntity
  8
0
  6
Continuous
 62
     7
370
    15
100
AcDbLine
 10
496.0167827805
 20
512.5537994268
 30
0.0
 11
496.0167827805
 21
506.5537984433
 31
0.0
  0
SPLINE
  5
159
330
1F
100
AcDbEntity
  8
0
  6
Continuous
 62
     7
370
    15
100
AcDbSpline
210
0.0
220
0.0
230
1.0
 70
     8
 71
     3
 72
    10
 73
     6
 74
     0
 42
0.00000001
 43
0.00000001
 12
1.0
 22
0.0
 32
0.0
 13
1.0
 23
0.0
 33
0.0
 40
0.0
 40
0.0
 40
0.0
 40
0.0
 40
0.5
 40
0.5
 40
1.0
 40
1.0
 40
1.0
 40
1.0
 10
545.9449892924066
 20
428.0625232698384
 30
0.0
 10
546.272163053518
 20
428.0560776162874
 30
0.0
 10
546.5417055974365
 20
428.0495848812038
 30
0.0
 10
546.9146381056947
 20
428.0364636735234
 30
0.0
 10
547.0167860621309
 20
428.0298341862747
 30
0.0
 10
547.0167860621309
 20
428.0231212497674
 30
0.0
  0
LINE
  5
15A
330
1F
100
AcDbEntity
  8
0
  6
Continuous
 62
     7
370
    15
100
AcDbLine
 10
547.0167855521
 20
422.0823231104
 30
0.0
 11
547.0167855521
 21
428.0231217804
 31
0.0
  0
SPLINE
  5
15B
330
1F
100
AcDbEntity
  8
0
  6
Continuous
 62
     7
370
    15
100
AcDbSpline
210
0.0
220
0.0
230
1.0
 70
     8
 71
     3
 72
    10
 73
     6
 74
     0
 42
0.00000001
 43
0.00000001
 12
1.0
 22
0.0
 32
0.0
 13
1.0
 23
0.0
 33
0.0
 40
0.0
 40
0.0
 40
0.0
 40
0.0
 40
0.5
 40
0.5
 40
1.0
 40
1.0
 40
1.0
 40
1.0
 10
726.9449892924066
 20
428.0625232698384
 30
0.0
 10
727.2721630535182
 20
428.0560776162874
 30
0.0
 10
727.5417055974365
 20
428.0495848812038
 30
0.0
 10
727.9146381056947
 20
428.0364636735234
 30
0.0
 10
728.0167860621308
 20
428.0298341862747
 30
0.0
 10
728.0167860621308
 20
428.0231212497674
 30
0.0
  0
LINE
  5
15C
330
1F
100
AcDbEntity
  8
0
  6
Continuous
 62
     7
370
    15
100
AcDbLine
 10
728.0167835554
 20
422.0823231104
 30
0.0
 11
728.0167835554
 21
428.0231217804
 31
0.0
  0
SPLINE
  5
15D
330
1F
100
AcDbEntity
  8
0
  6
Continuous
 62
     7
370
    15
100
AcDbSpline
210
0.0
220
0.0
230
1.0
 70
     8
 71
     3
 72
    10
 73
     6
 74
     0
 42
0.00000001
 43
0.00000001
 12
1.0
 22
0.0
 32
0.0
 13
1.0
 23
0.0
 33
0.0
 40
0.0
 40
0.0
 40
0.0
 40
0.0
 40
0.5
 40
0.5
 40
1.0
 40
1.0
 40
1.0
 40
1.0
 10
632.505092745776
 20
428.0625232698384
 30
0.0
 10
632.8322665068875
 20
428.0560776162874
 30
0.0
 10
633.1018090508059
 20
428.0495848812038
 30
0.0
 10
633.474741559064
 20
428.0364636735234
 30
0.0
 10
633.5768895155002
 20
428.0298341862747
 30
0.0
 10
633.5768895155002
 20
428.0231212497674
 30
0.0
  0
LINE
  5
15E
330
1F
100
AcDbEntity
  8
0
  6
Continuous
 62
     7
370
    15
100
AcDbLine
 10
633.5768895944
 20
422.0823231104
 30
0.0
 11
633.5768895944
 21
428.0231217804
 31
0.0
  0
LINE
  5
15F
330
1F
100
AcDbEntity
  8
0
  6
Continuous
 62
     7
370
    15
100
AcDbLine
 10
447.0167803367
 20
423.9866170051
 30
0.0
 11
447.0167803367
 21
408.0233159425
 31
0.0
  0
LINE
  5
160
330
1F
100
AcDbEntity
  8
0
  6
Continuous
 62
     7
370
    15
100
AcDbLine
 10
447.0167803367
 20
424.0233148399
 30
0.0
 11
447.0167803367
 21
423.9866170051
 31
0.0
  0
LINE
  5
161
330
1F
100
AcDbEntity
  8
0
  6
Continuous
 62
     7
370
    15
100
AcDbLine
 10
777.0167934497
 20
423.9866170051
 30
0.0
 11
777.0167934497
 21
408.0233159425
 31
0.0
  0
LINE
  5
162
330
1F
100
AcDbEntity
  8
0
  6
Continuous
 62
     7
370
    15
100
AcDbLine
 10
777.0167934497
 20
424.0233148399
 30
0.0
 11
777.0167934497
 21
423.9866170051
 31
0.0
  0
LINE
  5
163
330
1F
100
AcDbEntity
  8
0
  6
Continuous
 62
     7
370
    15
100
AcDbLine
 10
777.0167934497
 20
526.5538017216
 30
0.0
 11
777.0167934497
 21
510.553799099
 31
0.0
  0
LINE
  5
164
330
1F
100
AcDbEntity
  8
0
  6
Continuous
 62
     7
370
    15
100
AcDbLine
 10
447.0167803367
 20
526.5538017216
 30
0.0
 11
447.0167803367
 21
510.553799099
 31
0.0
  0
SPLINE
  5
165
330
1F
100
AcDbEntity
  8
0
  6
Continuous
 62
     7
370
    15
100
AcDbSpline
210
0.0
220
0.0
230
1.0
 70
     8
 71
     3
 72
    10
 73
     6
 74
     0
 42
0.00000001
 43
0.00000001
 12
1.0
 22
0.0
 32
0.0
 13
1.0
 23
0.0
 33
0.0
 40
0.0
 40
0.0
 40
0.0
 40
0.0
 40
0.5
 40
0.5
 40
1.0
 40
1.0
 40
1.0
 40
1.0
 10
545.9449892924066
 20
403.9841073626313
 30
0.0
 10
546.272163053518
 20
403.9905530161823
 30
0.0
 10
546.5417055974365
 20
403.9970457512659
 30
0.0
 10
546.9146381056947
 20
404.0101669589462
 30
0.0
 10
547.0167860621309
 20
404.016796446195
 30
0.0
 10
547.0167860621309
 20
404.0235093827023
 30
0.0
  0
LINE
  5
166
330
1F
100
AcDbEntity
  8
0
  6
Continuous
 62
     7
370
    15
100
AcDbLine
 10
545.9449897309
 20
403.9841066065
 30
0.0
 11
533.0167869826
 21
403.9841066065
 31
0.0
  0
SPLINE
  5
167
330
1F
100
AcDbEntity
  8
0
  6
Continuous
 62
     7
370
    15
100
AcDbSpline
210
0.0
220
0.0
230
1.0
 70
     8
 71
     3
 72
    10
 73
     6
 74
     0
 42
0.00000001
 43
0.00000001
 12
1.0
 22
0.0
 32
0.0
 13
1.0
 23
0.0
 33
0.0
 40
0.0
 40
0.0
 40
0.0
 40
0.0
 40
0.5
 40
0.5
 40
1.0
 40
1.0
 40
1.0
 40
1.0
 10
632.505092745776
 20
403.9841073626313
 30
0.0
 10
632.8322665068875
 20
403.9905530161823
 30
0.0
 10
633.1018090508057
 20
403.9970457512659
 30
0.0
 10
633.474741559064
 20
404.0101669589462
 30
0.0
 10
633.5768895155002
 20
404.016796446195
 30
0.0
 10
633.5768895155002
 20
404.0235093827023
 30
0.0
  0
LINE
  5
168
330
1F
100
AcDbEntity
  8
0
  6
Continuous
 62
     7
370
    15
100
AcDbLine
 10
632.5050937732
 20
403.9841066065
 30
0.0
 11
619.5768891623
 21
403.9841066065
 31
0.0
  0
SPLINE
  5
169
330
1F
100
AcDbEntity
  8
0
  6
Continuous
 62
     7
370
    15
100
AcDbSpline
210
0.0
220
0.0
230
1.0
 70
     8
 71
     3
 72
    10
 73
     6
 74
     0
 42
0.00000001
 43
0.00000001
 12
1.0
 22
0.0
 32
0.0
 13
1.0
 23
0.0
 33
0.0
 40
0.0
 40
0.0
 40
0.0
 40
0.0
 40
0.5
 40
0.5
 40
1.0
 40
1.0
 40
1.0
 40
1.0
 10
726.9449892924066
 20
403.9841073626313
 30
0.0
 10
727.2721630535182
 20
403.9905530161823
 30
0.0
 10
727.5417055974365
 20
403.9970457512659
 30
0.0
 10
727.9146381056947
 20
404.0101669589462
 30
0.0
 10
728.0167860621308
 20
404.016796446195
 30
0.0
 10
728.0167860621308
 20
404.0235093827023
 30
0.0
  0
LINE
  5
16A
330
1F
100
AcDbEntity
  8
0
  6
Continuous
 62
     7
370
    15
100
AcDbLine
 10
726.9449877342
 20
403.9841066065
 30
0.0
 11
714.0167849859
 21
403.9841066065
 31
0.0
  0
LINE
  5
16B
330
1F
100
AcDbEntity
  8
0
  6
Continuous
 62
     7
370
    15
100
AcDbLine
 10
726.9696044525
 20
504.7425064209
 30
0.0
 11
726.9449877342
 21
504.6976166728
 31
0.0
  0
LINE
  5
16C
330
1F
100
AcDbEntity
  8
0
  6
Continuous
 62
     7
370
    15
100
AcDbLine
 10
728.0167835554
 20
506.5537984433
 30
0.0
 11
728.0167835554
 21
508.1957834723
 31
0.0
  0
LINE
  5
16D
330
1F
100
AcDbEntity
  8
0
  6
Continuous
 62
     7
370
    15
100
AcDbLine
 10
545.9696027239
 20
504.7425064209
 30
0.0
 11
545.9449897309
 21
504.6976166728
 31
0.0
  0
LINE
  5
16E
330
1F
100
AcDbEntity
  8
0
  6
Continuous
 62
     7
370
    15
100
AcDbLine
 10
547.0167855521
 20
506.5537984433
 30
0.0
 11
547.0167855521
 21
508.1957834723
 31
0.0
  0
LINE
  5
16F
330
1F
100
AcDbEntity
  8
0
  6
Continuous
 62
     7
370
    15
100
AcDbLine
 10
632.5297067662
 20
504.7425064209
 30
0.0
 11
632.5050937732
 21
504.6976166728
 31
0.0
  0
LINE
  5
170
330
1F
100
AcDbEntity
  8
0
  6
Continuous
 62
     7
370
    15
100
AcDbLine
 10
633.5768895944
 20
506.5537984433
 30
0.0
 11
633.5768895944
 21
508.1957834723
 31
0.0
  0
LINE
  5
171
330
1F
100
AcDbEntity
  8
0
  6
Continuous
 62
     7
370
    15
100
AcDbLine
 10
677.0167845091
 20
428.0233154955
 30
0.0
 11
677.0167845091
 21
426.4156199011
 31
0.0
  0
LINE
  5
172
330
1F
100
AcDbEntity
  8
0
  6
Continuous
 62
     7
370
    15
100
AcDbLine
 10
496.0167827805
 20
428.0233154955
 30
0.0
 11
496.0167827805
 21
426.4156199011
 31
0.0
  0
LINE
  5
173
330
1F
100
AcDbEntity
  8
0
  6
Continuous
 62
     7
370
    15
100
AcDbLine
 10
496.0167827805
 20
405.6310090187
 30
0.0
 11
496.0167827805
 21
404.0233152869
 31
0.0
  0
LINE
  5
174
330
1F
100
AcDbEntity
  8
0
  6
Continuous
 62
     7
370
    15
100
AcDbLine
 10
677.0167845091
 20
405.6310090187
 30
0.0
 11
677.0167845091
 21
404.0233152869
 31
0.0
  0
LINE
  5
175
330
1F
100
AcDbEntity
  8
0
  6
Continuous
 62
     7
370
    15
100
AcDbLine
 10
728.0167835554
 20
528.9800609412
 30
0.0
 11
728.0167835554
 21
530.5537949267
 31
0.0
  0
LINE
  5
176
330
1F
100
AcDbEntity
  8
0
  6
Continuous
 62
     7
370
    15
100
AcDbLine
 10
633.5768895944
 20
528.9800609412
 30
0.0
 11
633.5768895944
 21
530.5537949267
 31
0.0
  0
LINE
  5
177
330
1F
100
AcDbEntity
  8
0
  6
Continuous
 62
     7
370
    15
100
AcDbLine
 10
547.0167855521
 20
528.9800609412
 30
0.0
 11
547.0167855521
 21
530.5537949267
 31
0.0
  0
LINE
  5
178
330
1F
100
AcDbEntity
  8
0
  6
Continuous
 62
     7
370
    15
100
AcDbLine
 10
580.8350882282
 20
424.0233148399
 30
0.0
 11
580.8350882282
 21
510.553799099
 31
0.0
  0
SPLINE
  5
179
330
1F
100
AcDbEntity
  8
0
  6
Continuous
 62
     7
370
    15
100
AcDbSpline
210
0.0
220
0.0
230
1.0
 70
     8
 71
     3
 72
    11
 73
     7
 74
     0
 42
0.00000001
 43
0.00000001
 12
1.0
 22
0.0
 32
0.0
 13
1.0
 23
0.0
 33
0.0
 40
0.0
 40
0.0
 40
0.0
 40
0.0
 40
0.2423487509072553
 40
0.4848814475009508
 40
0.8328738746038221
 40
1.0
 40
1.0
 40
1.0
 40
1.0
 10
545.944989730944
 20
402.1671335163328
 30
0.0
 10
546.0265932931643
 20
402.3136355802654
 30
0.0
 10
546.1898623557134
 20
402.6067509050013
 30
0.0
 10
546.4332970553321
 20
403.1150709450161
 30
0.0
 10
546.6316316211938
 20
403.5805590835972
 30
0.0
 10
546.7227863071708
 20
403.900758102082
 30
0.0
 10
546.7523607214588
 20
404.00464413192
 30
0.0
  0
LINE
  5
17A
330
1F
100
AcDbEntity
  8
0
  6
Continuous
 62
     7
370
    15
100
AcDbLine
 10
545.9449897309
 20
402.1671335163
 30
0.0
 11
533.0167869826
 21
402.1671335163
 31
0.0
  0
SPLINE
  5
17B
330
1F
100
AcDbEntity
  8
0
  6
Continuous
 62
     7
370
    15
100
AcDbSpline
210
0.0
220
0.0
230
1.0
 70
     8
 71
     3
 72
    11
 73
     7
 74
     0
 42
0.00000001
 43
0.00000001
 12
1.0
 22
0.0
 32
0.0
 13
1.0
 23
0.0
 33
0.0
 40
0.0
 40
0.0
 40
0.0
 40
0.0
 40
0.2423489816581736
 40
0.484881169960766
 40
0.832873748370987
 40
1.0
 40
1.0
 40
1.0
 40
1.0
 10
726.9449877341884
 20
402.1671335163328
 30
0.0
 10
727.0265936423073
 20
402.313635438891
 30
0.0
 10
727.1898671495181
 20
402.6067500339082
 30
0.0
 10
727.4332869230606
 20
403.1150719358961
 30
0.0
 10
727.631628472679
 20
403.580559100297
 30
0.0
 10
727.7227868361636
 20
403.9007580891891
 30
0.0
 10
727.7523624499935
 20
404.00464413192
 30
0.0
  0
LINE
  5
17C
330
1F
100
AcDbEntity
  8
0
  6
Continuous
 62
     7
370
    15
100
AcDbLine
 10
726.9449877342
 20
402.1671335163
 30
0.0
 11
714.0167849859
 21
402.1671335163
 31
0.0
  0
SPLINE
  5
17D
330
1F
100
AcDbEntity
  8
0
  6
Continuous
 62
     7
370
    15
100
AcDbSpline
210
0.0
220
0.0
230
1.0
 70
     8
 71
     3
 72
    11
 73
     7
 74
     0
 42
0.00000001
 43
0.00000001
 12
1.0
 22
0.0
 32
0.0
 13
1.0
 23
0.0
 33
0.0
 40
0.0
 40
0.0
 40
0.0
 40
0.0
 40
0.2423484930507468
 40
0.4848814335217771
 40
0.8328738700683901
 40
0.9999999999999999
 40
0.9999999999999999
 40
0.9999999999999999
 40
0.9999999999999999
 10
632.5050937732357
 20
402.1671335163328
 30
0.0
 10
632.5866954028039
 20
402.3136356702678
 30
0.0
 10
632.7499607675877
 20
402.6067514784984
 30
0.0
 10
632.9934032962708
 20
403.1150705143504
 30
0.0
 10
633.1917353863672
 20
403.5805591185164
 30
0.0
 10
633.2828902815781
 20
403.900758110636
 30
0.0
 10
633.3124647637504
 20
404.00464413192
 30
0.0
  0
LINE
  5
17E
330
1F
100
AcDbEntity
  8
0
  6
Continuous
 62
     7
370
    15
100
AcDbLine
 10
632.5050937732
 20
402.1671335163
 30
0.0
 11
619.5768891623
 21
402.1671335163
 31
0.0
  0
SPLINE
  5
17F
330
1F
100
AcDbEntity
  8
0
  6
Continuous
 62
     7
370
    15
100
AcDbSpline
210
0.0
220
0.0
230
1.0
 70
     8
 71
     3
 72
    11
 73
     7
 74
     0
 42
0.00000001
 43
0.00000001
 12
1.0
 22
0.0
 32
0.0
 13
1.0
 23
0.0
 33
0.0
 40
0.0
 40
0.0
 40
0.0
 40
0.0
 40
0.1328524260392948
 40
0.4218384055756726
 40
0.7109559979910006
 40
1.0
 40
1.0
 40
1.0
 40
1.0
 10
496.2674873670239
 20
506.5537984433386
 30
0.0
 10
496.2910583608669
 20
506.470354962838
 30
0.0
 10
496.3659019354785
 20
506.2054018429027
 30
0.0
 10
496.5445893384928
 20
505.7631334217896
 30
0.0
 10
496.792338606196
 20
505.2271803428978
 30
0.0
 10
496.9898452833685
 20
504.8739738987585
 30
0.0
 10
497.0885860522885
 20
504.6973931553575
 30
0.0
  0
LINE
  5
180
330
1F
100
AcDbEntity
  8
0
  6
Continuous
 62
     7
370
    15
100
AcDbLine
 10
497.0885860523
 20
504.6973931554
 30
0.0
 11
510.0167888006
 21
504.6973931554
 31
0.0
  0
SPLINE
  5
181
330
1F
100
AcDbEntity
  8
0
  6
Continuous
 62
     7
370
    15
100
AcDbSpline
210
0.0
220
0.0
230
1.0
 70
     8
 71
     3
 72
    11
 73
     7
 74
     0
 42
0.00000001
 43
0.00000001
 12
1.0
 22
0.0
 32
0.0
 13
1.0
 23
0.0
 33
0.0
 40
0.0
 40
0.0
 40
0.0
 40
0.0
 40
0.3051700362329106
 40
0.6104272479709161
 40
0.9155247119894859
 40
1.0
 40
1.0
 40
1.0
 40
1.0
 10
678.0885803302425
 20
532.4102039399359
 30
0.0
 10
677.9844317185236
 20
532.2237479127836
 30
0.0
 10
677.7761047437776
 20
531.8507825950641
 30
0.0
 10
677.5193530315479
 20
531.2843910824828
 30
0.0
 10
677.346175307009
 20
530.8518984244948
 30
0.0
 10
677.281321156831
 20
530.6069169242453
 30
0.0
 10
677.26725812756
 20
530.5537949266645
 30
0.0
  0
LINE
  5
182
330
1F
100
AcDbEntity
  8
0
  6
Continuous
 62
     7
370
    15
100
AcDbLine
 10
678.0885803302
 20
532.4102039399
 30
0.0
 11
691.0167830785
 21
532.4102039399
 31
0.0
  0
SPLINE
  5
183
330
1F
100
AcDbEntity
  8
0
  6
Continuous
 62
     7
370
    15
100
AcDbSpline
210
0.0
220
0.0
230
1.0
 70
     8
 71
     3
 72
    11
 73
     7
 74
     0
 42
0.00000001
 43
0.00000001
 12
1.0
 22
0.0
 32
0.0
 13
1.0
 23
0.0
 33
0.0
 40
0.0
 40
0.0
 40
0.0
 40
0.0
 40
0.3051703913485794
 40
0.6104274470748632
 40
0.9155247551633557
 40
0.9999999999999999
 40
0.9999999999999999
 40
0.9999999999999999
 40
0.9999999999999999
 10
497.0885860522885
 20
532.4102039399359
 30
0.0
 10
496.9844343278937
 20
532.223747997782
 30
0.0
 10
496.7761013013843
 20
531.8507831624386
 30
0.0
 10
496.5193518174633
 20
531.2843910129014
 30
0.0
 10
496.3461735495934
 20
530.8518984284012
 30
0.0
 10
496.2813194231498
 20
530.6069169249414
 30
0.0
 10
496.2672563990254
 20
530.5537949266645
 30
0.0
  0
LINE
  5
184
330
1F
100
AcDbEntity
  8
0
  6
Continuous
 62
     7
370
    15
100
AcDbLine
 10
497.0885860523
 20
532.4102039399
 30
0.0
 11
510.0167888006
 21
532.4102039399
 31
0.0
  0
SPLINE
  5
185
330
1F
100
AcDbEntity
  8
0
  6
Continuous
 62
     7
370
    15
100
AcDbSpline
210
0.0
220
0.0
230
1.0
 70
     8
 71
     3
 72
    11
 73
     7
 74
     0
 42
0.00000001
 43
0.00000001
 12
1.0
 22
0.0
 32
0.0
 13
1.0
 23
0.0
 33
0.0
 40
0.0
 40
0.0
 40
0.0
 40
0.0
 40
0.1328480524812635
 40
0.4218354104621152
 40
0.7109544007223123
 40
0.9999999999999999
 40
0.9999999999999999
 40
0.9999999999999999
 40
0.9999999999999999
 10
727.766086419453
 20
428.0414166810724
 30
0.0
 10
727.7425152004326
 20
428.124033445336
 30
0.0
 10
727.6676689782649
 20
428.3863683159891
 30
0.0
 10
727.4889850115273
 20
428.8242740108257
 30
0.0
 10
727.2412349283935
 20
429.3549354647636
 30
0.0
 10
727.0437284419058
 20
429.7046581299884
 30
0.0
 10
726.9449877341884
 20
429.8794972660753
 30
0.0
  0
LINE
  5
186
330
1F
100
AcDbEntity
  8
0
  6
Continuous
 62
     7
370
    15
100
AcDbLine
 10
726.9449877342
 20
429.8794972661
 30
0.0
 11
714.0167849859
 21
429.8794972661
 31
0.0
  0
LINE
  5
187
330
1F
100
AcDbEntity
  8
0
  6
Continuous
 62
     7
370
    15
100
AcDbLine
 10
545.9696027239
 20
402.2120232644
 30
0.0
 11
545.9449897309
 21
402.1671335163
 31
0.0
  0
LINE
  5
188
330
1F
100
AcDbEntity
  8
0
  6
Continuous
 62
     7
370
    15
100
AcDbLine
 10
726.9696044525
 20
402.2120232644
 30
0.0
 11
726.9449877342
 21
402.1671335163
 31
0.0
  0
LINE
  5
189
330
1F
100
AcDbEntity
  8
0
  6
Continuous
 62
     7
370
    15
100
AcDbLine
 10
632.5297067662
 20
402.2120232644
 30
0.0
 11
632.5050937732
 21
402.1671335163
 31
0.0
  0
LINE
  5
18A
330
1F
100
AcDbEntity
  8
0
  6
Continuous
 62
     8
370
    15
100
AcDbLine
 10
587.7186526334
 20
424.0233148399
 30
0.0
 11
587.7186526334
 21
510.553799099
 31
0.0
  0
LINE
  5
18B
330
1F
100
AcDbEntity
  8
0
  6
Continuous
 62
     8
370
    15
100
AcDbLine
 10
590.5363168415
 20
424.0233148399
 30
0.0
 11
590.5363168415
 21
510.553799099
 31
0.0
  0
LINE
  5
18C
330
1F
100
AcDbEntity
  8
0
  6
Continuous
 62
     8
370
    15
100
AcDbLine
 10
591.302361295
 20
424.0233148399
 30
0.0
 11
591.302361295
 21
510.553799099
 31
0.0
  0
LINE
  5
18D
330
1F
100
AcDbEntity
  8
FORMAT
  6
CENTERX2
370
     0
100
AcDbLine
 10
502.2594149183
 20
467.2885569523
 30
0.0
 11
718.8595893437
 21
467.2885569523
 31
0.0
  0
CIRCLE
  5
18E
330
1F
100
AcDbEntity
  8
0
  6
Continuous
 62
     7
370
    15
100
AcDbCircle
 10
269.6187216807
 20
518.5537985883
 30
0.0
 40
7.999999999999949
  0
CIRCLE
  5
18F
330
1F
100
AcDbEntity
  8
0
  6
Continuous
 62
     7
370
    15
100
AcDbCircle
 10
269.6187216807
 20
416.0233153162
 30
0.0
 40
7.99999999999996
  0
CIRCLE
  5
190
330
1F
100
AcDbEntity
  8
0
  6
Continuous
 62
     7
370
    15
100
AcDbCircle
 10
167.0882384086
 20
416.0233153162
 30
0.0
 40
7.99999999999996
  0
CIRCLE
  5
191
330
1F
100
AcDbEntity
  8
0
  6
Continuous
 62
     7
370
    15
100
AcDbCircle
 10
167.0882384087
 20
518.5537985883
 30
0.0
 40
8.0
  0
SPLINE
  5
192
330
1F
100
AcDbEntity
  8
0
  6
Continuous
 62
     7
370
    15
100
AcDbSpline
210
0.0
220
0.0
230
1.0
 70
    24
 71
     3
 72
    10
 73
     6
 74
     0
 42
0.00000001
 43
0.00000001
 12
1.0
 22
0.0
 32
0.0
 13
1.0
 23
0.0
 33
0.0
 40
0.0
 40
0.0
 40
0.0
 40
0.0
 40
0.5
 40
0.5
 40
1.0
 40
1.0
 40
1.0
 40
1.0
 10
281.6579296342939
 20
422.8831602014859
 30
0.0
 10
281.6514839807429
 20
421.7498153761707
 30
0.0
 10
281.6449912456593
 20
420.6081921643523
 30
0.0
 10
281.631870037979
 20
418.301078896681
 30
0.0
 10
281.6252405507302
 20
417.1354104336737
 30
0.0
 10
281.6185276142229
 20
415.9550690155375
 30
0.0
  0
ARC
  5
193
330
1F
100
AcDbEntity
  8
0
  6
Continuous
 62
     7
370
    15
100
AcDbCircle
 10
269.6187216807
 20
416.0233153162
 30
0.0
 40
12.00000000000002
100
AcDbArc
 50
359.6741461604
 51
59.6741461604
  0
SPLINE
  5
194
330
1F
100
AcDbEntity
  8
0
  6
Continuous
 62
     7
370
    15
100
AcDbSpline
210
0.0
220
0.0
230
1.0
 70
    24
 71
     3
 72
    10
 73
     6
 74
     0
 42
0.00000001
 43
0.00000001
 12
1.0
 22
0.0
 32
0.0
 13
1.0
 23
0.0
 33
0.0
 40
0.0
 40
0.0
 40
0.0
 40
0.0
 40
0.5000000000000003
 40
0.5000000000000003
 40
1.0
 40
1.0
 40
1.0
 40
1.0
 10
281.6579296342939
 20
422.8831602014858
 30
0.0
 10
280.6852982354225
 20
423.4521090067131
 30
0.0
 10
279.6891328770346
 20
424.0348241967853
 30
0.0
 10
277.6922920731619
 20
425.2028927897905
 30
0.0
 10
276.6882834597978
 20
425.7901959569248
 30
0.0
 10
275.6777276775631
 20
426.3813289448019
 30
0.0
  0
ARC
  5
195
330
1F
100
AcDbEntity
  8
0
  6
Continuous
 62
     7
370
    15
100
AcDbCircle
 10
269.6187216807
 20
416.0233153162
 30
0.0
 40
12.00000000000005
100
AcDbArc
 50
299.6741461604
 51
359.6741461604
  0
ARC
  5
196
330
1F
100
AcDbEntity
  8
0
  6
Continuous
 62
     7
370
    15
100
AcDbCircle
 10
269.6187216807
 20
416.0233153162
 30
0.0
 40
12.00000000000005
100
AcDbArc
 50
239.6741461604
 51
299.6741461604
  0
ARC
  5
197
330
1F
100
AcDbEntity
  8
0
  6
Continuous
 62
     7
370
    15
100
AcDbCircle
 10
269.6187216807
 20
416.0233153162
 30
0.0
 40
11.99999999999997
100
AcDbArc
 50
179.6741461604
 51
239.6741461604
  0
ARC
  5
198
330
1F
100
AcDbEntity
  8
0
  6
Continuous
 62
     7
370
    15
100
AcDbCircle
 10
269.6187216807
 20
416.0233153162
 30
0.0
 40
11.99999999999999
100
AcDbArc
 50
119.6741461604
 51
179.6741461604
  0
ARC
  5
199
330
1F
100
AcDbEntity
  8
0
  6
Continuous
 62
     7
370
    15
100
AcDbCircle
 10
269.6187216807
 20
416.0233153162
 30
0.0
 40
12.0
100
AcDbArc
 50
59.6741461604
 51
119.6741461604
  0
SPLINE
  5
19A
330
1F
100
AcDbEntity
  8
0
  6
Continuous
 62
     7
370
    15
100
AcDbSpline
210
0.0
220
0.0
230
1.0
 70
    24
 71
     3
 72
    12
 73
     8
 74
     0
 42
0.00000001
 43
0.00000001
 12
1.0
 22
0.0
 32
0.0
 13
1.0
 23
0.0
 33
0.0
 40
0.0
 40
0.0
 40
0.0
 40
0.0
 40
0.2500000000000004
 40
0.2500000000000004
 40
0.5000000000000009
 40
0.5000000000000009
 40
1.0
 40
1.0
 40
1.0
 40
1.0
 10
279.9767353092847
 20
512.4947925914053
 30
0.0
 10
279.6809932088687
 20
511.9892144968737
 30
0.0
 10
279.384303809076
 20
511.4820169717196
 30
0.0
 10
278.7890548627542
 20
510.4644248614655
 30
0.0
 10
278.4936069963576
 20
509.9593497669287
 30
0.0
 10
277.617254854268
 20
508.461205114838
 30
0.0
 10
277.0442009492548
 20
507.4815559510807
 30
0.0
 10
276.4785665659687
 20
506.5145906346745
 30
0.0
  0
SPLINE
  5
19B
330
1F
100
AcDbEntity
  8
0
  6
Continuous
 62
     7
370
    15
100
AcDbSpline
210
0.0
220
0.0
230
1.0
 70
    24
 71
     3
 72
    10
 73
     6
 74
     0
 42
0.00000001
 43
0.00000001
 12
1.0
 22
0.0
 32
0.0
 13
1.0
 23
0.0
 33
0.0
 40
0.0
 40
0.0
 40
0.0
 40
0.0
 40
0.5
 40
0.5
 40
1.0
 40
1.0
 40
1.0
 40
1.0
 10
276.4785665659687
 20
506.5145906346745
 30
0.0
 10
275.3452217406535
 20
506.5210362882256
 30
0.0
 10
274.2035985288351
 20
506.5275290233092
 30
0.0
 10
271.8964852611638
 20
506.5406502309895
 30
0.0
 10
270.7308167981565
 20
506.5472797182383
 30
0.0
 10
269.5504753800203
 20
506.5539926547456
 30
0.0
  0
ARC
  5
19C
330
1F
100
AcDbEntity
  8
0
  6
Continuous
 62
     7
370
    15
100
AcDbCircle
 10
269.6187216807
 20
518.5537985883
 30
0.0
 40
12.00000000000002
100
AcDbArc
 50
269.6741461604
 51
329.6741461604
  0
SPLINE
  5
19D
330
1F
100
AcDbEntity
  8
0
  6
Continuous
 62
     7
370
    15
100
AcDbSpline
210
0.0
220
0.0
230
1.0
 70
    24
 71
     3
 72
    12
 73
     8
 74
     0
 42
0.00000001
 43
0.00000001
 12
1.0
 22
0.0
 32
0.0
 13
1.0
 23
0.0
 33
0.0
 40
0.0
 40
0.0
 40
0.0
 40
0.0
 40
0.2500000000000007
 40
0.2500000000000007
 40
0.5000000000000014
 40
0.5000000000000014
 40
1.0
 40
1.0
 40
1.0
 40
1.0
 10
281.6185276142229
 20
415.9550690155375
 30
0.0
 10
281.6151836964152
 20
415.3671050621917
 30
0.0
 10
281.6118247761438
 20
414.7765032127444
 30
0.0
 10
281.6051801321867
 20
413.6081697326322
 30
0.0
 10
281.601880033831
 20
413.0279105913552
 30
0.0
 10
281.5920383512389
 20
411.2974390495823
 30
0.0
 10
281.5855551514157
 20
410.1574924308405
 30
0.0
 10
281.5791255941519
 20
409.0269778295893
 30
0.0
  0
SPLINE
  5
19E
330
1F
100
AcDbEntity
  8
0
  6
Continuous
 62
     7
370
    15
100
AcDbSpline
210
0.0
220
0.0
230
1.0
 70
    24
 71
     3
 72
    10
 73
     6
 74
     0
 42
0.00000001
 43
0.00000001
 12
1.0
 22
0.0
 32
0.0
 13
1.0
 23
0.0
 33
0.0
 40
0.0
 40
0.0
 40
0.0
 40
0.0
 40
0.5
 40
0.5
 40
1.0
 40
1.0
 40
1.0
 40
1.0
 10
281.579125594152
 20
409.0269778295893
 30
0.0
 10
280.5943973574059
 20
408.4658875166509
 30
0.0
 10
279.6024762868794
 20
407.9006987842641
 30
0.0
 10
277.5978969838278
 20
406.758505449608
 30
0.0
 10
276.5850837388487
 20
406.1814125224758
 30
0.0
 10
275.5595216173502
 20
405.597055386957
 30
0.0
  0
ARC
  5
19F
330
1F
100
AcDbEntity
  8
0
  6
Continuous
 62
     7
370
    15
100
AcDbCircle
 10
269.6187216807
 20
518.5537985883
 30
0.0
 40
12.00000000000002
100
AcDbArc
 50
29.6741461604
 51
89.6741461604
  0
ARC
  5
1A0
330
1F
100
AcDbEntity
  8
0
  6
Continuous
 62
     7
370
    15
100
AcDbCircle
 10
269.6187216807
 20
518.5537985883
 30
0.0
 40
12.00000000000001
100
AcDbArc
 50
329.6741461604
 51
29.6741461604
  0
ARC
  5
1A1
330
1F
100
AcDbEntity
  8
0
  6
Continuous
 62
     7
370
    15
100
AcDbCircle
 10
269.6187216807
 20
518.5537985883
 30
0.0
 40
12.00000000000002
100
AcDbArc
 50
209.6741461604
 51
269.6741461604
  0
ARC
  5
1A2
330
1F
100
AcDbEntity
  8
0
  6
Continuous
 62
     7
370
    15
100
AcDbCircle
 10
269.6187216807
 20
518.5537985883
 30
0.0
 40
12.00000000000001
100
AcDbArc
 50
149.6741461604
 51
209.6741461604
  0
ARC
  5
1A3
330
1F
100
AcDbEntity
  8
0
  6
Continuous
 62
     7
370
    15
100
AcDbCircle
 10
269.6187216807
 20
518.5537985883
 30
0.0
 40
12.00000000000002
100
AcDbArc
 50
89.6741461604
 51
149.6741461604
  0
SPLINE
  5
1A4
330
1F
100
AcDbEntity
  8
0
  6
Continuous
 62
     7
370
    15
100
AcDbSpline
210
0.0
220
0.0
230
1.0
 70
    24
 71
     3
 72
    12
 73
     8
 74
     0
 42
0.00000001
 43
0.00000001
 12
1.0
 22
0.0
 32
0.0
 13
1.0
 23
0.0
 33
0.0
 40
0.0
 40
0.0
 40
0.0
 40
0.0
 40
0.2499999999999997
 40
0.2499999999999997
 40
0.4999999999999993
 40
0.4999999999999993
 40
1.0
 40
1.0
 40
1.0
 40
1.0
 10
280.0449816099687
 20
524.4945985249378
 30
0.0
 10
280.3360676688718
 20
523.983734845927
 30
0.0
 10
280.6284596833112
 20
523.4705791806479
 30
0.0
 10
281.2068719929014
 20
522.4554503848002
 30
0.0
 10
281.4941435945289
 20
521.9512811784984
 30
0.0
 10
282.3508562182745
 20
520.447728021501
 30
0.0
 10
282.9152149119008
 20
519.4572636908008
 30
0.0
 10
283.4749040526008
 20
518.474994548136
 30
0.0
  0
SPLINE
  5
1A5
330
1F
100
AcDbEntity
  8
0
  6
Continuous
 62
     7
370
    15
100
AcDbSpline
210
0.0
220
0.0
230
1.0
 70
    24
 71
     3
 72
    10
 73
     6
 74
     0
 42
0.00000001
 43
0.00000001
 12
1.0
 22
0.0
 32
0.0
 13
1.0
 23
0.0
 33
0.0
 40
0.0
 40
0.0
 40
0.0
 40
0.0
 40
0.5
 40
0.5
 40
1.0
 40
1.0
 40
1.0
 40
1.0
 10
283.4749040526008
 20
518.474994548136
 30
0.0
 10
282.9059552473735
 20
517.5023631492646
 30
0.0
 10
282.3232400573013
 20
516.5061977908767
 30
0.0
 10
281.1551714642961
 20
514.509356987004
 30
0.0
 10
280.5678682971619
 20
513.5053483736399
 30
0.0
 10
279.9767353092847
 20
512.4947925914053
 30
0.0
  0
SPLINE
  5
1A6
330
1F
100
AcDbEntity
  8
0
  6
Continuous
 62
     7
370
    15
100
AcDbSpline
210
0.0
220
0.0
230
1.0
 70
    24
 71
     3
 72
    10
 73
     6
 74
     0
 42
0.00000001
 43
0.00000001
 12
1.0
 22
0.0
 32
0.0
 13
1.0
 23
0.0
 33
0.0
 40
0.0
 40
0.0
 40
0.0
 40
0.0
 40
0.5
 40
0.5
 40
1.0
 40
1.0
 40
1.0
 40
1.0
 10
276.6150591673364
 20
530.5142025017396
 30
0.0
 10
277.1761494802748
 20
529.5294742649936
 30
0.0
 10
277.7413382126616
 20
528.537553194467
 30
0.0
 10
278.8835315473177
 20
526.5329738914155
 30
0.0
 10
279.4606244744498
 20
525.5201606464364
 30
0.0
 10
280.0449816099687
 20
524.4945985249378
 30
0.0
  0
SPLINE
  5
1A7
330
1F
100
AcDbEntity
  8
0
  6
Continuous
 62
     7
370
    15
100
AcDbSpline
210
0.0
220
0.0
230
1.0
 70
    24
 71
     3
 72
    12
 73
     8
 74
     0
 42
0.00000001
 43
0.00000001
 12
1.0
 22
0.0
 32
0.0
 13
1.0
 23
0.0
 33
0.0
 40
0.0
 40
0.0
 40
0.0
 40
0.0
 40
0.2499999999999997
 40
0.2499999999999997
 40
0.4999999999999993
 40
0.4999999999999993
 40
1.0
 40
1.0
 40
1.0
 40
1.0
 10
269.6869679813882
 20
530.5536045218107
 30
0.0
 10
270.274931934734
 20
530.5502606040029
 30
0.0
 10
270.8655337841813
 20
530.5469016837317
 30
0.0
 10
272.0338672642935
 20
530.5402570397745
 30
0.0
 10
272.6141264055705
 20
530.5369569414188
 30
0.0
 10
274.3445979473435
 20
530.5271152588267
 30
0.0
 10
275.4845445660852
 20
530.5206320590034
 30
0.0
 10
276.6150591673365
 20
530.5142025017396
 30
0.0
  0
SPLINE
  5
1A8
330
1F
100
AcDbEntity
  8
0
  6
Continuous
 62
     7
370
    15
100
AcDbSpline
210
0.0
220
0.0
230
1.0
 70
    24
 71
     3
 72
    10
 73
     6
 74
     0
 42
0.00000001
 43
0.00000001
 12
1.0
 22
0.0
 32
0.0
 13
1.0
 23
0.0
 33
0.0
 40
0.0
 40
0.0
 40
0.0
 40
0.0
 40
0.5
 40
0.5
 40
1.0
 40
1.0
 40
1.0
 40
1.0
 10
269.5399176405484
 20
402.1671329443247
 30
0.0
 10
268.567286241677
 20
402.736081749552
 30
0.0
 10
267.5711208832891
 20
403.3187969396242
 30
0.0
 10
265.5742800794164
 20
404.4868655326295
 30
0.0
 10
264.5702714660523
 20
405.0741686997637
 30
0.0
 10
263.5597156838176
 20
405.6653016876408
 30
0.0
  0
SPLINE
  5
1A9
330
1F
100
AcDbEntity
  8
0
  6
Continuous
 62
     7
370
    15
100
AcDbSpline
210
0.0
220
0.0
230
1.0
 70
    24
 71
     3
 72
    12
 73
     8
 74
     0
 42
0.00000001
 43
0.00000001
 12
1.0
 22
0.0
 32
0.0
 13
1.0
 23
0.0
 33
0.0
 40
0.0
 40
0.0
 40
0.0
 40
0.0
 40
0.2499999999999997
 40
0.2499999999999997
 40
0.4999999999999993
 40
0.4999999999999993
 40
1.0
 40
1.0
 40
1.0
 40
1.0
 10
275.5595216173502
 20
405.597055386957
 30
0.0
 10
275.0486579383393
 20
405.3059693280538
 30
0.0
 10
274.5355022730602
 20
405.0135773136144
 30
0.0
 10
273.5203734772126
 20
404.4351650040243
 30
0.0
 10
273.0162042709107
 20
404.1478934023968
 30
0.0
 10
271.5126511139133
 20
403.291180778651
 30
0.0
 10
270.5221867832132
 20
402.7268220850249
 30
0.0
 10
269.5399176405484
 20
402.1671329443247
 30
0.0
  0
SPLINE
  5
1AA
330
1F
100
AcDbEntity
  8
0
  6
Continuous
 62
     7
370
    15
100
AcDbSpline
210
0.0
220
0.0
230
1.0
 70
    24
 71
     3
 72
    12
 73
     8
 74
     0
 42
0.00000001
 43
0.00000001
 12
1.0
 22
0.0
 32
0.0
 13
1.0
 23
0.0
 33
0.0
 40
0.0
 40
0.0
 40
0.0
 40
0.0
 40
0.25
 40
0.25
 40
0.5
 40
0.5
 40
1.0
 40
1.0
 40
1.0
 40
1.0
 10
263.6779217440306
 20
426.4495752454857
 30
0.0
 10
264.1887854230415
 20
426.7406613043888
 30
0.0
 10
264.7019410883205
 20
427.0330533188283
 30
0.0
 10
265.7170698841682
 20
427.6114656284184
 30
0.0
 10
266.22123909047
 20
427.8987372300459
 30
0.0
 10
267.7247922474675
 20
428.7554498537916
 30
0.0
 10
268.7152565781676
 20
429.3198085474178
 30
0.0
 10
269.6975257208323
 20
429.8794976881179
 30
0.0
  0
SPLINE
  5
1AB
330
1F
100
AcDbEntity
  8
0
  6
Continuous
 62
     7
370
    15
100
AcDbSpline
210
0.0
220
0.0
230
1.0
 70
    24
 71
     3
 72
    12
 73
     8
 74
     0
 42
0.00000001
 43
0.00000001
 12
1.0
 22
0.0
 32
0.0
 13
1.0
 23
0.0
 33
0.0
 40
0.0
 40
0.0
 40
0.0
 40
0.0
 40
0.250000000000001
 40
0.250000000000001
 40
0.500000000000002
 40
0.500000000000002
 40
1.0
 40
1.0
 40
1.0
 40
1.0
 10
275.6777276775631
 20
426.3813289448019
 30
0.0
 10
275.1721495830316
 20
426.6770710452179
 30
0.0
 10
274.6649520578774
 20
426.9737604450106
 30
0.0
 10
273.6473599476233
 20
427.5690093913324
 30
0.0
 10
273.1422848530865
 20
427.8644572577289
 30
0.0
 10
271.6441402009958
 20
428.7408093998185
 30
0.0
 10
270.6644910372385
 20
429.3138633048316
 30
0.0
 10
269.6975257208323
 20
429.8794976881179
 30
0.0
  0
SPLINE
  5
1AC
330
1F
100
AcDbEntity
  8
0
  6
Continuous
 62
     7
370
    15
100
AcDbSpline
210
0.0
220
0.0
230
1.0
 70
    24
 71
     3
 72
    10
 73
     6
 74
     0
 42
0.00000001
 43
0.00000001
 12
1.0
 22
0.0
 32
0.0
 13
1.0
 23
0.0
 33
0.0
 40
0.0
 40
0.0
 40
0.0
 40
0.0
 40
0.5
 40
0.5
 40
1.0
 40
1.0
 40
1.0
 40
1.0
 10
262.6223841940721
 20
506.5933946748167
 30
0.0
 10
262.0612938811337
 20
507.5781229115627
 30
0.0
 10
261.4961051487469
 20
508.5700439820893
 30
0.0
 10
260.3539118140908
 20
510.5746232851408
 30
0.0
 10
259.7768188869587
 20
511.5874365301199
 30
0.0
 10
259.1924617514399
 20
512.6129986516185
 30
0.0
  0
SPLINE
  5
1AD
330
1F
100
AcDbEntity
  8
0
  6
Continuous
 62
     7
370
    15
100
AcDbSpline
210
0.0
220
0.0
230
1.0
 70
    24
 71
     3
 72
    12
 73
     8
 74
     0
 42
0.00000001
 43
0.00000001
 12
1.0
 22
0.0
 32
0.0
 13
1.0
 23
0.0
 33
0.0
 40
0.0
 40
0.0
 40
0.0
 40
0.0
 40
0.25
 40
0.25
 40
0.5
 40
0.5
 40
1.0
 40
1.0
 40
1.0
 40
1.0
 10
269.5504753800203
 20
506.5539926547456
 30
0.0
 10
268.9625114266746
 20
506.5573365725534
 30
0.0
 10
268.3719095772273
 20
506.5606954928247
 30
0.0
 10
267.203576097115
 20
506.5673401367819
 30
0.0
 10
266.623316955838
 20
506.5706402351375
 30
0.0
 10
264.8928454140651
 20
506.5804819177296
 30
0.0
 10
263.7528987953233
 20
506.5869651175528
 30
0.0
 10
262.622384194072
 20
506.5933946748167
 30
0.0
  0
SPLINE
  5
1AE
330
1F
100
AcDbEntity
  8
0
  6
Continuous
 62
     7
370
    15
100
AcDbSpline
210
0.0
220
0.0
230
1.0
 70
    24
 71
     3
 72
    10
 73
     6
 74
     0
 42
0.00000001
 43
0.00000001
 12
1.0
 22
0.0
 32
0.0
 13
1.0
 23
0.0
 33
0.0
 40
0.0
 40
0.0
 40
0.0
 40
0.0
 40
0.5
 40
0.5
 40
1.0
 40
1.0
 40
1.0
 40
1.0
 10
262.7588767954399
 20
530.5930065418818
 30
0.0
 10
262.1899279902126
 20
529.6203751430103
 30
0.0
 10
261.6072128001404
 20
528.6242097846224
 30
0.0
 10
260.4391442071351
 20
526.6273689807498
 30
0.0
 10
259.8518410400009
 20
525.6233603673857
 30
0.0
 10
259.2607080521238
 20
524.612804585151
 30
0.0
  0
SPLINE
  5
1AF
330
1F
100
AcDbEntity
  8
0
  6
Continuous
 62
     7
370
    15
100
AcDbSpline
210
0.0
220
0.0
230
1.0
 70
    24
 71
     3
 72
    10
 73
     6
 74
     0
 42
0.00000001
 43
0.00000001
 12
1.0
 22
0.0
 32
0.0
 13
1.0
 23
0.0
 33
0.0
 40
0.0
 40
0.0
 40
0.0
 40
0.0
 40
0.5
 40
0.5
 40
1.0
 40
1.0
 40
1.0
 40
1.0
 10
262.7588767954398
 20
530.5930065418818
 30
0.0
 10
263.892221620755
 20
530.5865608883308
 30
0.0
 10
265.0338448325734
 20
530.5800681532471
 30
0.0
 10
267.3409581002447
 20
530.5669469455668
 30
0.0
 10
268.506626563252
 20
530.560317458318
 30
0.0
 10
269.6869679813882
 20
530.5536045218107
 30
0.0
  0
SPLINE
  5
1B0
330
1F
100
AcDbEntity
  8
0
  6
Continuous
 62
     7
370
    15
100
AcDbSpline
210
0.0
220
0.0
230
1.0
 70
    24
 71
     3
 72
    10
 73
     6
 74
     0
 42
0.00000001
 43
0.00000001
 12
1.0
 22
0.0
 32
0.0
 13
1.0
 23
0.0
 33
0.0
 40
0.0
 40
0.0
 40
0.0
 40
0.0
 40
0.5
 40
0.5
 40
1.0
 40
1.0
 40
1.0
 40
1.0
 10
257.5795137270868
 20
409.1634704309568
 30
0.0
 10
257.5859593806378
 20
410.2968152562719
 30
0.0
 10
257.5924521157215
 20
411.4384384680903
 30
0.0
 10
257.6055733234018
 20
413.7455517357616
 30
0.0
 10
257.6122028106506
 20
414.9112201987689
 30
0.0
 10
257.6189157471578
 20
416.0915616169052
 30
0.0
  0
SPLINE
  5
1B1
330
1F
100
AcDbEntity
  8
0
  6
Continuous
 62
     7
370
    15
100
AcDbSpline
210
0.0
220
0.0
230
1.0
 70
    24
 71
     3
 72
    12
 73
     8
 74
     0
 42
0.00000001
 43
0.00000001
 12
1.0
 22
0.0
 32
0.0
 13
1.0
 23
0.0
 33
0.0
 40
0.0
 40
0.0
 40
0.0
 40
0.0
 40
0.2499999999999998
 40
0.2499999999999998
 40
0.4999999999999996
 40
0.4999999999999996
 40
1.0
 40
1.0
 40
1.0
 40
1.0
 10
263.5597156838176
 20
405.6653016876408
 30
0.0
 10
263.054137589286
 20
405.9610437880568
 30
0.0
 10
262.5469400641319
 20
406.2577331878495
 30
0.0
 10
261.5293479538778
 20
406.8529821341713
 30
0.0
 10
261.024272859341
 20
407.1484300005678
 30
0.0
 10
259.5261282072503
 20
408.0247821426575
 30
0.0
 10
258.546479043493
 20
408.5978360476706
 30
0.0
 10
257.5795137270869
 20
409.1634704309569
 30
0.0
  0
SPLINE
  5
1B2
330
1F
100
AcDbEntity
  8
0
  6
Continuous
 62
     7
370
    15
100
AcDbSpline
210
0.0
220
0.0
230
1.0
 70
    24
 71
     3
 72
    12
 73
     8
 74
     0
 42
0.00000001
 43
0.00000001
 12
1.0
 22
0.0
 32
0.0
 13
1.0
 23
0.0
 33
0.0
 40
0.0
 40
0.0
 40
0.0
 40
0.0
 40
0.2500000000000001
 40
0.2500000000000001
 40
0.5000000000000002
 40
0.5000000000000002
 40
1.0
 40
1.0
 40
1.0
 40
1.0
 10
259.1924617514399
 20
512.6129986516185
 30
0.0
 10
258.9013756925367
 20
513.1238623306293
 30
0.0
 10
258.6089836780973
 20
513.6370179959084
 30
0.0
 10
258.0305713685071
 20
514.6521467917561
 30
0.0
 10
257.7432997668797
 20
515.1563159980578
 30
0.0
 10
256.886587143134
 20
516.6598691550554
 30
0.0
 10
256.3222284495077
 20
517.6503334857555
 30
0.0
 10
255.7625393088076
 20
518.6326026284203
 30
0.0
  0
SPLINE
  5
1B3
330
1F
100
AcDbEntity
  8
0
  6
Continuous
 62
     7
370
    15
100
AcDbSpline
210
0.0
220
0.0
230
1.0
 70
    24
 71
     3
 72
    12
 73
     8
 74
     0
 42
0.00000001
 43
0.00000001
 12
1.0
 22
0.0
 32
0.0
 13
1.0
 23
0.0
 33
0.0
 40
0.0
 40
0.0
 40
0.0
 40
0.0
 40
0.2500000000000017
 40
0.2500000000000017
 40
0.5000000000000033
 40
0.5000000000000033
 40
1.0
 40
1.0
 40
1.0
 40
1.0
 10
259.2607080521238
 20
524.612804585151
 30
0.0
 10
258.9649659517078
 20
524.1072264906195
 30
0.0
 10
258.6682765519151
 20
523.6000289654653
 30
0.0
 10
258.0730276055933
 20
522.5824368552112
 30
0.0
 10
257.7775797391967
 20
522.0773617606744
 30
0.0
 10
256.9012275971071
 20
520.5792171085836
 30
0.0
 10
256.3281736920939
 20
519.5995679448264
 30
0.0
 10
255.7625393088077
 20
518.6326026284203
 30
0.0
  0
SPLINE
  5
1B4
330
1F
100
AcDbEntity
  8
0
  6
Continuous
 62
     7
370
    15
100
AcDbSpline
210
0.0
220
0.0
230
1.0
 70
    24
 71
     3
 72
    12
 73
     8
 74
     0
 42
0.00000001
 43
0.00000001
 12
1.0
 22
0.0
 32
0.0
 13
1.0
 23
0.0
 33
0.0
 40
0.0
 40
0.0
 40
0.0
 40
0.0
 40
0.2499999999999992
 40
0.2499999999999992
 40
0.4999999999999984
 40
0.4999999999999984
 40
1.0
 40
1.0
 40
1.0
 40
1.0
 10
257.6189157471578
 20
416.0915616169052
 30
0.0
 10
257.6222596649657
 20
416.679525570251
 30
0.0
 10
257.6256185852369
 20
417.2701274196982
 30
0.0
 10
257.6322632291941
 20
418.4384608998104
 30
0.0
 10
257.6355633275498
 20
419.0187200410874
 30
0.0
 10
257.6454050101418
 20
420.7491915828604
 30
0.0
 10
257.651888209965
 20
421.8891382016021
 30
0.0
 10
257.6583177672288
 20
423.0196528028534
 30
0.0
  0
SPLINE
  5
1B5
330
1F
100
AcDbEntity
  8
0
  6
Continuous
 62
     7
370
    15
100
AcDbSpline
210
0.0
220
0.0
230
1.0
 70
    24
 71
     3
 72
    10
 73
     6
 74
     0
 42
0.00000001
 43
0.00000001
 12
1.0
 22
0.0
 32
0.0
 13
1.0
 23
0.0
 33
0.0
 40
0.0
 40
0.0
 40
0.0
 40
0.0
 40
0.5
 40
0.5
 40
1.0
 40
1.0
 40
1.0
 40
1.0
 10
257.6583177672288
 20
423.0196528028534
 30
0.0
 10
258.6430460039748
 20
423.5807431157918
 30
0.0
 10
259.6349670745014
 20
424.1459318481785
 30
0.0
 10
261.639546377553
 20
425.2881251828347
 30
0.0
 10
262.6523596225321
 20
425.8652181099669
 30
0.0
 10
263.6779217440306
 20
426.4495752454857
 30
0.0
  0
SPLINE
  5
1B6
330
1F
100
AcDbEntity
  8
0
  6
Continuous
 62
     7
370
    15
100
AcDbSpline
210
0.0
220
0.0
230
1.0
 70
    24
 71
     3
 72
    10
 73
     6
 74
     0
 42
0.00000001
 43
0.00000001
 12
1.0
 22
0.0
 32
0.0
 13
1.0
 23
0.0
 33
0.0
 40
0.0
 40
0.0
 40
0.0
 40
0.0
 40
0.5
 40
0.5
 40
1.0
 40
1.0
 40
1.0
 40
1.0
 10
173.9480832938973
 20
403.9841073626313
 30
0.0
 10
172.8147384685822
 20
403.9905530161823
 30
0.0
 10
171.6731152567637
 20
403.9970457512659
 30
0.0
 10
169.3660019890925
 20
404.0101669589462
 30
0.0
 10
168.2003335260852
 20
404.016796446195
 30
0.0
 10
167.019992107949
 20
404.0235093827023
 30
0.0
  0
ARC
  5
1B7
330
1F
100
AcDbEntity
  8
0
  6
Continuous
 62
     7
370
    15
100
AcDbCircle
 10
167.0882384086
 20
416.0233153162
 30
0.0
 40
11.99999999999997
100
AcDbArc
 50
269.6741461604
 51
329.6741461604
  0
SPLINE
  5
1B8
330
1F
100
AcDbEntity
  8
0
  6
Continuous
 62
     7
370
    15
100
AcDbSpline
210
0.0
220
0.0
230
1.0
 70
    24
 71
     3
 72
    10
 73
     6
 74
     0
 42
0.00000001
 43
0.00000001
 12
1.0
 22
0.0
 32
0.0
 13
1.0
 23
0.0
 33
0.0
 40
0.0
 40
0.0
 40
0.0
 40
0.0
 40
0.5
 40
0.5
 40
1.0
 40
1.0
 40
1.0
 40
1.0
 10
173.9480832938973
 20
403.9841073626313
 30
0.0
 10
174.5170320991245
 20
404.9567387615027
 30
0.0
 10
175.0997472891968
 20
405.9529041198906
 30
0.0
 10
176.267815882202
 20
407.9497449237633
 30
0.0
 10
176.8551190493363
 20
408.9537535371275
 30
0.0
 10
177.4462520372134
 20
409.9643093193621
 30
0.0
  0
SPLINE
  5
1B9
330
1F
100
AcDbEntity
  8
0
  6
Continuous
 62
     7
370
    15
100
AcDbSpline
210
0.0
220
0.0
230
1.0
 70
    24
 71
     3
 72
    12
 73
     8
 74
     0
 42
0.00000001
 43
0.00000001
 12
1.0
 22
0.0
 32
0.0
 13
1.0
 23
0.0
 33
0.0
 40
0.0
 40
0.0
 40
0.0
 40
0.0
 40
0.2499999999999993
 40
0.2499999999999993
 40
0.4999999999999986
 40
0.4999999999999986
 40
1.0
 40
1.0
 40
1.0
 40
1.0
 10
179.0880443421793
 20
518.4855522876085
 30
0.0
 10
179.0847004243715
 20
517.8975883342627
 30
0.0
 10
179.0813415041002
 20
517.3069864848154
 30
0.0
 10
179.074696860143
 20
516.1386530047032
 30
0.0
 10
179.0713967617874
 20
515.5583938634262
 30
0.0
 10
179.0615550791952
 20
513.8279223216532
 30
0.0
 10
179.0550718793721
 20
512.6879757029114
 30
0.0
 10
179.0486423221082
 20
511.5574611016602
 30
0.0
  0
SPLINE
  5
1BA
330
1F
100
AcDbEntity
  8
0
  6
Continuous
 62
     7
370
    15
100
AcDbSpline
210
0.0
220
0.0
230
1.0
 70
    24
 71
     3
 72
    10
 73
     6
 74
     0
 42
0.00000001
 43
0.00000001
 12
1.0
 22
0.0
 32
0.0
 13
1.0
 23
0.0
 33
0.0
 40
0.0
 40
0.0
 40
0.0
 40
0.0
 40
0.5
 40
0.5
 40
1.0
 40
1.0
 40
1.0
 40
1.0
 10
179.0486423221083
 20
511.5574611016602
 30
0.0
 10
178.0639140853622
 20
510.9963707887218
 30
0.0
 10
177.0719930148356
 20
510.4311820563351
 30
0.0
 10
175.0674137117841
 20
509.2889887216789
 30
0.0
 10
174.054600466805
 20
508.7118957945468
 30
0.0
 10
173.0290383453064
 20
508.1275386590281
 30
0.0
  0
ARC
  5
1BB
330
1F
100
AcDbEntity
  8
0
  6
Continuous
 62
     7
370
    15
100
AcDbCircle
 10
167.0882384086
 20
518.5537985883
 30
0.0
 40
12.00000000000003
100
AcDbArc
 50
299.6741461604
 51
359.6741461604
  0
ARC
  5
1BC
330
1F
100
AcDbEntity
  8
0
  6
Continuous
 62
     7
370
    15
100
AcDbCircle
 10
167.0882384086
 20
518.5537985883
 30
0.0
 40
12.00000000000002
100
AcDbArc
 50
119.6741461604
 51
179.6741461604
  0
ARC
  5
1BD
330
1F
100
AcDbEntity
  8
0
  6
Continuous
 62
     7
370
    15
100
AcDbCircle
 10
167.0882384086
 20
518.5537985883
 30
0.0
 40
11.99999999999999
100
AcDbArc
 50
59.6741461604
 51
119.6741461604
  0
ARC
  5
1BE
330
1F
100
AcDbEntity
  8
0
  6
Continuous
 62
     7
370
    15
100
AcDbCircle
 10
167.0882384086
 20
518.5537985883
 30
0.0
 40
11.99999999999999
100
AcDbArc
 50
359.6741461604
 51
59.6741461604
  0
ARC
  5
1BF
330
1F
100
AcDbEntity
  8
0
  6
Continuous
 62
     7
370
    15
100
AcDbCircle
 10
167.0882384086
 20
518.5537985883
 30
0.0
 40
12.00000000000013
100
AcDbArc
 50
239.6741461604
 51
299.6741461604
  0
ARC
  5
1C0
330
1F
100
AcDbEntity
  8
0
  6
Continuous
 62
     7
370
    15
100
AcDbCircle
 10
167.0882384086
 20
518.5537985883
 30
0.0
 40
12.00000000000013
100
AcDbArc
 50
179.6741461604
 51
239.6741461604
  0
SPLINE
  5
1C1
330
1F
100
AcDbEntity
  8
0
  6
Continuous
 62
     7
370
    15
100
AcDbSpline
210
0.0
220
0.0
230
1.0
 70
    24
 71
     3
 72
    12
 73
     8
 74
     0
 42
0.00000001
 43
0.00000001
 12
1.0
 22
0.0
 32
0.0
 13
1.0
 23
0.0
 33
0.0
 40
0.0
 40
0.0
 40
0.0
 40
0.0
 40
0.2499999999999993
 40
0.2499999999999993
 40
0.4999999999999986
 40
0.4999999999999986
 40
1.0
 40
1.0
 40
1.0
 40
1.0
 10
177.5144983378972
 20
421.9641152528946
 30
0.0
 10
177.8055843968004
 20
421.4532515738837
 30
0.0
 10
178.0979764112398
 20
420.9400959086046
 30
0.0
 10
178.6763887208299
 20
419.9249671127571
 30
0.0
 10
178.9636603224574
 20
419.4207979064552
 30
0.0
 10
179.8203729462031
 20
417.9172447494577
 30
0.0
 10
180.3847316398293
 20
416.9267804187576
 30
0.0
 10
180.9444207805294
 20
415.9445112760928
 30
0.0
  0
SPLINE
  5
1C2
330
1F
100
AcDbEntity
  8
0
  6
Continuous
 62
     7
370
    15
100
AcDbSpline
210
0.0
220
0.0
230
1.0
 70
    24
 71
     3
 72
    12
 73
     8
 74
     0
 42
0.00000001
 43
0.00000001
 12
1.0
 22
0.0
 32
0.0
 13
1.0
 23
0.0
 33
0.0
 40
0.0
 40
0.0
 40
0.0
 40
0.0
 40
0.2500000000000004
 40
0.2500000000000004
 40
0.5000000000000009
 40
0.5000000000000009
 40
1.0
 40
1.0
 40
1.0
 40
1.0
 10
177.4462520372134
 20
409.9643093193621
 30
0.0
 10
177.7419941376294
 20
410.4698874138937
 30
0.0
 10
178.0386835374221
 20
410.9770849390478
 30
0.0
 10
178.6339324837439
 20
411.9946770493019
 30
0.0
 10
178.9293803501404
 20
412.4997521438387
 30
0.0
 10
179.80573249223
 20
413.9978967959294
 30
0.0
 10
180.3787863972432
 20
414.9775459596867
 30
0.0
 10
180.9444207805294
 20
415.9445112760928
 30
0.0
  0
ARC
  5
1C3
330
1F
100
AcDbEntity
  8
0
  6
Continuous
 62
     7
370
    15
100
AcDbCircle
 10
167.0882384086
 20
416.0233153162
 30
0.0
 40
11.99999999999999
100
AcDbArc
 50
329.6741461604
 51
29.6741461604
  0
SPLINE
  5
1C4
330
1F
100
AcDbEntity
  8
0
  6
Continuous
 62
     7
370
    15
100
AcDbSpline
210
0.0
220
0.0
230
1.0
 70
    24
 71
     3
 72
    12
 73
     8
 74
     0
 42
0.00000001
 43
0.00000001
 12
1.0
 22
0.0
 32
0.0
 13
1.0
 23
0.0
 33
0.0
 40
0.0
 40
0.0
 40
0.0
 40
0.0
 40
0.2499999999999992
 40
0.2499999999999992
 40
0.4999999999999984
 40
0.4999999999999984
 40
1.0
 40
1.0
 40
1.0
 40
1.0
 10
173.1472444055195
 20
528.9118122168729
 30
0.0
 10
173.6528225000511
 20
528.6160701164569
 30
0.0
 10
174.1600200252053
 20
528.3193807166642
 30
0.0
 10
175.1776121354593
 20
527.7241317703423
 30
0.0
 10
175.6826872299962
 20
527.4286839039459
 30
0.0
 10
177.1808318820868
 20
526.5523317618562
 30
0.0
 10
178.1604810458442
 20
525.979277856843
 30
0.0
 10
179.1274463622503
 20
525.4136434735568
 30
0.0
  0
SPLINE
  5
1C5
330
1F
100
AcDbEntity
  8
0
  6
Continuous
 62
     7
370
    15
100
AcDbSpline
210
0.0
220
0.0
230
1.0
 70
    24
 71
     3
 72
    10
 73
     6
 74
     0
 42
0.00000001
 43
0.00000001
 12
1.0
 22
0.0
 32
0.0
 13
1.0
 23
0.0
 33
0.0
 40
0.0
 40
0.0
 40
0.0
 40
0.0
 40
0.5
 40
0.5
 40
1.0
 40
1.0
 40
1.0
 40
1.0
 10
179.1274463622503
 20
525.4136434735568
 30
0.0
 10
179.1210007086993
 20
524.2802986482417
 30
0.0
 10
179.1145079736157
 20
523.1386754364232
 30
0.0
 10
179.1013867659353
 20
520.831562168752
 30
0.0
 10
179.0947572786866
 20
519.6658937057447
 30
0.0
 10
179.0880443421793
 20
518.4855522876085
 30
0.0
  0
SPLINE
  5
1C6
330
1F
100
AcDbEntity
  8
0
  6
Continuous
 62
     7
370
    15
100
AcDbSpline
210
0.0
220
0.0
230
1.0
 70
    24
 71
     3
 72
    12
 73
     8
 74
     0
 42
0.00000001
 43
0.00000001
 12
1.0
 22
0.0
 32
0.0
 13
1.0
 23
0.0
 33
0.0
 40
0.0
 40
0.0
 40
0.0
 40
0.0
 40
0.2500000000000015
 40
0.2500000000000015
 40
0.500000000000003
 40
0.500000000000003
 40
1.0
 40
1.0
 40
1.0
 40
1.0
 10
167.1564847093167
 20
428.0231212497674
 30
0.0
 10
167.7444486626625
 20
428.0197773319596
 30
0.0
 10
168.3350505121097
 20
428.0164184116883
 30
0.0
 10
169.503383992222
 20
428.0097737677312
 30
0.0
 10
170.083643133499
 20
428.0064736693755
 30
0.0
 10
171.8141146752719
 20
427.9966319867834
 30
0.0
 10
172.9540612940137
 20
427.9901487869602
 30
0.0
 10
174.084575895265
 20
427.9837192296964
 30
0.0
  0
ARC
  5
1C7
330
1F
100
AcDbEntity
  8
0
  6
Continuous
 62
     7
370
    15
100
AcDbCircle
 10
167.0882384086
 20
416.0233153162
 30
0.0
 40
12.00000000000002
100
AcDbArc
 50
29.6741461604
 51
89.6741461604
  0
SPLINE
  5
1C8
330
1F
100
AcDbEntity
  8
0
  6
Continuous
 62
     7
370
    15
100
AcDbSpline
210
0.0
220
0.0
230
1.0
 70
    24
 71
     3
 72
    10
 73
     6
 74
     0
 42
0.00000001
 43
0.00000001
 12
1.0
 22
0.0
 32
0.0
 13
1.0
 23
0.0
 33
0.0
 40
0.0
 40
0.0
 40
0.0
 40
0.0
 40
0.4999999999999993
 40
0.4999999999999993
 40
1.0
 40
1.0
 40
1.0
 40
1.0
 10
174.0845758952649
 20
427.9837192296964
 30
0.0
 10
174.6456662082034
 20
426.9989909929504
 30
0.0
 10
175.2108549405901
 20
426.0070699224238
 30
0.0
 10
176.3530482752462
 20
424.0024906193722
 30
0.0
 10
176.9301412023784
 20
422.9896773743931
 30
0.0
 10
177.5144983378972
 20
421.9641152528946
 30
0.0
  0
ARC
  5
1C9
330
1F
100
AcDbEntity
  8
0
  6
Continuous
 62
     7
370
    15
100
AcDbCircle
 10
167.0882384086
 20
416.0233153162
 30
0.0
 40
12.00000000000002
100
AcDbArc
 50
209.6741461604
 51
269.6741461604
  0
ARC
  5
1CA
330
1F
100
AcDbEntity
  8
0
  6
Continuous
 62
     7
370
    15
100
AcDbCircle
 10
167.0882384086
 20
416.0233153162
 30
0.0
 40
12.00000000000003
100
AcDbArc
 50
149.6741461604
 51
209.6741461604
  0
ARC
  5
1CB
330
1F
100
AcDbEntity
  8
0
  6
Continuous
 62
     7
370
    15
100
AcDbCircle
 10
167.0882384086
 20
416.0233153162
 30
0.0
 40
12.00000000000003
100
AcDbArc
 50
89.6741461604
 51
149.6741461604
  0
SPLINE
  5
1CC
330
1F
100
AcDbEntity
  8
0
  6
Continuous
 62
     7
370
    15
100
AcDbSpline
210
0.0
220
0.0
230
1.0
 70
    24
 71
     3
 72
    12
 73
     8
 74
     0
 42
0.00000001
 43
0.00000001
 12
1.0
 22
0.0
 32
0.0
 13
1.0
 23
0.0
 33
0.0
 40
0.0
 40
0.0
 40
0.0
 40
0.0
 40
0.2499999999999992
 40
0.2499999999999992
 40
0.4999999999999984
 40
0.4999999999999984
 40
1.0
 40
1.0
 40
1.0
 40
1.0
 10
161.0292324117739
 20
508.1957849597118
 30
0.0
 10
161.5348105063055
 20
507.9000428592959
 30
0.0
 10
162.0420080314596
 20
507.6033534595031
 30
0.0
 10
163.0596001417137
 20
507.0081045131814
 30
0.0
 10
163.5646752362506
 20
506.7126566467849
 30
0.0
 10
165.0628198883412
 20
505.8363045046952
 30
0.0
 10
166.0424690520985
 20
505.263250599682
 30
0.0
 10
167.0094343685047
 20
504.6976162163959
 30
0.0
  0
SPLINE
  5
1CD
330
1F
100
AcDbEntity
  8
0
  6
Continuous
 62
     7
370
    15
100
AcDbSpline
210
0.0
220
0.0
230
1.0
 70
    24
 71
     3
 72
    12
 73
     8
 74
     0
 42
0.00000001
 43
0.00000001
 12
1.0
 22
0.0
 32
0.0
 13
1.0
 23
0.0
 33
0.0
 40
0.0
 40
0.0
 40
0.0
 40
0.0
 40
0.2500000000000004
 40
0.2500000000000004
 40
0.5000000000000008
 40
0.5000000000000008
 40
1.0
 40
1.0
 40
1.0
 40
1.0
 10
173.0290383453064
 20
508.1275386590281
 30
0.0
 10
172.5181746662956
 20
507.8364526001249
 30
0.0
 10
172.0050190010165
 20
507.5440605856855
 30
0.0
 10
170.9898902051689
 20
506.9656482760952
 30
0.0
 10
170.485720998867
 20
506.6783766744678
 30
0.0
 10
168.9821678418695
 20
505.8216640507221
 30
0.0
 10
167.9917035111694
 20
505.2573053570959
 30
0.0
 10
167.0094343685047
 20
504.6976162163959
 30
0.0
  0
SPLINE
  5
1CE
330
1F
100
AcDbEntity
  8
0
  6
Continuous
 62
     7
370
    15
100
AcDbSpline
210
0.0
220
0.0
230
1.0
 70
    24
 71
     3
 72
    12
 73
     8
 74
     0
 42
0.00000001
 43
0.00000001
 12
1.0
 22
0.0
 32
0.0
 13
1.0
 23
0.0
 33
0.0
 40
0.0
 40
0.0
 40
0.0
 40
0.0
 40
0.2500000000000007
 40
0.2500000000000007
 40
0.5000000000000014
 40
0.5000000000000014
 40
1.0
 40
1.0
 40
1.0
 40
1.0
 10
161.147438471987
 20
528.9800585175568
 30
0.0
 10
161.6583021509979
 20
529.27114457646
 30
0.0
 10
162.171457816277
 20
529.5635365908993
 30
0.0
 10
163.1865866121245
 20
530.1419489004895
 30
0.0
 10
163.6907558184265
 20
530.4292205021169
 30
0.0
 10
165.1943089754239
 20
531.2859331258627
 30
0.0
 10
166.184773306124
 20
531.8502918194888
 30
0.0
 10
167.1670424487888
 20
532.4099809601889
 30
0.0
  0
SPLINE
  5
1CF
330
1F
100
AcDbEntity
  8
0
  6
Continuous
 62
     7
370
    15
100
AcDbSpline
210
0.0
220
0.0
230
1.0
 70
    24
 71
     3
 72
    10
 73
     6
 74
     0
 42
0.00000001
 43
0.00000001
 12
1.0
 22
0.0
 32
0.0
 13
1.0
 23
0.0
 33
0.0
 40
0.0
 40
0.0
 40
0.0
 40
0.0
 40
0.5
 40
0.5
 40
1.0
 40
1.0
 40
1.0
 40
1.0
 10
167.1670424487888
 20
532.4099809601889
 30
0.0
 10
168.1396738476602
 20
531.8410321549617
 30
0.0
 10
169.1358392060481
 20
531.2583169648894
 30
0.0
 10
171.1326800099208
 20
530.0902483718843
 30
0.0
 10
172.1366886232849
 20
529.50294520475
 30
0.0
 10
173.1472444055195
 20
528.9118122168729
 30
0.0
  0
SPLINE
  5
1D0
330
1F
100
AcDbEntity
  8
0
  6
Continuous
 62
     7
370
    15
100
AcDbSpline
210
0.0
220
0.0
230
1.0
 70
    24
 71
     3
 72
    10
 73
     6
 74
     0
 42
0.00000001
 43
0.00000001
 12
1.0
 22
0.0
 32
0.0
 13
1.0
 23
0.0
 33
0.0
 40
0.0
 40
0.0
 40
0.0
 40
0.0
 40
0.5
 40
0.5
 40
1.0
 40
1.0
 40
1.0
 40
1.0
 10
155.1278344951852
 20
525.5501360749245
 30
0.0
 10
156.1125627319312
 20
526.1112263878629
 30
0.0
 10
157.1044838024578
 20
526.6764151202497
 30
0.0
 10
159.1090631055094
 20
527.8186084549058
 30
0.0
 10
160.1218763504885
 20
528.3957013820379
 30
0.0
 10
161.147438471987
 20
528.9800585175568
 30
0.0
  0
SPLINE
  5
1D1
330
1F
100
AcDbEntity
  8
0
  6
Continuous
 62
     7
370
    15
100
AcDbSpline
210
0.0
220
0.0
230
1.0
 70
    24
 71
     3
 72
    12
 73
     8
 74
     0
 42
0.00000001
 43
0.00000001
 12
1.0
 22
0.0
 32
0.0
 13
1.0
 23
0.0
 33
0.0
 40
0.0
 40
0.0
 40
0.0
 40
0.0
 40
0.2499999999999986
 40
0.2499999999999986
 40
0.4999999999999971
 40
0.4999999999999971
 40
1.0
 40
1.0
 40
1.0
 40
1.0
 10
155.0884324751142
 20
518.6220448889762
 30
0.0
 10
155.091776392922
 20
519.210008842322
 30
0.0
 10
155.0951353131933
 20
519.8006106917693
 30
0.0
 10
155.1017799571503
 20
520.9689441718815
 30
0.0
 10
155.1050800555061
 20
521.5492033131586
 30
0.0
 10
155.1149217380982
 20
523.2796748549315
 30
0.0
 10
155.1214049379214
 20
524.4196214736733
 30
0.0
 10
155.1278344951852
 20
525.5501360749245
 30
0.0
  0
SPLINE
  5
1D2
330
1F
100
AcDbEntity
  8
0
  6
Continuous
 62
     7
370
    15
100
AcDbSpline
210
0.0
220
0.0
230
1.0
 70
    24
 71
     3
 72
    10
 73
     6
 74
     0
 42
0.00000001
 43
0.00000001
 12
1.0
 22
0.0
 32
0.0
 13
1.0
 23
0.0
 33
0.0
 40
0.0
 40
0.0
 40
0.0
 40
0.0
 40
0.5
 40
0.5
 40
1.0
 40
1.0
 40
1.0
 40
1.0
 10
155.0490304550432
 20
511.6939537030279
 30
0.0
 10
155.0554761085941
 20
512.8272985283431
 30
0.0
 10
155.0619688436778
 20
513.9689217401615
 30
0.0
 10
155.0750900513581
 20
516.2760350078328
 30
0.0
 10
155.0817195386068
 20
517.44170347084
 30
0.0
 10
155.0884324751142
 20
518.6220448889762
 30
0.0
  0
SPLINE
  5
1D3
330
1F
100
AcDbEntity
  8
0
  6
Continuous
 62
     7
370
    15
100
AcDbSpline
210
0.0
220
0.0
230
1.0
 70
    24
 71
     3
 72
    10
 73
     6
 74
     0
 42
0.00000001
 43
0.00000001
 12
1.0
 22
0.0
 32
0.0
 13
1.0
 23
0.0
 33
0.0
 40
0.0
 40
0.0
 40
0.0
 40
0.0
 40
0.5
 40
0.5
 40
1.0
 40
1.0
 40
1.0
 40
1.0
 10
155.0490304550432
 20
511.6939537030279
 30
0.0
 10
156.0216618539146
 20
511.1250048978006
 30
0.0
 10
157.0178272123024
 20
510.5422897077285
 30
0.0
 10
159.0146680161751
 20
509.3742211147232
 30
0.0
 10
160.0186766295392
 20
508.786917947589
 30
0.0
 10
161.0292324117739
 20
508.1957849597118
 30
0.0
  0
SPLINE
  5
1D4
330
1F
100
AcDbEntity
  8
0
  6
Continuous
 62
     7
370
    15
100
AcDbSpline
210
0.0
220
0.0
230
1.0
 70
    24
 71
     3
 72
    12
 73
     8
 74
     0
 42
0.00000001
 43
0.00000001
 12
1.0
 22
0.0
 32
0.0
 13
1.0
 23
0.0
 33
0.0
 40
0.0
 40
0.0
 40
0.0
 40
0.0
 40
0.2500000000000011
 40
0.2500000000000011
 40
0.5000000000000022
 40
0.5000000000000022
 40
1.0
 40
1.0
 40
1.0
 40
1.0
 10
156.7302247800523
 20
422.0823213131076
 30
0.0
 10
157.0259668804684
 20
422.5878994076392
 30
0.0
 10
157.322656280261
 20
423.0950969327934
 30
0.0
 10
157.9179052265829
 20
424.1126890430475
 30
0.0
 10
158.2133530929794
 20
424.6177641375842
 30
0.0
 10
159.089705235069
 20
426.1159087896749
 30
0.0
 10
159.6627591400822
 20
427.0955579534323
 30
0.0
 10
160.2283935233684
 20
428.0625232698384
 30
0.0
  0
SPLINE
  5
1D5
330
1F
100
AcDbEntity
  8
0
  6
Continuous
 62
     7
370
    15
100
AcDbSpline
210
0.0
220
0.0
230
1.0
 70
    24
 71
     3
 72
    10
 73
     6
 74
     0
 42
0.00000001
 43
0.00000001
 12
1.0
 22
0.0
 32
0.0
 13
1.0
 23
0.0
 33
0.0
 40
0.0
 40
0.0
 40
0.0
 40
0.0
 40
0.5
 40
0.5
 40
1.0
 40
1.0
 40
1.0
 40
1.0
 10
160.2283935233683
 20
428.0625232698384
 30
0.0
 10
161.3617383486835
 20
428.0560776162874
 30
0.0
 10
162.5033615605019
 20
428.0495848812038
 30
0.0
 10
164.8104748281732
 20
428.0364636735234
 30
0.0
 10
165.9761432911805
 20
428.0298341862747
 30
0.0
 10
167.1564847093167
 20
428.0231212497674
 30
0.0
  0
SPLINE
  5
1D6
330
1F
100
AcDbEntity
  8
0
  6
Continuous
 62
     7
370
    15
100
AcDbSpline
210
0.0
220
0.0
230
1.0
 70
    24
 71
     3
 72
    10
 73
     6
 74
     0
 42
0.00000001
 43
0.00000001
 12
1.0
 22
0.0
 32
0.0
 13
1.0
 23
0.0
 33
0.0
 40
0.0
 40
0.0
 40
0.0
 40
0.0
 40
0.5
 40
0.5
 40
1.0
 40
1.0
 40
1.0
 40
1.0
 10
160.0919009220008
 20
404.0629114027733
 30
0.0
 10
159.5308106090623
 20
405.0476396395193
 30
0.0
 10
158.9656218766756
 20
406.0395607100459
 30
0.0
 10
157.8234285420195
 20
408.0441400130975
 30
0.0
 10
157.2463356148873
 20
409.0569532580765
 30
0.0
 10
156.6619784793685
 20
410.0825153795751
 30
0.0
  0
SPLINE
  5
1D7
330
1F
100
AcDbEntity
  8
0
  6
Continuous
 62
     7
370
    15
100
AcDbSpline
210
0.0
220
0.0
230
1.0
 70
    24
 71
     3
 72
    12
 73
     8
 74
     0
 42
0.00000001
 43
0.00000001
 12
1.0
 22
0.0
 32
0.0
 13
1.0
 23
0.0
 33
0.0
 40
0.0
 40
0.0
 40
0.0
 40
0.0
 40
0.2499999999999986
 40
0.2499999999999986
 40
0.4999999999999971
 40
0.4999999999999971
 40
1.0
 40
1.0
 40
1.0
 40
1.0
 10
167.019992107949
 20
404.0235093827023
 30
0.0
 10
166.4320281546032
 20
404.0268533005101
 30
0.0
 10
165.8414263051559
 20
404.0302122207814
 30
0.0
 10
164.6730928250437
 20
404.0368568647385
 30
0.0
 10
164.0928336837667
 20
404.0401569630943
 30
0.0
 10
162.3623621419938
 20
404.0499986456863
 30
0.0
 10
161.222415523252
 20
404.0564818455094
 30
0.0
 10
160.0919009220007
 20
404.0629114027733
 30
0.0
  0
SPLINE
  5
1D8
330
1F
100
AcDbEntity
  8
0
  6
Continuous
 62
     7
370
    15
100
AcDbSpline
210
0.0
220
0.0
230
1.0
 70
    24
 71
     3
 72
    12
 73
     8
 74
     0
 42
0.00000001
 43
0.00000001
 12
1.0
 22
0.0
 32
0.0
 13
1.0
 23
0.0
 33
0.0
 40
0.0
 40
0.0
 40
0.0
 40
0.0
 40
0.2500000000000007
 40
0.2500000000000007
 40
0.5000000000000014
 40
0.5000000000000014
 40
1.0
 40
1.0
 40
1.0
 40
1.0
 10
156.6619784793685
 20
410.0825153795751
 30
0.0
 10
156.3708924204653
 20
410.5933790585859
 30
0.0
 10
156.0785004060259
 20
411.106534723865
 30
0.0
 10
155.5000880964357
 20
412.1216635197127
 30
0.0
 10
155.2128164948083
 20
412.6258327260146
 30
0.0
 10
154.3561038710625
 20
414.129385883012
 30
0.0
 10
153.7917451774364
 20
415.1198502137121
 30
0.0
 10
153.2320560367363
 20
416.1021193563769
 30
0.0
  0
SPLINE
  5
1D9
330
1F
100
AcDbEntity
  8
0
  6
Continuous
 62
     7
370
    15
100
AcDbSpline
210
0.0
220
0.0
230
1.0
 70
    24
 71
     3
 72
    10
 73
     6
 74
     0
 42
0.00000001
 43
0.00000001
 12
1.0
 22
0.0
 32
0.0
 13
1.0
 23
0.0
 33
0.0
 40
0.0
 40
0.0
 40
0.0
 40
0.0
 40
0.5
 40
0.5
 40
1.0
 40
1.0
 40
1.0
 40
1.0
 10
153.2320560367363
 20
416.1021193563769
 30
0.0
 10
153.8010048419635
 20
417.0747507552483
 30
0.0
 10
154.3837200320358
 20
418.0709161136361
 30
0.0
 10
155.551788625041
 20
420.0677569175089
 30
0.0
 10
156.1390917921753
 20
421.071765530873
 30
0.0
 10
156.7302247800523
 20
422.0823213131076
 30
0.0
  0
CIRCLE
  5
1DA
330
1F
100
AcDbEntity
  8
0
  6
Continuous
 62
     7
370
    15
100
AcDbCircle
 10
269.6187216807
 20
416.0233153162
 30
0.0
 40
17.25000000000001
  0
CIRCLE
  5
1DB
330
1F
100
AcDbEntity
  8
0
  6
Continuous
 62
     7
370
    15
100
AcDbCircle
 10
269.6187216807
 20
518.5537985883
 30
0.0
 40
17.25000000000002
  0
CIRCLE
  5
1DC
330
1F
100
AcDbEntity
  8
0
  6
Continuous
 62
     7
370
    15
100
AcDbCircle
 10
167.0882384086
 20
518.5537985883
 30
0.0
 40
17.25000000000005
  0
CIRCLE
  5
1DD
330
1F
100
AcDbEntity
  8
0
  6
Continuous
 62
     7
370
    15
100
AcDbCircle
 10
167.0882384086
 20
416.0233153162
 30
0.0
 40
17.24999999999996
  0
CIRCLE
  5
1DE
330
1F
100
AcDbEntity
  8
0
  6
Continuous
 62
     7
370
    15
100
AcDbCircle
 10
218.3534800447
 20
467.2885569523
 30
0.0
 40
35.0
  0
CIRCLE
  5
1DF
330
1F
100
AcDbEntity
  8
0
  6
Continuous
 62
     7
370
    15
100
AcDbCircle
 10
218.3534800447
 20
467.2885569523
 30
0.0
 40
92.5
  0
LINE
  5
1E0
330
1F
100
AcDbEntity
  8
0
  6
Continuous
 62
     7
370
    15
100
AcDbLine
 10
132.4657013199
 20
501.6329730811
 30
0.0
 11
130.9656982801
 21
501.6329730811
 31
0.0
  0
ARC
  5
1E1
330
1F
100
AcDbEntity
  8
0
  6
Continuous
 62
     7
370
    15
100
AcDbCircle
 10
216.8534800447
 20
467.2885569523
 30
0.0
 40
92.5
100
AcDbArc
 50
156.71114789
 51
158.2047424445
  0
LINE
  5
1E2
330
1F
100
AcDbEntity
  8
0
  6
Continuous
 62
     7
370
    15
100
AcDbLine
 10
133.3900725028
 20
503.8599851492
 30
0.0
 11
131.890069463
 21
503.8599851492
 31
0.0
  0
LINE
  5
1E3
330
1F
100
AcDbEntity
  8
0
  6
Continuous
 62
     7
370
    15
100
AcDbLine
 10
131.7640503428
 20
499.8234654727
 30
0.0
 11
130.2640473029
 21
499.8234654727
 31
0.0
  0
SPLINE
  5
1E4
330
1F
100
AcDbEntity
  8
0
  6
Continuous
 62
     7
370
    15
100
AcDbSpline
210
0.0
220
0.0
230
1.0
 70
     8
 71
     3
 72
     9
 73
     5
 74
     0
 42
0.00000001
 43
0.00000001
 12
1.0
 22
0.0
 32
0.0
 13
1.0
 23
0.0
 33
0.0
 40
0.0
 40
0.0
 40
0.0
 40
0.0
 40
0.5028690475659119
 40
1.0
 40
1.0
 40
1.0
 40
1.0
 10
130.2640478756358
 20
499.8234649226858
 30
0.0
 10
130.3790619923899
 20
500.1271452105099
 30
0.0
 10
130.6077778326483
 20
500.731040577095
 30
0.0
 10
130.8468485697668
 20
501.3334810241605
 30
0.0
 10
130.9656980330095
 20
501.6329728173951
 30
0.0
  0
LINE
  5
1E5
330
1F
100
AcDbEntity
  8
0
  6
Continuous
 62
     7
370
    15
100
AcDbLine
 10
131.4029728553
 20
498.8457928362
 30
0.0
 11
129.9029698154
 21
498.8457928362
 31
0.0
  0
LINE
  5
1E6
330
1F
100
AcDbEntity
  8
0
  6
Continuous
 62
     7
370
    15
100
AcDbLine
 10
130.7298277995
 20
496.9254578414
 30
0.0
 11
129.2298322103
 21
496.9254578414
 31
0.0
  0
ARC
  5
1E7
330
1F
100
AcDbEntity
  8
0
  6
Continuous
 62
     7
370
    15
100
AcDbCircle
 10
216.8534800447
 20
467.2885569523
 30
0.0
 40
92.50000000000001
100
AcDbArc
 50
160.0524784741
 51
161.3129470736
  0
SPLINE
  5
1E8
330
1F
100
AcDbEntity
  8
0
  6
Continuous
 62
     7
370
    15
100
AcDbSpline
210
0.0
220
0.0
230
1.0
 70
     8
 71
     3
 72
     9
 73
     5
 74
     0
 42
0.00000001
 43
0.00000001
 12
1.0
 22
0.0
 32
0.0
 13
1.0
 23
0.0
 33
0.0
 40
0.0
 40
0.0
 40
0.0
 40
0.0
 40
0.5017081781391436
 40
1.0
 40
1.0
 40
1.0
 40
1.0
 10
129.902972181746
 20
498.8457935609912
 30
0.0
 10
129.9625878253206
 20
499.0093359224114
 30
0.0
 10
130.0814131627821
 20
499.3353070118737
 30
0.0
 10
130.2033084505952
 20
499.6611166463452
 30
0.0
 10
130.2640478756358
 20
499.8234649226858
 30
0.0
  0
LINE
  5
1E9
330
1F
100
AcDbEntity
  8
0
  6
Continuous
 62
     7
370
    15
100
AcDbLine
 10
130.4828932068
 20
496.1850899222
 30
0.0
 11
128.982890167
 21
496.1850899222
 31
0.0
  0
LINE
  5
1EA
330
1F
100
AcDbEntity
  8
0
  6
Continuous
 62
     7
370
    15
100
AcDbLine
 10
128.982890167
 20
496.1850899222
 30
0.0
 11
129.2329242012
 21
496.9254578414
 31
0.0
  0
LINE
  5
1EB
330
1F
100
AcDbEntity
  8
0
  6
Continuous
 62
     7
370
    15
100
AcDbLine
 10
129.9258132956
 20
498.9076363805
 30
0.0
 11
129.9411391398
 21
498.9507528904
 31
0.0
  0
LINE
  5
1EC
330
1F
100
AcDbEntity
  8
0
  6
Continuous
 62
     7
370
    15
100
AcDbLine
 10
129.9133782765
 20
494.3920257452
 30
0.0
 11
128.4133752367
 21
494.3920257452
 31
0.0
  0
ARC
  5
1ED
330
1F
100
AcDbEntity
  8
0
  6
Continuous
 62
     7
370
    15
100
AcDbCircle
 10
216.8534800447
 20
467.2885569523
 30
0.0
 40
92.50000000000001
100
AcDbArc
 50
161.7963796894
 51
162.9617257458
  0
LINE
  5
1EE
330
1F
100
AcDbEntity
  8
0
  6
Continuous
 62
     7
370
    15
100
AcDbLine
 10
127.6126762411
 20
491.626362777
 30
0.0
 11
127.6200001618
 21
491.6526707771
 31
0.0
  0
LINE
  5
1EF
330
1F
100
AcDbEntity
  8
0
  6
Continuous
 62
     7
370
    15
100
AcDbLine
 10
128.1906252286
 20
493.6516541007
 30
0.0
 11
128.4133752367
 21
494.3920257452
 31
0.0
  0
LINE
  5
1F0
330
1F
100
AcDbEntity
  8
0
  6
Continuous
 62
     7
370
    15
100
AcDbLine
 10
129.1413640162
 20
491.7313191059
 30
0.0
 11
127.641368427
 21
491.7313191059
 31
0.0
  0
LINE
  5
1F1
330
1F
100
AcDbEntity
  8
0
  6
Continuous
 62
     7
370
    15
100
AcDbLine
 10
129.6898608586
 20
493.6516541007
 30
0.0
 11
128.1898652694
 21
493.6516541007
 31
0.0
  0
ARC
  5
1F2
330
1F
100
AcDbEntity
  8
0
  6
Continuous
 62
     7
370
    15
100
AcDbCircle
 10
216.8534800447
 20
467.2885569523
 30
0.0
 40
92.50000000000003
100
AcDbArc
 50
163.4407650754
 51
164.6778397931
  0
LINE
  5
1F3
330
1F
100
AcDbEntity
  8
0
  6
Continuous
 62
     7
370
    15
100
AcDbLine
 10
128.3314635536
 20
488.5555948081
 30
0.0
 11
126.8314679644
 21
488.5555948081
 31
0.0
  0
LINE
  5
1F4
330
1F
100
AcDbEntity
  8
0
  6
Continuous
 62
     7
370
    15
100
AcDbLine
 10
128.2467281005
 20
488.1936642292
 30
0.0
 11
126.7467325112
 21
488.1936642292
 31
0.0
  0
LINE
  5
1F5
330
1F
100
AcDbEntity
  8
0
  6
Continuous
 62
     7
370
    15
100
AcDbLine
 10
126.7467325112
 20
488.1936642292
 30
0.0
 11
126.8314679644
 21
488.5555948081
 31
0.0
  0
LINE
  5
1F6
330
1F
100
AcDbEntity
  8
0
  6
Continuous
 62
     7
370
    15
100
AcDbLine
 10
127.8258597037
 20
486.2885563585
 30
0.0
 11
126.3258566639
 21
486.2885563585
 31
0.0
  0
ARC
  5
1F7
330
1F
100
AcDbEntity
  8
0
  6
Continuous
 62
     7
370
    15
100
AcDbCircle
 10
216.8534800447
 20
467.2885569523
 30
0.0
 40
92.49999999999999
100
AcDbArc
 50
166.9382426829
 51
168.1467678807
  0
LINE
  5
1F8
330
1F
100
AcDbEntity
  8
0
  6
Continuous
 62
     7
370
    15
100
AcDbLine
 10
129.0370782396
 20
491.3474428418
 30
0.0
 11
127.5370751998
 21
491.3474428418
 31
0.0
  0
LINE
  5
1F9
330
1F
100
AcDbEntity
  8
0
  6
Continuous
 62
     7
370
    15
100
AcDbLine
 10
127.5370751998
 20
491.3474428418
 30
0.0
 11
127.641368427
 21
491.7313191059
 31
0.0
  0
ARC
  5
1FA
330
1F
100
AcDbEntity
  8
0
  6
Continuous
 62
     7
370
    15
100
AcDbCircle
 10
216.8534800447
 20
467.2885569523
 30
0.0
 40
92.50000000000001
100
AcDbArc
 50
164.924237734
 51
166.7079965782
  0
SPLINE
  5
1FB
330
1F
100
AcDbEntity
  8
0
  6
Continuous
 62
     7
370
    15
100
AcDbSpline
210
0.0
220
0.0
230
1.0
 70
     8
 71
     3
 72
     9
 73
     5
 74
     0
 42
0.00000001
 43
0.00000001
 12
1.0
 22
0.0
 32
0.0
 13
1.0
 23
0.0
 33
0.0
 40
0.0
 40
0.0
 40
0.0
 40
0.0
 40
0.5015545017073568
 40
1.0
 40
1.0
 40
1.0
 40
1.0
 10
130.4926529253877
 20
500.4255082192865
 30
0.0
 10
130.5510644263482
 20
500.5771429559979
 30
0.0
 10
130.6675253508573
 20
500.8794724858797
 30
0.0
 10
130.7866754777561
 20
501.1816527570102
 30
0.0
 10
130.8460653221298
 20
501.332273152828
 30
0.0
  0
LINE
  5
1FC
330
1F
100
AcDbEntity
  8
0
  6
Continuous
 62
     7
370
    15
100
AcDbLine
 10
133.5758303782
 20
504.2885574463
 30
0.0
 11
132.0758273384
 21
504.2885574463
 31
0.0
  0
ARC
  5
1FD
330
1F
100
AcDbEntity
  8
0
  6
Continuous
 62
     7
370
    15
100
AcDbCircle
 10
216.8534800447
 20
467.2885569523
 30
0.0
 40
92.5
100
AcDbArc
 50
156.4218215218
 51
156.71114789
  0
LINE
  5
1FE
330
1F
100
AcDbEntity
  8
0
  6
Continuous
 62
     7
370
    15
100
AcDbLine
 10
131.0065721652
 20
436.8457007172
 30
0.0
 11
129.5065691254
 21
436.8457007172
 31
0.0
  0
LINE
  5
1FF
330
1F
100
AcDbEntity
  8
0
  6
Continuous
 62
     7
370
    15
100
AcDbLine
 10
133.5758303782
 20
430.2885564926
 30
0.0
 11
132.0758273384
 21
430.2885564926
 31
0.0
  0
ARC
  5
200
330
1F
100
AcDbEntity
  8
0
  6
Continuous
 62
     7
370
    15
100
AcDbCircle
 10
216.8534800447
 20
467.2885569523
 30
0.0
 40
92.50000000000001
100
AcDbArc
 50
199.2148845027
 51
203.5781784782
  0
LINE
  5
201
330
1F
100
AcDbEntity
  8
0
  6
Continuous
 62
     7
370
    15
100
AcDbLine
 10
130.1931177756
 20
439.2885561052
 30
0.0
 11
128.6931147358
 21
439.2885561052
 31
0.0
  0
SPLINE
  5
202
330
1F
100
AcDbEntity
  8
0
  6
Continuous
 62
     7
370
    15
100
AcDbSpline
210
0.0
220
0.0
230
1.0
 70
     8
 71
     3
 72
    10
 73
     6
 74
     0
 42
0.00000001
 43
0.00000001
 12
1.0
 22
0.0
 32
0.0
 13
1.0
 23
0.0
 33
0.0
 40
0.0
 40
0.0
 40
0.0
 40
0.0
 40
0.3293684180272599
 40
0.6627016121416146
 40
0.9999999999999999
 40
0.9999999999999999
 40
0.9999999999999999
 40
0.9999999999999999
 10
129.5065714045778
 20
436.8456998094119
 30
0.0
 10
129.4139811993775
 20
437.1137428032162
 30
0.0
 10
129.2276862333263
 20
437.6530553614185
 30
0.0
 10
128.9564696506265
 20
438.4673461100674
 30
0.0
 10
128.7812450962369
 20
439.0137431244664
 30
0.0
 10
128.693114800412
 20
439.2885569522692
 30
0.0
  0
LINE
  5
203
330
1F
100
AcDbEntity
  8
0
  6
Continuous
 62
     7
370
    15
100
AcDbLine
 10
129.4541989944
 20
441.7314142871
 30
0.0
 11
127.9541959545
 21
441.7314142871
 31
0.0
  0
SPLINE
  5
204
330
1F
100
AcDbEntity
  8
0
  6
Continuous
 62
     7
370
    15
100
AcDbSpline
210
0.0
220
0.0
230
1.0
 70
     8
 71
     3
 72
    10
 73
     6
 74
     0
 42
0.00000001
 43
0.00000001
 12
1.0
 22
0.0
 32
0.0
 13
1.0
 23
0.0
 33
0.0
 40
0.0
 40
0.0
 40
0.0
 40
0.0
 40
0.3291705126077039
 40
0.6625037344550303
 40
1.0
 40
1.0
 40
1.0
 40
1.0
 10
128.693114800412
 20
439.2885569522692
 30
0.0
 10
128.6088359307766
 20
439.5564564901636
 30
0.0
 10
128.4392123960719
 20
440.0956434389207
 30
0.0
 10
128.1928348239899
 20
440.9099337533668
 30
0.0
 10
128.0340716478808
 20
441.4564567742856
 30
0.0
 10
127.954197432376
 20
441.7314140951265
 30
0.0
  0
LINE
  5
205
330
1F
100
AcDbEntity
  8
0
  6
Continuous
 62
     7
370
    15
100
AcDbLine
 10
127.8258597037
 20
448.2885571147
 30
0.0
 11
126.3258566639
 21
448.2885571147
 31
0.0
  0
ARC
  5
206
330
1F
100
AcDbEntity
  8
0
  6
Continuous
 62
     7
370
    15
100
AcDbCircle
 10
216.8534800447
 20
467.2885569523
 30
0.0
 40
92.50000000000001
100
AcDbArc
 50
191.8532321193
 51
196.0391093544
  0
LINE
  5
207
330
1F
100
AcDbEntity
  8
0
  6
Continuous
 62
     7
370
    15
100
AcDbLine
 10
128.1898652694
 20
440.9254589069
 30
0.0
 11
128.0768623135
 21
441.3258726659
 31
0.0
  0
LINE
  5
208
330
1F
100
AcDbEntity
  8
0
  6
Continuous
 62
     7
370
    15
100
AcDbLine
 10
129.4483130357
 20
437.0206440749
 30
0.0
 11
129.2298322103
 21
437.6516542348
 31
0.0
  0
INSERT
  5
214
330
1F
100
AcDbEntity
  8
FORMAT
100
AcDbBlockReference
  2
SW_CENTERMARKSYMBOL_0
 10
218.3534800447
 20
467.2885569523
 30
0.0
  0
LINE
  5
215
330
1F
100
AcDbEntity
  8
0
  6
Continuous
 62
     7
370
    15
100
AcDbLine
 10
125.8534824035
 20
160.6109928919
 30
0.0
 11
125.8534824035
 21
142.6109936668
 31
0.0
  0
LINE
  5
216
330
1F
100
AcDbEntity
  8
0
  6
Continuous
 62
     7
370
    15
100
AcDbLine
 10
310.8534773371
 20
142.6109936668
 30
0.0
 11
310.8534773371
 21
160.6109928919
 31
0.0
  0
LINE
  5
217
330
1F
100
AcDbEntity
  8
0
  6
Continuous
 62
     7
370
    15
100
AcDbLine
 10
310.8534773371
 20
48.1710941179
 30
0.0
 11
310.8534773371
 21
67.1710953696
 31
0.0
  0
LINE
  5
218
330
1F
100
AcDbEntity
  8
0
  6
Continuous
 62
     7
370
    15
100
AcDbLine
 10
125.8534824035
 20
67.1710953696
 30
0.0
 11
125.8534824035
 21
48.1710941179
 31
0.0
  0
LINE
  5
219
330
1F
100
AcDbEntity
  8
0
  6
Continuous
 62
     7
370
    15
100
AcDbLine
 10
125.8534824035
 20
248.1710970981
 30
0.0
 11
125.8534824035
 21
229.1710958464
 31
0.0
  0
LINE
  5
21A
330
1F
100
AcDbEntity
  8
0
  6
Continuous
 62
     7
370
    15
100
AcDbLine
 10
310.8534773371
 20
229.1710958464
 30
0.0
 11
310.8534773371
 21
248.1710970981
 31
0.0
  0
LINE
  5
21B
330
1F
100
AcDbEntity
  8
0
  6
Continuous
 62
     7
370
    15
100
AcDbLine
 10
184.3382378599
 20
248.1710970981
 30
0.0
 11
184.3382378599
 21
250.1710937007
 31
0.0
  0
LINE
  5
21C
330
1F
100
AcDbEntity
  8
0
  6
Continuous
 62
     7
370
    15
100
AcDbLine
 10
149.8382349989
 20
250.1710937007
 30
0.0
 11
149.8382349989
 21
248.1710970981
 31
0.0
  0
LINE
  5
21D
330
1F
100
AcDbEntity
  8
0
  6
Continuous
 62
     7
370
    15
100
AcDbLine
 10
149.8382349989
 20
229.1710958464
 30
0.0
 11
149.8382349989
 21
227.1710955186
 31
0.0
  0
LINE
  5
21E
330
1F
100
AcDbEntity
  8
0
  6
Continuous
 62
     7
370
    15
100
AcDbLine
 10
184.3382378599
 20
227.1710955186
 30
0.0
 11
184.3382378599
 21
229.1710958464
 31
0.0
  0
LINE
  5
21F
330
1F
100
AcDbEntity
  8
0
  6
Continuous
 62
     7
370
    15
100
AcDbLine
 10
149.8382349989
 20
142.6109936668
 30
0.0
 11
149.8382349989
 21
140.610993339
 31
0.0
  0
LINE
  5
220
330
1F
100
AcDbEntity
  8
0
  6
Continuous
 62
     7
370
    15
100
AcDbLine
 10
184.3382378599
 20
140.610993339
 30
0.0
 11
184.3382378599
 21
142.6109936668
 31
0.0
  0
LINE
  5
221
330
1F
100
AcDbEntity
  8
0
  6
Continuous
 62
     7
370
    15
100
AcDbLine
 10
184.3382378599
 20
67.1710953696
 30
0.0
 11
184.3382378599
 21
69.1710994227
 31
0.0
  0
LINE
  5
222
330
1F
100
AcDbEntity
  8
0
  6
Continuous
 62
     7
370
    15
100
AcDbLine
 10
149.8382349989
 20
69.1710994227
 30
0.0
 11
149.8382349989
 21
67.1710953696
 31
0.0
  0
LINE
  5
223
330
1F
100
AcDbEntity
  8
0
  6
Continuous
 62
     7
370
    15
100
AcDbLine
 10
149.8382349989
 20
48.1710941179
 30
0.0
 11
149.8382349989
 21
46.1710975154
 31
0.0
  0
LINE
  5
224
330
1F
100
AcDbEntity
  8
0
  6
Continuous
 62
     7
370
    15
100
AcDbLine
 10
184.3382378599
 20
46.1710975154
 30
0.0
 11
184.3382378599
 21
48.1710941179
 31
0.0
  0
LINE
  5
225
330
1F
100
AcDbEntity
  8
0
  6
Continuous
 62
     7
370
    15
100
AcDbLine
 10
286.8687210164
 20
248.1710970981
 30
0.0
 11
286.8687210164
 21
250.1710937007
 31
0.0
  0
LINE
  5
226
330
1F
100
AcDbEntity
  8
0
  6
Continuous
 62
     7
370
    15
100
AcDbLine
 10
252.3687218806
 20
250.1710937007
 30
0.0
 11
252.3687218806
 21
248.1710970981
 31
0.0
  0
LINE
  5
227
330
1F
100
AcDbEntity
  8
0
  6
Continuous
 62
     7
370
    15
100
AcDbLine
 10
252.3687218806
 20
229.1710958464
 30
0.0
 11
252.3687218806
 21
227.1710955186
 31
0.0
  0
LINE
  5
228
330
1F
100
AcDbEntity
  8
0
  6
Continuous
 62
     7
370
    15
100
AcDbLine
 10
286.8687210164
 20
227.1710955186
 30
0.0
 11
286.8687210164
 21
229.1710958464
 31
0.0
  0
LINE
  5
229
330
1F
100
AcDbEntity
  8
0
  6
Continuous
 62
     7
370
    15
100
AcDbLine
 10
252.3687218806
 20
142.6109936668
 30
0.0
 11
252.3687218806
 21
140.610993339
 31
0.0
  0
LINE
  5
22A
330
1F
100
AcDbEntity
  8
0
  6
Continuous
 62
     7
370
    15
100
AcDbLine
 10
286.8687210164
 20
140.610993339
 30
0.0
 11
286.8687210164
 21
142.6109936668
 31
0.0
  0
LINE
  5
22B
330
1F
100
AcDbEntity
  8
0
  6
Continuous
 62
     7
370
    15
100
AcDbLine
 10
286.8687210164
 20
67.1710953696
 30
0.0
 11
286.8687210164
 21
69.1710994227
 31
0.0
  0
LINE
  5
22C
330
1F
100
AcDbEntity
  8
0
  6
Continuous
 62
     7
370
    15
100
AcDbLine
 10
252.3687218806
 20
69.1710994227
 30
0.0
 11
252.3687218806
 21
67.1710953696
 31
0.0
  0
LINE
  5
22D
330
1F
100
AcDbEntity
  8
0
  6
Continuous
 62
     7
370
    15
100
AcDbLine
 10
252.3687218806
 20
48.1710941179
 30
0.0
 11
252.3687218806
 21
46.1710975154
 31
0.0
  0
LINE
  5
22E
330
1F
100
AcDbEntity
  8
0
  6
Continuous
 62
     7
370
    15
100
AcDbLine
 10
286.8687210164
 20
46.1710975154
 30
0.0
 11
286.8687210164
 21
48.1710941179
 31
0.0
  0
LINE
  5
22F
330
1F
100
AcDbEntity
  8
0
  6
Continuous
 62
     7
370
    15
100
AcDbLine
 10
175.0882377407
 20
264.1710997208
 30
0.0
 11
175.0882377407
 21
313.1711021645
 31
0.0
  0
LINE
  5
230
330
1F
100
AcDbEntity
  8
0
  6
Continuous
 62
     7
370
    15
100
AcDbLine
 10
159.0882351181
 20
313.1711021645
 30
0.0
 11
159.0882351181
 21
264.1710997208
 31
0.0
  0
LINE
  5
231
330
1F
100
AcDbEntity
  8
0
  6
Continuous
 62
     7
370
    15
100
AcDbLine
 10
175.0882377407
 20
160.6109928919
 30
0.0
 11
175.0882377407
 21
213.1710969491
 31
0.0
  0
LINE
  5
232
330
1F
100
AcDbEntity
  8
0
  6
Continuous
 62
     7
370
    15
100
AcDbLine
 10
159.0882351181
 20
213.1710969491
 30
0.0
 11
159.0882351181
 21
160.6109928919
 31
0.0
  0
LINE
  5
233
330
1F
100
AcDbEntity
  8
0
  6
Continuous
 62
     7
370
    15
100
AcDbLine
 10
175.0882377407
 20
83.1710979922
 30
0.0
 11
175.0882377407
 21
126.6109929068
 31
0.0
  0
LINE
  5
234
330
1F
100
AcDbEntity
  8
0
  6
Continuous
 62
     7
370
    15
100
AcDbLine
 10
159.0882351181
 20
126.6109929068
 30
0.0
 11
159.0882351181
 21
83.1710979922
 31
0.0
  0
LINE
  5
235
330
1F
100
AcDbEntity
  8
0
  6
Continuous
 62
     7
370
    15
100
AcDbLine
 10
175.0882377407
 20
-16.8289109485
 30
0.0
 11
175.0882377407
 21
32.1710989459
 31
0.0
  0
LINE
  5
236
330
1F
100
AcDbEntity
  8
0
  6
Continuous
 62
     7
370
    15
100
AcDbLine
 10
159.0882351181
 20
32.1710989459
 30
0.0
 11
159.0882351181
 21
-16.8289109485
 31
0.0
  0
LINE
  5
237
330
1F
100
AcDbEntity
  8
0
  6
Continuous
 62
     7
370
    15
100
AcDbLine
 10
277.6187208972
 20
264.1710997208
 30
0.0
 11
277.6187208972
 21
313.1711021645
 31
0.0
  0
LINE
  5
238
330
1F
100
AcDbEntity
  8
0
  6
Continuous
 62
     7
370
    15
100
AcDbLine
 10
261.6187219998
 20
313.1711021645
 30
0.0
 11
261.6187219998
 21
264.1710997208
 31
0.0
  0
LINE
  5
239
330
1F
100
AcDbEntity
  8
0
  6
Continuous
 62
     7
370
    15
100
AcDbLine
 10
277.6187208972
 20
160.6109928919
 30
0.0
 11
277.6187208972
 21
213.1710969491
 31
0.0
  0
LINE
  5
23A
330
1F
100
AcDbEntity
  8
0
  6
Continuous
 62
     7
370
    15
100
AcDbLine
 10
261.6187219998
 20
213.1710969491
 30
0.0
 11
261.6187219998
 21
160.6109928919
 31
0.0
  0
LINE
  5
23B
330
1F
100
AcDbEntity
  8
0
  6
Continuous
 62
     7
370
    15
100
AcDbLine
 10
277.6187208972
 20
83.1710979922
 30
0.0
 11
277.6187208972
 21
126.6109929068
 31
0.0
  0
LINE
  5
23C
330
1F
100
AcDbEntity
  8
0
  6
Continuous
 62
     7
370
    15
100
AcDbLine
 10
261.6187219998
 20
126.6109929068
 30
0.0
 11
261.6187219998
 21
83.1710979922
 31
0.0
  0
LINE
  5
23D
330
1F
100
AcDbEntity
  8
0
  6
Continuous
 62
     7
370
    15
100
AcDbLine
 10
277.6187208972
 20
-16.8289109485
 30
0.0
 11
277.6187208972
 21
32.1710989459
 31
0.0
  0
LINE
  5
23E
330
1F
100
AcDbEntity
  8
0
  6
Continuous
 62
     7
370
    15
100
AcDbLine
 10
261.6187219998
 20
32.1710989459
 30
0.0
 11
261.6187219998
 21
-16.8289109485
 31
0.0
  0
LINE
  5
23F
330
1F
100
AcDbEntity
  8
0
  6
Continuous
 62
     7
370
    15
100
AcDbLine
 10
255.8068099922
 20
214.2172031684
 30
0.0
 11
257.6187213442
 21
213.1710969491
 31
0.0
  0
LINE
  5
240
330
1F
100
AcDbEntity
  8
0
  6
Continuous
 62
     7
370
    15
100
AcDbLine
 10
255.8068099922
 20
127.6570991261
 30
0.0
 11
257.6187213442
 21
126.6109929068
 31
0.0
  0
LINE
  5
241
330
1F
100
AcDbEntity
  8
0
  6
Continuous
 62
     7
370
    15
100
AcDbLine
 10
255.8068099922
 20
33.2172051652
 30
0.0
 11
257.6187213442
 21
32.1710989459
 31
0.0
  0
LINE
  5
242
330
1F
100
AcDbEntity
  8
0
  6
Continuous
 62
     7
370
    15
100
AcDbLine
 10
180.9446474096
 20
263.099296449
 30
0.0
 11
179.0882383964
 21
264.1710997208
 31
0.0
  0
LINE
  5
243
330
1F
100
AcDbEntity
  8
0
  6
Continuous
 62
     7
370
    15
100
AcDbLine
 10
155.088241913
 20
264.1710997208
 30
0.0
 11
153.2318328998
 21
263.099296449
 31
0.0
  0
LINE
  5
244
330
1F
100
AcDbEntity
  8
0
  6
Continuous
 62
     7
370
    15
100
AcDbLine
 10
180.9446474096
 20
82.099302171
 30
0.0
 11
179.0882383964
 21
83.1710979922
 31
0.0
  0
LINE
  5
245
330
1F
100
AcDbEntity
  8
0
  6
Continuous
 62
     7
370
    15
100
AcDbLine
 10
155.088241913
 20
83.1710979922
 30
0.0
 11
153.2318328998
 21
82.099302171
 31
0.0
  0
LINE
  5
246
330
1F
100
AcDbEntity
  8
0
  6
Continuous
 62
     7
370
    15
100
AcDbLine
 10
281.6187215528
 20
213.1710969491
 30
0.0
 11
283.4306319735
 21
214.2172031684
 31
0.0
  0
LINE
  5
247
330
1F
100
AcDbEntity
  8
0
  6
Continuous
 62
     7
370
    15
100
AcDbLine
 10
281.6187215528
 20
126.6109929068
 30
0.0
 11
283.4306319735
 21
127.6570991261
 31
0.0
  0
LINE
  5
248
330
1F
100
AcDbEntity
  8
0
  6
Continuous
 62
     7
370
    15
100
AcDbLine
 10
281.6187215528
 20
32.1710989459
 30
0.0
 11
283.4306319735
 21
33.2172051652
 31
0.0
  0
LINE
  5
249
330
1F
100
AcDbEntity
  8
0
  6
Continuous
 62
     7
370
    15
100
AcDbLine
 10
175.0882377407
 20
168.1710964416
 30
0.0
 11
261.6187219998
 21
168.1710964416
 31
0.0
  0
LINE
  5
24A
330
1F
100
AcDbEntity
  8
0
  6
Continuous
 62
     7
370
    15
100
AcDbLine
 10
258.3534799075
 20
83.1710979922
 30
0.0
 11
258.3534799075
 21
126.6109929068
 31
0.0
  0
LINE
  5
24B
330
1F
100
AcDbEntity
  8
0
  6
Continuous
 62
     7
370
    15
100
AcDbLine
 10
178.3534770391
 20
126.6109929068
 30
0.0
 11
178.3534770391
 21
83.1710979922
 31
0.0
  0
LINE
  5
24C
330
1F
100
AcDbEntity
  8
0
  6
Continuous
 62
     7
370
    15
100
AcDbLine
 10
153.2763277671
 20
214.2172031684
 30
0.0
 11
155.088241913
 21
213.1710969491
 31
0.0
  0
LINE
  5
24D
330
1F
100
AcDbEntity
  8
0
  6
Continuous
 62
     7
370
    15
100
AcDbLine
 10
153.2763277671
 20
127.6570991261
 30
0.0
 11
155.088241913
 21
126.6109929068
 31
0.0
  0
LINE
  5
24E
330
1F
100
AcDbEntity
  8
0
  6
Continuous
 62
     7
370
    15
100
AcDbLine
 10
153.2763277671
 20
33.2172051652
 30
0.0
 11
155.088241913
 21
32.1710989459
 31
0.0
  0
LINE
  5
24F
330
1F
100
AcDbEntity
  8
0
  6
Continuous
 62
     7
370
    15
100
AcDbLine
 10
283.4751268408
 20
263.099296449
 30
0.0
 11
281.6187215528
 21
264.1710997208
 31
0.0
  0
LINE
  5
250
330
1F
100
AcDbEntity
  8
0
  6
Continuous
 62
     7
370
    15
100
AcDbLine
 10
257.6187213442
 20
264.1710997208
 30
0.0
 11
255.7623151249
 21
263.099296449
 31
0.0
  0
LINE
  5
251
330
1F
100
AcDbEntity
  8
0
  6
Continuous
 62
     7
370
    15
100
AcDbLine
 10
283.4751268408
 20
82.099302171
 30
0.0
 11
281.6187215528
 21
83.1710979922
 31
0.0
  0
LINE
  5
252
330
1F
100
AcDbEntity
  8
0
  6
Continuous
 62
     7
370
    15
100
AcDbLine
 10
179.0882383964
 20
32.1710989459
 30
0.0
 11
180.9001525423
 21
33.2172051652
 31
0.0
  0
LINE
  5
253
330
1F
100
AcDbEntity
  8
0
  6
Continuous
 62
     7
370
    15
100
AcDbLine
 10
125.8534824035
 20
142.6109936668
 30
0.0
 11
310.8534773371
 21
142.6109936668
 31
0.0
  0
LINE
  5
254
330
1F
100
AcDbEntity
  8
0
  6
Continuous
 62
     7
370
    15
100
AcDbLine
 10
125.8534824035
 20
160.6109928919
 30
0.0
 11
310.8534773371
 21
160.6109928919
 31
0.0
  0
LINE
  5
255
330
1F
100
AcDbEntity
  8
0
  6
Continuous
 62
     7
370
    15
100
AcDbLine
 10
125.8534824035
 20
48.1710941179
 30
0.0
 11
310.8534773371
 21
48.1710941179
 31
0.0
  0
LINE
  5
256
330
1F
100
AcDbEntity
  8
0
  6
Continuous
 62
     7
370
    15
100
AcDbLine
 10
125.8534824035
 20
67.1710953696
 30
0.0
 11
310.8534773371
 21
67.1710953696
 31
0.0
  0
LINE
  5
257
330
1F
100
AcDbEntity
  8
0
  6
Continuous
 62
     7
370
    15
100
AcDbLine
 10
129.479128637
 20
64.9686664923
 30
0.0
 11
129.4541989944
 21
65.1710987671
 31
0.0
  0
LINE
  5
258
330
1F
100
AcDbEntity
  8
0
  6
Continuous
 62
     7
370
    15
100
AcDbLine
 10
131.3419227979
 20
62.7068117841
 30
0.0
 11
131.4411347291
 21
63.3925259693
 31
0.0
  0
LINE
  5
259
330
1F
100
AcDbEntity
  8
0
  6
Continuous
 62
     7
370
    15
100
AcDbLine
 10
133.5758303782
 20
65.1710987671
 30
0.0
 11
133.5758303782
 21
63.3925259693
 31
0.0
  0
SPLINE
  5
25A
330
1F
100
AcDbEntity
  8
0
  6
Continuous
 62
     7
370
    15
100
AcDbSpline
210
0.0
220
0.0
230
1.0
 70
     8
 71
     3
 72
     9
 73
     5
 74
     0
 42
0.00000001
 43
0.00000001
 12
1.0
 22
0.0
 32
0.0
 13
1.0
 23
0.0
 33
0.0
 40
0.0
 40
0.0
 40
0.0
 40
0.0
 40
0.4992519155076239
 40
1.0
 40
1.0
 40
1.0
 40
1.0
 10
133.390072555064
 20
56.59966786770916
 30
0.0
 10
133.2448971016476
 20
57.05099061086393
 30
0.0
 10
132.9541111298627
 20
57.9549886309734
 30
0.0
 10
132.6768566219368
 20
58.86169421935764
 30
0.0
 10
132.538021958176
 20
59.31572530593954
 30
0.0
  0
SPLINE
  5
25B
330
1F
100
AcDbEntity
  8
0
  6
Continuous
 62
     7
370
    15
100
AcDbSpline
210
0.0
220
0.0
230
1.0
 70
     8
 71
     3
 72
     8
 73
     4
 74
     0
 42
0.00000001
 43
0.00000001
 12
1.0
 22
0.0
 32
0.0
 13
1.0
 23
0.0
 33
0.0
 40
0.0
 40
0.0
 40
0.0
 40
0.0
 40
1.0
 40
1.0
 40
1.0
 40
1.0
 10
132.538021958176
 20
59.31572530593957
 30
0.0
 10
132.8847834811888
 20
59.49879220111268
 30
0.0
 10
133.2094859548273
 20
60.11670939598296
 30
0.0
 10
133.3532291446805
 20
60.9925250105663
 30
0.0
  0
LINE
  5
25C
330
1F
100
AcDbEntity
  8
0
  6
Continuous
 62
     7
370
    15
100
AcDbLine
 10
133.5758303782
 20
62.7068117841
 30
0.0
 11
133.5758303782
 21
60.9925225957
 31
0.0
  0
LINE
  5
25D
330
1F
100
AcDbEntity
  8
0
  6
Continuous
 62
     7
370
    15
100
AcDbLine
 10
310.8534773371
 20
248.1710970981
 30
0.0
 11
125.8534824035
 21
248.1710970981
 31
0.0
  0
LINE
  5
25E
330
1F
100
AcDbEntity
  8
0
  6
Continuous
 62
     7
370
    15
100
AcDbLine
 10
310.8534773371
 20
229.1710958464
 30
0.0
 11
125.8534824035
 21
229.1710958464
 31
0.0
  0
LINE
  5
25F
330
1F
100
AcDbEntity
  8
0
  6
Continuous
 62
     7
370
    15
100
AcDbLine
 10
149.8382349989
 20
250.1710937007
 30
0.0
 11
184.3382378599
 21
250.1710937007
 31
0.0
  0
LINE
  5
260
330
1F
100
AcDbEntity
  8
0
  6
Continuous
 62
     7
370
    15
100
AcDbLine
 10
184.3382378599
 20
227.1710955186
 30
0.0
 11
149.8382349989
 21
227.1710955186
 31
0.0
  0
LINE
  5
261
330
1F
100
AcDbEntity
  8
0
  6
Continuous
 62
     7
370
    15
100
AcDbLine
 10
184.3382378599
 20
140.610993339
 30
0.0
 11
149.8382349989
 21
140.610993339
 31
0.0
  0
LINE
  5
262
330
1F
100
AcDbEntity
  8
0
  6
Continuous
 62
     7
370
    15
100
AcDbLine
 10
149.8382349989
 20
69.1710994227
 30
0.0
 11
184.3382378599
 21
69.1710994227
 31
0.0
  0
LINE
  5
263
330
1F
100
AcDbEntity
  8
0
  6
Continuous
 62
     7
370
    15
100
AcDbLine
 10
184.3382378599
 20
46.1710975154
 30
0.0
 11
149.8382349989
 21
46.1710975154
 31
0.0
  0
LINE
  5
264
330
1F
100
AcDbEntity
  8
0
  6
Continuous
 62
     7
370
    15
100
AcDbLine
 10
252.3687218806
 20
250.1710937007
 30
0.0
 11
286.8687210164
 21
250.1710937007
 31
0.0
  0
LINE
  5
265
330
1F
100
AcDbEntity
  8
0
  6
Continuous
 62
     7
370
    15
100
AcDbLine
 10
254.7290769896
 20
227.1710955186
 30
0.0
 11
252.3687218806
 21
227.1710955186
 31
0.0
  0
LINE
  5
266
330
1F
100
AcDbEntity
  8
0
  6
Continuous
 62
     7
370
    15
100
AcDbLine
 10
286.8687210164
 20
227.1710955186
 30
0.0
 11
254.7290769896
 21
227.1710955186
 31
0.0
  0
LINE
  5
267
330
1F
100
AcDbEntity
  8
0
  6
Continuous
 62
     7
370
    15
100
AcDbLine
 10
254.7290769896
 20
140.610993339
 30
0.0
 11
252.3687218806
 21
140.610993339
 31
0.0
  0
LINE
  5
268
330
1F
100
AcDbEntity
  8
0
  6
Continuous
 62
     7
370
    15
100
AcDbLine
 10
286.8687210164
 20
140.610993339
 30
0.0
 11
254.7290769896
 21
140.610993339
 31
0.0
  0
LINE
  5
269
330
1F
100
AcDbEntity
  8
0
  6
Continuous
 62
     7
370
    15
100
AcDbLine
 10
252.3687218806
 20
69.1710994227
 30
0.0
 11
286.8687210164
 21
69.1710994227
 31
0.0
  0
LINE
  5
26A
330
1F
100
AcDbEntity
  8
0
  6
Continuous
 62
     7
370
    15
100
AcDbLine
 10
254.7290769896
 20
46.1710975154
 30
0.0
 11
252.3687218806
 21
46.1710975154
 31
0.0
  0
LINE
  5
26B
330
1F
100
AcDbEntity
  8
0
  6
Continuous
 62
     7
370
    15
100
AcDbLine
 10
286.8687210164
 20
46.1710975154
 30
0.0
 11
254.7290769896
 21
46.1710975154
 31
0.0
  0
SPLINE
  5
26C
330
1F
100
AcDbEntity
  8
0
  6
Continuous
 62
     7
370
    15
100
AcDbSpline
210
0.0
220
0.0
230
1.0
 70
     8
 71
     3
 72
    12
 73
     8
 74
     0
 42
0.00000001
 43
0.00000001
 12
1.0
 22
0.0
 32
0.0
 13
1.0
 23
0.0
 33
0.0
 40
0.0
 40
0.0
 40
0.0
 40
0.0
 40
0.2499999999999999
 40
0.2499999999999999
 40
0.4999999999999998
 40
0.4999999999999998
 40
1.0
 40
1.0
 40
1.0
 40
1.0
 10
275.6187216807043
 20
264.1710964391379
 30
0.0
 10
275.1095217257109
 20
264.1710964391379
 30
0.0
 10
274.5980372487354
 20
264.1457631858448
 30
0.0
 10
273.5862144114593
 20
264.0477262987679
 30
0.0
 10
273.0836871273607
 20
263.9751169298391
 30
0.0
 10
271.5850305750774
 20
263.6950702309052
 30
0.0
 10
270.5977918784617
 20
263.4256564019994
 30
0.0
 10
269.6187216807042
 20
263.0992996694135
 30
0.0
  0
SPLINE
  5
26D
330
1F
100
AcDbEntity
  8
0
  6
Continuous
 62
     7
370
    15
100
AcDbSpline
210
0.0
220
0.0
230
1.0
 70
     8
 71
     3
 72
    10
 73
     6
 74
     0
 42
0.00000001
 43
0.00000001
 12
1.0
 22
0.0
 32
0.0
 13
1.0
 23
0.0
 33
0.0
 40
0.0
 40
0.0
 40
0.0
 40
0.0
 40
0.5
 40
0.5
 40
1.0
 40
1.0
 40
1.0
 40
1.0
 10
281.6187216807043
 20
263.0992996694137
 30
0.0
 10
280.6372003973697
 20
263.4264734305252
 30
0.0
 10
279.6485097050758
 20
263.6960159744435
 30
0.0
 10
277.6504586929726
 20
264.0689484827018
 30
0.0
 10
276.6409438655365
 20
264.1710964391379
 30
0.0
 10
275.6187216807043
 20
264.1710964391379
 30
0.0
  0
LINE
  5
26E
330
1F
100
AcDbEntity
  8
0
  6
Continuous
 62
     7
370
    15
100
AcDbLine
 10
281.6187215528
 20
263.099296449
 30
0.0
 11
281.6187215528
 21
250.1710937007
 31
0.0
  0
LINE
  5
26F
330
1F
100
AcDbEntity
  8
0
  6
Continuous
 62
     7
370
    15
100
AcDbLine
 10
269.6187214485
 20
263.099296449
 30
0.0
 11
269.6187214485
 21
250.1710937007
 31
0.0
  0
SPLINE
  5
270
330
1F
100
AcDbEntity
  8
0
  6
Continuous
 62
     7
370
    15
100
AcDbSpline
210
0.0
220
0.0
230
1.0
 70
     8
 71
     3
 72
    12
 73
     8
 74
     0
 42
0.00000001
 43
0.00000001
 12
1.0
 22
0.0
 32
0.0
 13
1.0
 23
0.0
 33
0.0
 40
0.0
 40
0.0
 40
0.0
 40
0.0
 40
0.2499999999999998
 40
0.2499999999999998
 40
0.4999999999999996
 40
0.4999999999999996
 40
1.0
 40
1.0
 40
1.0
 40
1.0
 10
263.6187216807043
 20
264.171096439138
 30
0.0
 10
263.1095217257109
 20
264.171096439138
 30
0.0
 10
262.5980372487354
 20
264.1457631858448
 30
0.0
 10
261.5862144114593
 20
264.047726298768
 30
0.0
 10
261.0836871273607
 20
263.9751169298391
 30
0.0
 10
259.5850305750774
 20
263.6950702309052
 30
0.0
 10
258.5977918784616
 20
263.4256564019993
 30
0.0
 10
257.6187216807043
 20
263.0992996694136
 30
0.0
  0
SPLINE
  5
271
330
1F
100
AcDbEntity
  8
0
  6
Continuous
 62
     7
370
    15
100
AcDbSpline
210
0.0
220
0.0
230
1.0
 70
     8
 71
     3
 72
    10
 73
     6
 74
     0
 42
0.00000001
 43
0.00000001
 12
1.0
 22
0.0
 32
0.0
 13
1.0
 23
0.0
 33
0.0
 40
0.0
 40
0.0
 40
0.0
 40
0.0
 40
0.5
 40
0.5
 40
1.0
 40
1.0
 40
1.0
 40
1.0
 10
269.6187216807043
 20
263.0992996694137
 30
0.0
 10
268.6372003973697
 20
263.4264734305252
 30
0.0
 10
267.6485097050758
 20
263.6960159744435
 30
0.0
 10
265.6504586929726
 20
264.0689484827018
 30
0.0
 10
264.6409438655365
 20
264.171096439138
 30
0.0
 10
263.6187216807043
 20
264.171096439138
 30
0.0
  0
LINE
  5
272
330
1F
100
AcDbEntity
  8
0
  6
Continuous
 62
     7
370
    15
100
AcDbLine
 10
257.6187213442
 20
263.099296449
 30
0.0
 11
257.6187213442
 21
250.1710937007
 31
0.0
  0
LINE
  5
273
330
1F
100
AcDbEntity
  8
0
  6
Continuous
 62
     7
370
    15
100
AcDbLine
 10
275.6187205693
 20
264.1710997208
 30
0.0
 11
263.6187223277
 21
264.1710997208
 31
0.0
  0
SPLINE
  5
274
330
1F
100
AcDbEntity
  8
0
  6
Continuous
 62
     7
370
    15
100
AcDbSpline
210
0.0
220
0.0
230
1.0
 70
     8
 71
     3
 72
    12
 73
     8
 74
     0
 42
0.00000001
 43
0.00000001
 12
1.0
 22
0.0
 32
0.0
 13
1.0
 23
0.0
 33
0.0
 40
0.0
 40
0.0
 40
0.0
 40
0.0
 40
0.2499999999999994
 40
0.2499999999999994
 40
0.4999999999999989
 40
0.4999999999999989
 40
1.0
 40
1.0
 40
1.0
 40
1.0
 10
275.6187216807043
 20
83.1710964391379
 30
0.0
 10
275.1095217257109
 20
83.1710964391379
 30
0.0
 10
274.5980372487354
 20
83.14576318584476
 30
0.0
 10
273.5862144114593
 20
83.047726298768
 30
0.0
 10
273.0836871273607
 20
82.97511692983909
 30
0.0
 10
271.5850305750774
 20
82.69507023090515
 30
0.0
 10
270.5977918784617
 20
82.42565640199936
 30
0.0
 10
269.6187216807042
 20
82.09929966941354
 30
0.0
  0
SPLINE
  5
275
330
1F
100
AcDbEntity
  8
0
  6
Continuous
 62
     7
370
    15
100
AcDbSpline
210
0.0
220
0.0
230
1.0
 70
     8
 71
     3
 72
    10
 73
     6
 74
     0
 42
0.00000001
 43
0.00000001
 12
1.0
 22
0.0
 32
0.0
 13
1.0
 23
0.0
 33
0.0
 40
0.0
 40
0.0
 40
0.0
 40
0.0
 40
0.5
 40
0.5
 40
1.0
 40
1.0
 40
1.0
 40
1.0
 10
269.6187216807043
 20
82.0992996694137
 30
0.0
 10
268.6372003973697
 20
82.42647343052519
 30
0.0
 10
267.6485097050758
 20
82.69601597444345
 30
0.0
 10
265.6504586929726
 20
83.06894848270176
 30
0.0
 10
264.6409438655365
 20
83.1710964391379
 30
0.0
 10
263.6187216807043
 20
83.17109643913791
 30
0.0
  0
LINE
  5
276
330
1F
100
AcDbEntity
  8
0
  6
Continuous
 62
     7
370
    15
100
AcDbLine
 10
275.6187205693
 20
83.1710979922
 30
0.0
 11
263.6187223277
 21
83.1710979922
 31
0.0
  0
SPLINE
  5
277
330
1F
100
AcDbEntity
  8
0
  6
Continuous
 62
     7
370
    15
100
AcDbSpline
210
0.0
220
0.0
230
1.0
 70
     8
 71
     3
 72
    10
 73
     6
 74
     0
 42
0.00000001
 43
0.00000001
 12
1.0
 22
0.0
 32
0.0
 13
1.0
 23
0.0
 33
0.0
 40
0.0
 40
0.0
 40
0.0
 40
0.0
 40
0.5
 40
0.5
 40
1.0
 40
1.0
 40
1.0
 40
1.0
 10
281.6187216807043
 20
82.09929966941368
 30
0.0
 10
280.6372003973697
 20
82.42647343052519
 30
0.0
 10
279.6485097050758
 20
82.69601597444347
 30
0.0
 10
277.6504586929726
 20
83.06894848270176
 30
0.0
 10
276.6409438655365
 20
83.1710964391379
 30
0.0
 10
275.6187216807043
 20
83.1710964391379
 30
0.0
  0
LINE
  5
278
330
1F
100
AcDbEntity
  8
0
  6
Continuous
 62
     7
370
    15
100
AcDbLine
 10
281.6187215528
 20
82.099302171
 30
0.0
 11
281.6187215528
 21
69.1710994227
 31
0.0
  0
LINE
  5
279
330
1F
100
AcDbEntity
  8
0
  6
Continuous
 62
     7
370
    15
100
AcDbLine
 10
269.6187214485
 20
82.099302171
 30
0.0
 11
269.6187214485
 21
69.1710994227
 31
0.0
  0
SPLINE
  5
27A
330
1F
100
AcDbEntity
  8
0
  6
Continuous
 62
     7
370
    15
100
AcDbSpline
210
0.0
220
0.0
230
1.0
 70
     8
 71
     3
 72
    12
 73
     8
 74
     0
 42
0.00000001
 43
0.00000001
 12
1.0
 22
0.0
 32
0.0
 13
1.0
 23
0.0
 33
0.0
 40
0.0
 40
0.0
 40
0.0
 40
0.0
 40
0.2500000000000002
 40
0.2500000000000002
 40
0.5000000000000004
 40
0.5000000000000004
 40
1.0
 40
1.0
 40
1.0
 40
1.0
 10
263.6187216807043
 20
83.17109643913791
 30
0.0
 10
263.1095217257109
 20
83.17109643913788
 30
0.0
 10
262.5980372487354
 20
83.14576318584474
 30
0.0
 10
261.5862144114593
 20
83.04772629876798
 30
0.0
 10
261.0836871273607
 20
82.97511692983912
 30
0.0
 10
259.5850305750774
 20
82.69507023090513
 30
0.0
 10
258.5977918784616
 20
82.42565640199936
 30
0.0
 10
257.6187216807043
 20
82.09929966941355
 30
0.0
  0
LINE
  5
27B
330
1F
100
AcDbEntity
  8
0
  6
Continuous
 62
     7
370
    15
100
AcDbLine
 10
257.6187213442
 20
82.099302171
 30
0.0
 11
257.6187213442
 21
69.1710994227
 31
0.0
  0
SPLINE
  5
27C
330
1F
100
AcDbEntity
  8
0
  6
Continuous
 62
     7
370
    15
100
AcDbSpline
210
0.0
220
0.0
230
1.0
 70
     8
 71
     3
 72
    12
 73
     8
 74
     0
 42
0.00000001
 43
0.00000001
 12
1.0
 22
0.0
 32
0.0
 13
1.0
 23
0.0
 33
0.0
 40
0.0
 40
0.0
 40
0.0
 40
0.0
 40
0.2499999999999987
 40
0.2499999999999987
 40
0.4999999999999974
 40
0.4999999999999974
 40
1.0
 40
1.0
 40
1.0
 40
1.0
 10
173.1472444055195
 20
213.1710964391379
 30
0.0
 10
173.6528225000511
 20
213.1710964391379
 30
0.0
 10
174.1600200252053
 20
213.1959878465979
 30
0.0
 10
175.1776121354593
 20
213.2949109708816
 30
0.0
 10
175.6826872299962
 20
213.3684314880717
 30
0.0
 10
177.1808318820868
 20
213.6501861362252
 30
0.0
 10
178.1604810458442
 20
213.9195043589866
 30
0.0
 10
179.1274463622503
 20
214.2428932088624
 30
0.0
  0
SPLINE
  5
27D
330
1F
100
AcDbEntity
  8
0
  6
Continuous
 62
     7
370
    15
100
AcDbSpline
210
0.0
220
0.0
230
1.0
 70
     8
 71
     3
 72
    10
 73
     6
 74
     0
 42
0.00000001
 43
0.00000001
 12
1.0
 22
0.0
 32
0.0
 13
1.0
 23
0.0
 33
0.0
 40
0.0
 40
0.0
 40
0.0
 40
0.0
 40
0.5
 40
0.5
 40
1.0
 40
1.0
 40
1.0
 40
1.0
 10
167.1670424487888
 20
214.2428932088624
 30
0.0
 10
168.1396738476602
 20
213.9176094121248
 30
0.0
 10
169.1358392060481
 20
213.6447824549257
 30
0.0
 10
171.1326800099208
 20
213.2717294923829
 30
0.0
 10
172.1366886232849
 20
213.1710964391379
 30
0.0
 10
173.1472444055195
 20
213.1710964391379
 30
0.0
  0
LINE
  5
27E
330
1F
100
AcDbEntity
  8
0
  6
Continuous
 62
     7
370
    15
100
AcDbLine
 10
167.1670412204
 20
214.2428927703
 30
0.0
 11
167.1670412204
 21
227.1710955186
 31
0.0
  0
LINE
  5
27F
330
1F
100
AcDbEntity
  8
0
  6
Continuous
 62
     7
370
    15
100
AcDbLine
 10
179.1274433515
 20
214.2428927703
 30
0.0
 11
179.1274433515
 21
227.1710955186
 31
0.0
  0
SPLINE
  5
280
330
1F
100
AcDbEntity
  8
0
  6
Continuous
 62
     7
370
    15
100
AcDbSpline
210
0.0
220
0.0
230
1.0
 70
     8
 71
     3
 72
    12
 73
     8
 74
     0
 42
0.00000001
 43
0.00000001
 12
1.0
 22
0.0
 32
0.0
 13
1.0
 23
0.0
 33
0.0
 40
0.0
 40
0.0
 40
0.0
 40
0.0
 40
0.2500000000000007
 40
0.2500000000000007
 40
0.5000000000000014
 40
0.5000000000000014
 40
1.0
 40
1.0
 40
1.0
 40
1.0
 10
161.147438471987
 20
213.1710964391379
 30
0.0
 10
161.6583021509979
 20
213.1710964391379
 30
0.0
 10
162.171457816277
 20
213.1964296924311
 30
0.0
 10
163.1865866121246
 20
213.2944665795079
 30
0.0
 10
163.6907558184265
 20
213.3670759484367
 30
0.0
 10
165.1943089754239
 20
213.6471226473707
 30
0.0
 10
166.184773306124
 20
213.9165364762765
 30
0.0
 10
167.1670424487888
 20
214.2428932088623
 30
0.0
  0
SPLINE
  5
281
330
1F
100
AcDbEntity
  8
0
  6
Continuous
 62
     7
370
    15
100
AcDbSpline
210
0.0
220
0.0
230
1.0
 70
     8
 71
     3
 72
    10
 73
     6
 74
     0
 42
0.00000001
 43
0.00000001
 12
1.0
 22
0.0
 32
0.0
 13
1.0
 23
0.0
 33
0.0
 40
0.0
 40
0.0
 40
0.0
 40
0.0
 40
0.5
 40
0.5
 40
1.0
 40
1.0
 40
1.0
 40
1.0
 10
155.1278344951852
 20
214.2428932088621
 30
0.0
 10
156.1125627319312
 20
213.9157194477506
 30
0.0
 10
157.1044838024578
 20
213.6461769038323
 30
0.0
 10
159.1090631055094
 20
213.273244395574
 30
0.0
 10
160.1218763504885
 20
213.1710964391379
 30
0.0
 10
161.147438471987
 20
213.1710964391379
 30
0.0
  0
LINE
  5
282
330
1F
100
AcDbEntity
  8
0
  6
Continuous
 62
     7
370
    15
100
AcDbLine
 10
155.1278342983
 20
214.2428927703
 30
0.0
 11
155.1278342983
 21
227.1710955186
 31
0.0
  0
LINE
  5
283
330
1F
100
AcDbEntity
  8
0
  6
Continuous
 62
     7
370
    15
100
AcDbLine
 10
161.1474414846
 20
213.1710969491
 30
0.0
 11
173.1472422859
 21
213.1710969491
 31
0.0
  0
SPLINE
  5
284
330
1F
100
AcDbEntity
  8
0
  6
Continuous
 62
     7
370
    15
100
AcDbSpline
210
0.0
220
0.0
230
1.0
 70
     8
 71
     3
 72
    12
 73
     8
 74
     0
 42
0.00000001
 43
0.00000001
 12
1.0
 22
0.0
 32
0.0
 13
1.0
 23
0.0
 33
0.0
 40
0.0
 40
0.0
 40
0.0
 40
0.0
 40
0.2499999999999987
 40
0.2499999999999987
 40
0.4999999999999974
 40
0.4999999999999974
 40
1.0
 40
1.0
 40
1.0
 40
1.0
 10
173.1472444055195
 20
126.6109929857686
 30
0.0
 10
173.6528225000511
 20
126.6109929857686
 30
0.0
 10
174.1600200252053
 20
126.6358843932286
 30
0.0
 10
175.1776121354593
 20
126.7348075175123
 30
0.0
 10
175.6826872299962
 20
126.8083280347024
 30
0.0
 10
177.1808318820868
 20
127.0900826828558
 30
0.0
 10
178.1604810458442
 20
127.3594009056172
 30
0.0
 10
179.1274463622503
 20
127.682789755493
 30
0.0
  0
SPLINE
  5
285
330
1F
100
AcDbEntity
  8
0
  6
Continuous
 62
     7
370
    15
100
AcDbSpline
210
0.0
220
0.0
230
1.0
 70
     8
 71
     3
 72
    10
 73
     6
 74
     0
 42
0.00000001
 43
0.00000001
 12
1.0
 22
0.0
 32
0.0
 13
1.0
 23
0.0
 33
0.0
 40
0.0
 40
0.0
 40
0.0
 40
0.0
 40
0.5
 40
0.5
 40
1.0
 40
1.0
 40
1.0
 40
1.0
 10
167.1670424487888
 20
127.682789755493
 30
0.0
 10
168.1396738476602
 20
127.3575059587554
 30
0.0
 10
169.1358392060481
 20
127.0846790015564
 30
0.0
 10
171.1326800099208
 20
126.7116260390136
 30
0.0
 10
172.1366886232849
 20
126.6109929857686
 30
0.0
 10
173.1472444055195
 20
126.6109929857686
 30
0.0
  0
LINE
  5
286
330
1F
100
AcDbEntity
  8
0
  6
Continuous
 62
     7
370
    15
100
AcDbLine
 10
167.1670412204
 20
127.682788728
 30
0.0
 11
167.1670412204
 21
140.610993339
 31
0.0
  0
LINE
  5
287
330
1F
100
AcDbEntity
  8
0
  6
Continuous
 62
     7
370
    15
100
AcDbLine
 10
179.1274433515
 20
127.682788728
 30
0.0
 11
179.1274433515
 21
140.610993339
 31
0.0
  0
SPLINE
  5
288
330
1F
100
AcDbEntity
  8
0
  6
Continuous
 62
     7
370
    15
100
AcDbSpline
210
0.0
220
0.0
230
1.0
 70
     8
 71
     3
 72
    12
 73
     8
 74
     0
 42
0.00000001
 43
0.00000001
 12
1.0
 22
0.0
 32
0.0
 13
1.0
 23
0.0
 33
0.0
 40
0.0
 40
0.0
 40
0.0
 40
0.0
 40
0.2500000000000007
 40
0.2500000000000007
 40
0.5000000000000014
 40
0.5000000000000014
 40
1.0
 40
1.0
 40
1.0
 40
1.0
 10
161.147438471987
 20
126.6109929857686
 30
0.0
 10
161.6583021509979
 20
126.6109929857686
 30
0.0
 10
162.171457816277
 20
126.6363262390617
 30
0.0
 10
163.1865866121246
 20
126.7343631261385
 30
0.0
 10
163.6907558184265
 20
126.8069724950673
 30
0.0
 10
165.1943089754239
 20
127.0870191940013
 30
0.0
 10
166.184773306124
 20
127.3564330229071
 30
0.0
 10
167.1670424487888
 20
127.6827897554929
 30
0.0
  0
SPLINE
  5
289
330
1F
100
AcDbEntity
  8
0
  6
Continuous
 62
     7
370
    15
100
AcDbSpline
210
0.0
220
0.0
230
1.0
 70
     8
 71
     3
 72
    10
 73
     6
 74
     0
 42
0.00000001
 43
0.00000001
 12
1.0
 22
0.0
 32
0.0
 13
1.0
 23
0.0
 33
0.0
 40
0.0
 40
0.0
 40
0.0
 40
0.0
 40
0.5
 40
0.5
 40
1.0
 40
1.0
 40
1.0
 40
1.0
 10
155.1278344951852
 20
127.6827897554928
 30
0.0
 10
156.1125627319312
 20
127.3556159943813
 30
0.0
 10
157.1044838024578
 20
127.086073450463
 30
0.0
 10
159.1090631055094
 20
126.7131409422047
 30
0.0
 10
160.1218763504885
 20
126.6109929857686
 30
0.0
 10
161.147438471987
 20
126.6109929857686
 30
0.0
  0
LINE
  5
28A
330
1F
100
AcDbEntity
  8
0
  6
Continuous
 62
     7
370
    15
100
AcDbLine
 10
155.1278342983
 20
127.682788728
 30
0.0
 11
155.1278342983
 21
140.610993339
 31
0.0
  0
LINE
  5
28B
330
1F
100
AcDbEntity
  8
0
  6
Continuous
 62
     7
370
    15
100
AcDbLine
 10
161.1474414846
 20
126.6109929068
 30
0.0
 11
173.1472422859
 21
126.6109929068
 31
0.0
  0
SPLINE
  5
28C
330
1F
100
AcDbEntity
  8
0
  6
Continuous
 62
     7
370
    15
100
AcDbSpline
210
0.0
220
0.0
230
1.0
 70
     8
 71
     3
 72
    12
 73
     8
 74
     0
 42
0.00000001
 43
0.00000001
 12
1.0
 22
0.0
 32
0.0
 13
1.0
 23
0.0
 33
0.0
 40
0.0
 40
0.0
 40
0.0
 40
0.0
 40
0.2499999999999992
 40
0.2499999999999992
 40
0.4999999999999984
 40
0.4999999999999984
 40
1.0
 40
1.0
 40
1.0
 40
1.0
 10
173.1472444055195
 20
32.17109643913791
 30
0.0
 10
173.6528225000511
 20
32.17109643913788
 30
0.0
 10
174.1600200252053
 20
32.19598784659791
 30
0.0
 10
175.1776121354593
 20
32.29491097088164
 30
0.0
 10
175.6826872299962
 20
32.36843148807175
 30
0.0
 10
177.1808318820868
 20
32.65018613622509
 30
0.0
 10
178.1604810458442
 20
32.91950435898658
 30
0.0
 10
179.1274463622503
 20
33.2428932088624
 30
0.0
  0
SPLINE
  5
28D
330
1F
100
AcDbEntity
  8
0
  6
Continuous
 62
     7
370
    15
100
AcDbSpline
210
0.0
220
0.0
230
1.0
 70
     8
 71
     3
 72
    10
 73
     6
 74
     0
 42
0.00000001
 43
0.00000001
 12
1.0
 22
0.0
 32
0.0
 13
1.0
 23
0.0
 33
0.0
 40
0.0
 40
0.0
 40
0.0
 40
0.0
 40
0.5
 40
0.5
 40
1.0
 40
1.0
 40
1.0
 40
1.0
 10
167.1670424487888
 20
33.24289320886237
 30
0.0
 10
168.1396738476602
 20
32.91760941212479
 30
0.0
 10
169.1358392060481
 20
32.64478245492569
 30
0.0
 10
171.1326800099208
 20
32.27172949238294
 30
0.0
 10
172.1366886232849
 20
32.17109643913788
 30
0.0
 10
173.1472444055195
 20
32.17109643913791
 30
0.0
  0
LINE
  5
28E
330
1F
100
AcDbEntity
  8
0
  6
Continuous
 62
     7
370
    15
100
AcDbLine
 10
167.1670412204
 20
33.2428947671
 30
0.0
 11
167.1670412204
 21
46.1710975154
 31
0.0
  0
LINE
  5
28F
330
1F
100
AcDbEntity
  8
0
  6
Continuous
 62
     7
370
    15
100
AcDbLine
 10
179.1274433515
 20
33.2428947671
 30
0.0
 11
179.1274433515
 21
46.1710975154
 31
0.0
  0
SPLINE
  5
290
330
1F
100
AcDbEntity
  8
0
  6
Continuous
 62
     7
370
    15
100
AcDbSpline
210
0.0
220
0.0
230
1.0
 70
     8
 71
     3
 72
    12
 73
     8
 74
     0
 42
0.00000001
 43
0.00000001
 12
1.0
 22
0.0
 32
0.0
 13
1.0
 23
0.0
 33
0.0
 40
0.0
 40
0.0
 40
0.0
 40
0.0
 40
0.2500000000000007
 40
0.2500000000000007
 40
0.5000000000000014
 40
0.5000000000000014
 40
1.0
 40
1.0
 40
1.0
 40
1.0
 10
161.147438471987
 20
32.17109643913791
 30
0.0
 10
161.6583021509979
 20
32.17109643913791
 30
0.0
 10
162.171457816277
 20
32.19642969243102
 30
0.0
 10
163.1865866121245
 20
32.29446657950785
 30
0.0
 10
163.6907558184265
 20
32.36707594843671
 30
0.0
 10
165.1943089754239
 20
32.64712264737063
 30
0.0
 10
166.184773306124
 20
32.91653647627643
 30
0.0
 10
167.1670424487888
 20
33.24289320886226
 30
0.0
  0
SPLINE
  5
291
330
1F
100
AcDbEntity
  8
0
  6
Continuous
 62
     7
370
    15
100
AcDbSpline
210
0.0
220
0.0
230
1.0
 70
     8
 71
     3
 72
    10
 73
     6
 74
     0
 42
0.00000001
 43
0.00000001
 12
1.0
 22
0.0
 32
0.0
 13
1.0
 23
0.0
 33
0.0
 40
0.0
 40
0.0
 40
0.0
 40
0.0
 40
0.5
 40
0.5
 40
1.0
 40
1.0
 40
1.0
 40
1.0
 10
155.1278344951852
 20
33.24289320886212
 30
0.0
 10
156.1125627319312
 20
32.91571944775063
 30
0.0
 10
157.1044838024578
 20
32.64617690383234
 30
0.0
 10
159.1090631055094
 20
32.27324439557405
 30
0.0
 10
160.1218763504885
 20
32.17109643913788
 30
0.0
 10
161.147438471987
 20
32.17109643913791
 30
0.0
  0
LINE
  5
292
330
1F
100
AcDbEntity
  8
0
  6
Continuous
 62
     7
370
    15
100
AcDbLine
 10
155.1278342983
 20
33.2428947671
 30
0.0
 11
155.1278342983
 21
46.1710975154
 31
0.0
  0
LINE
  5
293
330
1F
100
AcDbEntity
  8
0
  6
Continuous
 62
     7
370
    15
100
AcDbLine
 10
161.1474414846
 20
32.1710989459
 30
0.0
 11
173.1472422859
 21
32.1710989459
 31
0.0
  0
SPLINE
  5
294
330
1F
100
AcDbEntity
  8
0
  6
Continuous
 62
     7
370
    15
100
AcDbSpline
210
0.0
220
0.0
230
1.0
 70
     8
 71
     3
 72
    12
 73
     8
 74
     0
 42
0.00000001
 43
0.00000001
 12
1.0
 22
0.0
 32
0.0
 13
1.0
 23
0.0
 33
0.0
 40
0.0
 40
0.0
 40
0.0
 40
0.0
 40
0.25
 40
0.25
 40
0.5
 40
0.5
 40
1.0
 40
1.0
 40
1.0
 40
1.0
 10
269.6869679813882
 20
213.1710964391379
 30
0.0
 10
270.274931934734
 20
213.1710964391379
 30
0.0
 10
270.8655337841813
 20
213.1964296924311
 30
0.0
 10
272.0338672642935
 20
213.2944665795079
 30
0.0
 10
272.6141264055705
 20
213.3670759484367
 30
0.0
 10
274.3445979473435
 20
213.6471226473707
 30
0.0
 10
275.4845445660852
 20
213.9165364762765
 30
0.0
 10
276.6150591673365
 20
214.2428932088623
 30
0.0
  0
SPLINE
  5
295
330
1F
100
AcDbEntity
  8
0
  6
Continuous
 62
     7
370
    15
100
AcDbSpline
210
0.0
220
0.0
230
1.0
 70
     8
 71
     3
 72
    10
 73
     6
 74
     0
 42
0.00000001
 43
0.00000001
 12
1.0
 22
0.0
 32
0.0
 13
1.0
 23
0.0
 33
0.0
 40
0.0
 40
0.0
 40
0.0
 40
0.0
 40
0.5
 40
0.5
 40
1.0
 40
1.0
 40
1.0
 40
1.0
 10
262.7588767954398
 20
214.2428932088621
 30
0.0
 10
263.892221620755
 20
213.9157194477506
 30
0.0
 10
265.0338448325734
 20
213.6461769038323
 30
0.0
 10
267.3409581002447
 20
213.273244395574
 30
0.0
 10
268.506626563252
 20
213.1710964391379
 30
0.0
 10
269.6869679813882
 20
213.1710964391379
 30
0.0
  0
LINE
  5
296
330
1F
100
AcDbEntity
  8
0
  6
Continuous
 62
     7
370
    15
100
AcDbLine
 10
262.758876898
 20
214.2428927703
 30
0.0
 11
262.758876898
 21
227.1710955186
 31
0.0
  0
LINE
  5
297
330
1F
100
AcDbEntity
  8
0
  6
Continuous
 62
     7
370
    15
100
AcDbLine
 10
276.6150606355
 20
214.2428927703
 30
0.0
 11
276.6150606355
 21
227.1710955186
 31
0.0
  0
LINE
  5
298
330
1F
100
AcDbEntity
  8
0
  6
Continuous
 62
     7
370
    15
100
AcDbLine
 10
259.2607082358
 20
213.1710969491
 30
0.0
 11
269.6869687668
 21
213.1710969491
 31
0.0
  0
SPLINE
  5
299
330
1F
100
AcDbEntity
  8
0
  6
Continuous
 62
     7
370
    15
100
AcDbSpline
210
0.0
220
0.0
230
1.0
 70
     8
 71
     3
 72
    10
 73
     6
 74
     0
 42
0.00000001
 43
0.00000001
 12
1.0
 22
0.0
 32
0.0
 13
1.0
 23
0.0
 33
0.0
 40
0.0
 40
0.0
 40
0.0
 40
0.0
 40
0.5
 40
0.5
 40
1.0
 40
1.0
 40
1.0
 40
1.0
 10
262.7588767954399
 20
214.2428932088624
 30
0.0
 10
262.1899279902126
 20
213.9176094121248
 30
0.0
 10
261.6072128001404
 20
213.6447824549257
 30
0.0
 10
260.4391442071351
 20
213.2717294923829
 30
0.0
 10
259.8518410400009
 20
213.1710964391379
 30
0.0
 10
259.2607080521238
 20
213.1710964391379
 30
0.0
  0
SPLINE
  5
29A
330
1F
100
AcDbEntity
  8
0
  6
Continuous
 62
     7
370
    15
100
AcDbSpline
210
0.0
220
0.0
230
1.0
 70
     8
 71
     3
 72
    12
 73
     8
 74
     0
 42
0.00000001
 43
0.00000001
 12
1.0
 22
0.0
 32
0.0
 13
1.0
 23
0.0
 33
0.0
 40
0.0
 40
0.0
 40
0.0
 40
0.0
 40
0.25
 40
0.25
 40
0.5
 40
0.5
 40
1.0
 40
1.0
 40
1.0
 40
1.0
 10
269.6869679813882
 20
126.6109929857686
 30
0.0
 10
270.274931934734
 20
126.6109929857686
 30
0.0
 10
270.8655337841813
 20
126.6363262390617
 30
0.0
 10
272.0338672642935
 20
126.7343631261385
 30
0.0
 10
272.6141264055705
 20
126.8069724950673
 30
0.0
 10
274.3445979473435
 20
127.0870191940013
 30
0.0
 10
275.4845445660852
 20
127.3564330229071
 30
0.0
 10
276.6150591673365
 20
127.6827897554929
 30
0.0
  0
SPLINE
  5
29B
330
1F
100
AcDbEntity
  8
0
  6
Continuous
 62
     7
370
    15
100
AcDbSpline
210
0.0
220
0.0
230
1.0
 70
     8
 71
     3
 72
    10
 73
     6
 74
     0
 42
0.00000001
 43
0.00000001
 12
1.0
 22
0.0
 32
0.0
 13
1.0
 23
0.0
 33
0.0
 40
0.0
 40
0.0
 40
0.0
 40
0.0
 40
0.5
 40
0.5
 40
1.0
 40
1.0
 40
1.0
 40
1.0
 10
262.7588767954398
 20
127.6827897554928
 30
0.0
 10
263.892221620755
 20
127.3556159943813
 30
0.0
 10
265.0338448325734
 20
127.086073450463
 30
0.0
 10
267.3409581002447
 20
126.7131409422047
 30
0.0
 10
268.506626563252
 20
126.6109929857686
 30
0.0
 10
269.6869679813882
 20
126.6109929857686
 30
0.0
  0
LINE
  5
29C
330
1F
100
AcDbEntity
  8
0
  6
Continuous
 62
     7
370
    15
100
AcDbLine
 10
262.758876898
 20
127.682788728
 30
0.0
 11
262.758876898
 21
140.610993339
 31
0.0
  0
LINE
  5
29D
330
1F
100
AcDbEntity
  8
0
  6
Continuous
 62
     7
370
    15
100
AcDbLine
 10
276.6150606355
 20
127.682788728
 30
0.0
 11
276.6150606355
 21
140.610993339
 31
0.0
  0
LINE
  5
29E
330
1F
100
AcDbEntity
  8
0
  6
Continuous
 62
     7
370
    15
100
AcDbLine
 10
259.2607082358
 20
126.6109929068
 30
0.0
 11
269.6869687668
 21
126.6109929068
 31
0.0
  0
SPLINE
  5
29F
330
1F
100
AcDbEntity
  8
0
  6
Continuous
 62
     7
370
    15
100
AcDbSpline
210
0.0
220
0.0
230
1.0
 70
     8
 71
     3
 72
    10
 73
     6
 74
     0
 42
0.00000001
 43
0.00000001
 12
1.0
 22
0.0
 32
0.0
 13
1.0
 23
0.0
 33
0.0
 40
0.0
 40
0.0
 40
0.0
 40
0.0
 40
0.5
 40
0.5
 40
1.0
 40
1.0
 40
1.0
 40
1.0
 10
262.7588767954399
 20
127.682789755493
 30
0.0
 10
262.1899279902126
 20
127.3575059587554
 30
0.0
 10
261.6072128001404
 20
127.0846790015563
 30
0.0
 10
260.4391442071351
 20
126.7116260390136
 30
0.0
 10
259.8518410400009
 20
126.6109929857686
 30
0.0
 10
259.2607080521238
 20
126.6109929857686
 30
0.0
  0
SPLINE
  5
2A0
330
1F
100
AcDbEntity
  8
0
  6
Continuous
 62
     7
370
    15
100
AcDbSpline
210
0.0
220
0.0
230
1.0
 70
     8
 71
     3
 72
    12
 73
     8
 74
     0
 42
0.00000001
 43
0.00000001
 12
1.0
 22
0.0
 32
0.0
 13
1.0
 23
0.0
 33
0.0
 40
0.0
 40
0.0
 40
0.0
 40
0.0
 40
0.2499999999999997
 40
0.2499999999999997
 40
0.4999999999999993
 40
0.4999999999999993
 40
1.0
 40
1.0
 40
1.0
 40
1.0
 10
269.6869679813882
 20
32.17109643913791
 30
0.0
 10
270.274931934734
 20
32.17109643913793
 30
0.0
 10
270.8655337841813
 20
32.19642969243108
 30
0.0
 10
272.0338672642935
 20
32.29446657950785
 30
0.0
 10
272.6141264055705
 20
32.36707594843666
 30
0.0
 10
274.3445979473435
 20
32.64712264737069
 30
0.0
 10
275.4845445660852
 20
32.91653647627643
 30
0.0
 10
276.6150591673365
 20
33.24289320886226
 30
0.0
  0
SPLINE
  5
2A1
330
1F
100
AcDbEntity
  8
0
  6
Continuous
 62
     7
370
    15
100
AcDbSpline
210
0.0
220
0.0
230
1.0
 70
     8
 71
     3
 72
    10
 73
     6
 74
     0
 42
0.00000001
 43
0.00000001
 12
1.0
 22
0.0
 32
0.0
 13
1.0
 23
0.0
 33
0.0
 40
0.0
 40
0.0
 40
0.0
 40
0.0
 40
0.5
 40
0.5
 40
1.0
 40
1.0
 40
1.0
 40
1.0
 10
262.7588767954398
 20
33.24289320886212
 30
0.0
 10
263.892221620755
 20
32.91571944775063
 30
0.0
 10
265.0338448325734
 20
32.64617690383234
 30
0.0
 10
267.3409581002447
 20
32.27324439557405
 30
0.0
 10
268.506626563252
 20
32.17109643913788
 30
0.0
 10
269.6869679813882
 20
32.17109643913791
 30
0.0
  0
LINE
  5
2A2
330
1F
100
AcDbEntity
  8
0
  6
Continuous
 62
     7
370
    15
100
AcDbLine
 10
262.758876898
 20
33.2428947671
 30
0.0
 11
262.758876898
 21
46.1710975154
 31
0.0
  0
LINE
  5
2A3
330
1F
100
AcDbEntity
  8
0
  6
Continuous
 62
     7
370
    15
100
AcDbLine
 10
276.6150606355
 20
33.2428947671
 30
0.0
 11
276.6150606355
 21
46.1710975154
 31
0.0
  0
LINE
  5
2A4
330
1F
100
AcDbEntity
  8
0
  6
Continuous
 62
     7
370
    15
100
AcDbLine
 10
259.2607082358
 20
32.1710989459
 30
0.0
 11
269.6869687668
 21
32.1710989459
 31
0.0
  0
SPLINE
  5
2A5
330
1F
100
AcDbEntity
  8
0
  6
Continuous
 62
     7
370
    15
100
AcDbSpline
210
0.0
220
0.0
230
1.0
 70
     8
 71
     3
 72
    10
 73
     6
 74
     0
 42
0.00000001
 43
0.00000001
 12
1.0
 22
0.0
 32
0.0
 13
1.0
 23
0.0
 33
0.0
 40
0.0
 40
0.0
 40
0.0
 40
0.0
 40
0.5
 40
0.5
 40
1.0
 40
1.0
 40
1.0
 40
1.0
 10
262.7588767954399
 20
33.24289320886234
 30
0.0
 10
262.1899279902126
 20
32.91760941212477
 30
0.0
 10
261.6072128001404
 20
32.64478245492569
 30
0.0
 10
260.4391442071351
 20
32.27172949238294
 30
0.0
 10
259.8518410400009
 20
32.17109643913788
 30
0.0
 10
259.2607080521238
 20
32.17109643913791
 30
0.0
  0
SPLINE
  5
2A6
330
1F
100
AcDbEntity
  8
0
  6
Continuous
 62
     7
370
    15
100
AcDbSpline
210
0.0
220
0.0
230
1.0
 70
     8
 71
     3
 72
    10
 73
     6
 74
     0
 42
0.00000001
 43
0.00000001
 12
1.0
 22
0.0
 32
0.0
 13
1.0
 23
0.0
 33
0.0
 40
0.0
 40
0.0
 40
0.0
 40
0.0
 40
0.5
 40
0.5
 40
1.0
 40
1.0
 40
1.0
 40
1.0
 10
276.6150591673364
 20
214.2428932088621
 30
0.0
 10
277.1761494802748
 20
213.9157194477506
 30
0.0
 10
277.7413382126616
 20
213.6461769038323
 30
0.0
 10
278.8835315473177
 20
213.273244395574
 30
0.0
 10
279.4606244744498
 20
213.1710964391379
 30
0.0
 10
280.0449816099687
 20
213.1710964391379
 30
0.0
  0
LINE
  5
2A7
330
1F
100
AcDbEntity
  8
0
  6
Continuous
 62
     7
370
    15
100
AcDbLine
 10
269.6869687668
 20
213.1710969491
 30
0.0
 11
280.0449801168
 21
213.1710969491
 31
0.0
  0
SPLINE
  5
2A8
330
1F
100
AcDbEntity
  8
0
  6
Continuous
 62
     7
370
    15
100
AcDbSpline
210
0.0
220
0.0
230
1.0
 70
     8
 71
     3
 72
    10
 73
     6
 74
     0
 42
0.00000001
 43
0.00000001
 12
1.0
 22
0.0
 32
0.0
 13
1.0
 23
0.0
 33
0.0
 40
0.0
 40
0.0
 40
0.0
 40
0.0
 40
0.5
 40
0.5
 40
1.0
 40
1.0
 40
1.0
 40
1.0
 10
276.6150591673364
 20
127.6827897554928
 30
0.0
 10
277.1761494802748
 20
127.3556159943813
 30
0.0
 10
277.7413382126616
 20
127.086073450463
 30
0.0
 10
278.8835315473177
 20
126.7131409422047
 30
0.0
 10
279.4606244744498
 20
126.6109929857686
 30
0.0
 10
280.0449816099687
 20
126.6109929857686
 30
0.0
  0
LINE
  5
2A9
330
1F
100
AcDbEntity
  8
0
  6
Continuous
 62
     7
370
    15
100
AcDbLine
 10
269.6869687668
 20
126.6109929068
 30
0.0
 11
280.0449801168
 21
126.6109929068
 31
0.0
  0
SPLINE
  5
2AA
330
1F
100
AcDbEntity
  8
0
  6
Continuous
 62
     7
370
    15
100
AcDbSpline
210
0.0
220
0.0
230
1.0
 70
     8
 71
     3
 72
    10
 73
     6
 74
     0
 42
0.00000001
 43
0.00000001
 12
1.0
 22
0.0
 32
0.0
 13
1.0
 23
0.0
 33
0.0
 40
0.0
 40
0.0
 40
0.0
 40
0.0
 40
0.5
 40
0.5
 40
1.0
 40
1.0
 40
1.0
 40
1.0
 10
276.6150591673364
 20
33.24289320886212
 30
0.0
 10
277.1761494802748
 20
32.91571944775063
 30
0.0
 10
277.7413382126616
 20
32.64617690383234
 30
0.0
 10
278.8835315473177
 20
32.27324439557405
 30
0.0
 10
279.4606244744498
 20
32.17109643913788
 30
0.0
 10
280.0449816099687
 20
32.17109643913791
 30
0.0
  0
LINE
  5
2AB
330
1F
100
AcDbEntity
  8
0
  6
Continuous
 62
     7
370
    15
100
AcDbLine
 10
269.6869687668
 20
32.1710989459
 30
0.0
 11
280.0449801168
 21
32.1710989459
 31
0.0
  0
SPLINE
  5
2AC
330
1F
100
AcDbEntity
  8
0
  6
Continuous
 62
     7
370
    15
100
AcDbSpline
210
0.0
220
0.0
230
1.0
 70
     8
 71
     3
 72
    12
 73
     8
 74
     0
 42
0.00000001
 43
0.00000001
 12
1.0
 22
0.0
 32
0.0
 13
1.0
 23
0.0
 33
0.0
 40
0.0
 40
0.0
 40
0.0
 40
0.0
 40
0.2500000000000013
 40
0.2500000000000013
 40
0.5000000000000026
 40
0.5000000000000026
 40
1.0
 40
1.0
 40
1.0
 40
1.0
 10
259.2607080521238
 20
213.1710964391379
 30
0.0
 10
258.9649659517078
 20
213.1710964391379
 30
0.0
 10
258.6682765519151
 20
213.1959878465979
 30
0.0
 10
258.0730276055933
 20
213.2949109708816
 30
0.0
 10
257.7775797391967
 20
213.3684314880717
 30
0.0
 10
256.9012275971071
 20
213.6501861362252
 30
0.0
 10
256.3281736920939
 20
213.9195043589866
 30
0.0
 10
255.7625393088077
 20
214.2428932088624
 30
0.0
  0
LINE
  5
2AD
330
1F
100
AcDbEntity
  8
0
  6
Continuous
 62
     7
370
    15
100
AcDbLine
 10
255.7625395736
 20
214.2428927703
 30
0.0
 11
255.7625395736
 21
227.1710955186
 31
0.0
  0
SPLINE
  5
2AE
330
1F
100
AcDbEntity
  8
0
  6
Continuous
 62
     7
370
    15
100
AcDbSpline
210
0.0
220
0.0
230
1.0
 70
     8
 71
     3
 72
    12
 73
     8
 74
     0
 42
0.00000001
 43
0.00000001
 12
1.0
 22
0.0
 32
0.0
 13
1.0
 23
0.0
 33
0.0
 40
0.0
 40
0.0
 40
0.0
 40
0.0
 40
0.2500000000000013
 40
0.2500000000000013
 40
0.5000000000000026
 40
0.5000000000000026
 40
1.0
 40
1.0
 40
1.0
 40
1.0
 10
259.2607080521238
 20
126.6109929857686
 30
0.0
 10
258.9649659517078
 20
126.6109929857685
 30
0.0
 10
258.6682765519151
 20
126.6358843932286
 30
0.0
 10
258.0730276055933
 20
126.7348075175123
 30
0.0
 10
257.7775797391967
 20
126.8083280347024
 30
0.0
 10
256.9012275971071
 20
127.0900826828558
 30
0.0
 10
256.3281736920939
 20
127.3594009056173
 30
0.0
 10
255.7625393088077
 20
127.682789755493
 30
0.0
  0
LINE
  5
2AF
330
1F
100
AcDbEntity
  8
0
  6
Continuous
 62
     7
370
    15
100
AcDbLine
 10
255.7625395736
 20
127.682788728
 30
0.0
 11
255.7625395736
 21
140.610993339
 31
0.0
  0
SPLINE
  5
2B0
330
1F
100
AcDbEntity
  8
0
  6
Continuous
 62
     7
370
    15
100
AcDbSpline
210
0.0
220
0.0
230
1.0
 70
     8
 71
     3
 72
    12
 73
     8
 74
     0
 42
0.00000001
 43
0.00000001
 12
1.0
 22
0.0
 32
0.0
 13
1.0
 23
0.0
 33
0.0
 40
0.0
 40
0.0
 40
0.0
 40
0.0
 40
0.2500000000000017
 40
0.2500000000000017
 40
0.5000000000000033
 40
0.5000000000000033
 40
1.0
 40
1.0
 40
1.0
 40
1.0
 10
259.2607080521238
 20
32.17109643913791
 30
0.0
 10
258.9649659517078
 20
32.17109643913791
 30
0.0
 10
258.6682765519151
 20
32.19598784659794
 30
0.0
 10
258.0730276055933
 20
32.29491097088164
 30
0.0
 10
257.7775797391967
 20
32.36843148807173
 30
0.0
 10
256.9012275971071
 20
32.65018613622511
 30
0.0
 10
256.3281736920939
 20
32.91950435898658
 30
0.0
 10
255.7625393088077
 20
33.2428932088624
 30
0.0
  0
LINE
  5
2B1
330
1F
100
AcDbEntity
  8
0
  6
Continuous
 62
     7
370
    15
100
AcDbLine
 10
255.7625395736
 20
33.2428947671
 30
0.0
 11
255.7625395736
 21
46.1710975154
 31
0.0
  0
SPLINE
  5
2B2
330
1F
100
AcDbEntity
  8
0
  6
Continuous
 62
     7
370
    15
100
AcDbSpline
210
0.0
220
0.0
230
1.0
 70
     8
 71
     3
 72
    10
 73
     6
 74
     0
 42
0.00000001
 43
0.00000001
 12
1.0
 22
0.0
 32
0.0
 13
1.0
 23
0.0
 33
0.0
 40
0.0
 40
0.0
 40
0.0
 40
0.0
 40
0.5
 40
0.5
 40
1.0
 40
1.0
 40
1.0
 40
1.0
 10
174.0164416389222
 20
263.0992996694135
 30
0.0
 10
172.8896255132655
 20
263.424583466151
 30
0.0
 10
171.7355447474639
 20
263.6974104233501
 30
0.0
 10
169.4221581749309
 20
264.0704633858929
 30
0.0
 10
168.2589908155903
 20
264.1710964391379
 30
0.0
 10
167.0882384086467
 20
264.1710964391379
 30
0.0
  0
LINE
  5
2B3
330
1F
100
AcDbEntity
  8
0
  6
Continuous
 62
     7
370
    15
100
AcDbLine
 10
177.4805446646
 20
264.1710997208
 30
0.0
 11
167.0882364294
 21
264.1710997208
 31
0.0
  0
SPLINE
  5
2B4
330
1F
100
AcDbEntity
  8
0
  6
Continuous
 62
     7
370
    15
100
AcDbSpline
210
0.0
220
0.0
230
1.0
 70
     8
 71
     3
 72
    12
 73
     8
 74
     0
 42
0.00000001
 43
0.00000001
 12
1.0
 22
0.0
 32
0.0
 13
1.0
 23
0.0
 33
0.0
 40
0.0
 40
0.0
 40
0.0
 40
0.0
 40
0.2500000000000015
 40
0.2500000000000015
 40
0.500000000000003
 40
0.500000000000003
 40
1.0
 40
1.0
 40
1.0
 40
1.0
 10
177.48054325406
 20
264.1710964391379
 30
0.0
 10
177.1865565229732
 20
264.1710964391379
 30
0.0
 10
176.891250822505
 20
264.1457631858447
 30
0.0
 10
176.3070746350315
 20
264.0477262987679
 30
0.0
 10
176.0169403722821
 20
263.9751169298391
 30
0.0
 10
175.1516906083985
 20
263.6950702309052
 30
0.0
 10
174.581708081153
 20
263.4256564019993
 30
0.0
 10
174.0164416389222
 20
263.0992996694135
 30
0.0
  0
SPLINE
  5
2B5
330
1F
100
AcDbEntity
  8
0
  6
Continuous
 62
     7
370
    15
100
AcDbSpline
210
0.0
220
0.0
230
1.0
 70
     8
 71
     3
 72
    12
 73
     8
 74
     0
 42
0.00000001
 43
0.00000001
 12
1.0
 22
0.0
 32
0.0
 13
1.0
 23
0.0
 33
0.0
 40
0.0
 40
0.0
 40
0.0
 40
0.0
 40
0.2500000000000012
 40
0.2500000000000012
 40
0.5000000000000024
 40
0.5000000000000024
 40
1.0
 40
1.0
 40
1.0
 40
1.0
 10
167.0882384086467
 20
264.1710964391379
 30
0.0
 10
166.5025144125285
 20
264.171096439138
 30
0.0
 10
165.9149142683217
 20
264.1462050316778
 30
0.0
 10
164.7360101115097
 20
264.0472819073942
 30
0.0
 10
164.150868852599
 20
263.973761390204
 30
0.0
 10
162.4152333852462
 20
263.6920067420506
 30
0.0
 10
161.2802870155435
 20
263.4226885192892
 30
0.0
 10
160.1600351783712
 20
263.0992996694134
 30
0.0
  0
LINE
  5
2B6
330
1F
100
AcDbEntity
  8
0
  6
Continuous
 62
     7
370
    15
100
AcDbLine
 10
174.0164419195
 20
263.099296449
 30
0.0
 11
174.0164419195
 21
250.1710937007
 31
0.0
  0
LINE
  5
2B7
330
1F
100
AcDbEntity
  8
0
  6
Continuous
 62
     7
370
    15
100
AcDbLine
 10
160.1600383899
 20
263.099296449
 30
0.0
 11
160.1600383899
 21
250.1710937007
 31
0.0
  0
SPLINE
  5
2B8
330
1F
100
AcDbEntity
  8
0
  6
Continuous
 62
     7
370
    15
100
AcDbSpline
210
0.0
220
0.0
230
1.0
 70
     8
 71
     3
 72
    10
 73
     6
 74
     0
 42
0.00000001
 43
0.00000001
 12
1.0
 22
0.0
 32
0.0
 13
1.0
 23
0.0
 33
0.0
 40
0.0
 40
0.0
 40
0.0
 40
0.0
 40
0.5
 40
0.5
 40
1.0
 40
1.0
 40
1.0
 40
1.0
 10
180.9446448691978
 20
263.0992996694137
 30
0.0
 10
180.3779632920492
 20
263.4264734305252
 30
0.0
 10
179.807142454708
 20
263.6960159744435
 30
0.0
 10
178.6535671650156
 20
264.0689484827018
 30
0.0
 10
178.0707235076445
 20
264.1710964391379
 30
0.0
 10
177.48054325406
 20
264.1710964391379
 30
0.0
  0
LINE
  5
2B9
330
1F
100
AcDbEntity
  8
0
  6
Continuous
 62
     7
370
    15
100
AcDbLine
 10
180.9446474096
 20
263.099296449
 30
0.0
 11
180.9446474096
 21
250.1710937007
 31
0.0
  0
SPLINE
  5
2BA
330
1F
100
AcDbEntity
  8
0
  6
Continuous
 62
     7
370
    15
100
AcDbSpline
210
0.0
220
0.0
230
1.0
 70
     8
 71
     3
 72
    10
 73
     6
 74
     0
 42
0.00000001
 43
0.00000001
 12
1.0
 22
0.0
 32
0.0
 13
1.0
 23
0.0
 33
0.0
 40
0.0
 40
0.0
 40
0.0
 40
0.0
 40
0.5
 40
0.5
 40
1.0
 40
1.0
 40
1.0
 40
1.0
 10
160.1600351783712
 20
263.0992996694137
 30
0.0
 10
159.5933536012226
 20
263.4264734305252
 30
0.0
 10
159.0225327638815
 20
263.6960159744435
 30
0.0
 10
157.8689574741891
 20
264.0689484827018
 30
0.0
 10
157.286113816818
 20
264.171096439138
 30
0.0
 10
156.6959335632334
 20
264.171096439138
 30
0.0
  0
LINE
  5
2BB
330
1F
100
AcDbEntity
  8
0
  6
Continuous
 62
     7
370
    15
100
AcDbLine
 10
167.0882364294
 20
264.1710997208
 30
0.0
 11
156.6959356448
 21
264.1710997208
 31
0.0
  0
SPLINE
  5
2BC
330
1F
100
AcDbEntity
  8
0
  6
Continuous
 62
     7
370
    15
100
AcDbSpline
210
0.0
220
0.0
230
1.0
 70
     8
 71
     3
 72
    12
 73
     8
 74
     0
 42
0.00000001
 43
0.00000001
 12
1.0
 22
0.0
 32
0.0
 13
1.0
 23
0.0
 33
0.0
 40
0.0
 40
0.0
 40
0.0
 40
0.0
 40
0.2499999999999997
 40
0.2499999999999997
 40
0.4999999999999993
 40
0.4999999999999993
 40
1.0
 40
1.0
 40
1.0
 40
1.0
 10
156.6959335632334
 20
264.171096439138
 30
0.0
 10
156.4019468321467
 20
264.1710964391379
 30
0.0
 10
156.1066411316785
 20
264.1457631858447
 30
0.0
 10
155.522464944205
 20
264.0477262987679
 30
0.0
 10
155.2323306814555
 20
263.9751169298391
 30
0.0
 10
154.3670809175719
 20
263.6950702309052
 30
0.0
 10
153.7970983903265
 20
263.4256564019993
 30
0.0
 10
153.2318319480957
 20
263.0992996694136
 30
0.0
  0
LINE
  5
2BD
330
1F
100
AcDbEntity
  8
0
  6
Continuous
 62
     7
370
    15
100
AcDbLine
 10
153.2318328998
 20
263.099296449
 30
0.0
 11
153.2318328998
 21
250.1710937007
 31
0.0
  0
SPLINE
  5
2BE
330
1F
100
AcDbEntity
  8
0
  6
Continuous
 62
     7
370
    15
100
AcDbSpline
210
0.0
220
0.0
230
1.0
 70
     8
 71
     3
 72
    10
 73
     6
 74
     0
 42
0.00000001
 43
0.00000001
 12
1.0
 22
0.0
 32
0.0
 13
1.0
 23
0.0
 33
0.0
 40
0.0
 40
0.0
 40
0.0
 40
0.0
 40
0.5
 40
0.5
 40
1.0
 40
1.0
 40
1.0
 40
1.0
 10
174.0164416389222
 20
82.09929966941344
 30
0.0
 10
172.8896255132655
 20
82.42458346615103
 30
0.0
 10
171.7355447474639
 20
82.69741042335005
 30
0.0
 10
169.4221581749309
 20
83.07046338589285
 30
0.0
 10
168.2589908155903
 20
83.1710964391379
 30
0.0
 10
167.0882384086467
 20
83.1710964391379
 30
0.0
  0
LINE
  5
2BF
330
1F
100
AcDbEntity
  8
0
  6
Continuous
 62
     7
370
    15
100
AcDbLine
 10
177.4805446646
 20
83.1710979922
 30
0.0
 11
167.0882364294
 21
83.1710979922
 31
0.0
  0
SPLINE
  5
2C0
330
1F
100
AcDbEntity
  8
0
  6
Continuous
 62
     7
370
    15
100
AcDbSpline
210
0.0
220
0.0
230
1.0
 70
     8
 71
     3
 72
    12
 73
     8
 74
     0
 42
0.00000001
 43
0.00000001
 12
1.0
 22
0.0
 32
0.0
 13
1.0
 23
0.0
 33
0.0
 40
0.0
 40
0.0
 40
0.0
 40
0.0
 40
0.2500000000000011
 40
0.2500000000000011
 40
0.5000000000000021
 40
0.5000000000000021
 40
1.0
 40
1.0
 40
1.0
 40
1.0
 10
177.48054325406
 20
83.1710964391379
 30
0.0
 10
177.1865565229732
 20
83.1710964391379
 30
0.0
 10
176.891250822505
 20
83.14576318584474
 30
0.0
 10
176.3070746350315
 20
83.04772629876796
 30
0.0
 10
176.0169403722821
 20
82.97511692983912
 30
0.0
 10
175.1516906083985
 20
82.69507023090512
 30
0.0
 10
174.581708081153
 20
82.42565640199933
 30
0.0
 10
174.0164416389222
 20
82.09929966941354
 30
0.0
  0
SPLINE
  5
2C1
330
1F
100
AcDbEntity
  8
0
  6
Continuous
 62
     7
370
    15
100
AcDbSpline
210
0.0
220
0.0
230
1.0
 70
     8
 71
     3
 72
    10
 73
     6
 74
     0
 42
0.00000001
 43
0.00000001
 12
1.0
 22
0.0
 32
0.0
 13
1.0
 23
0.0
 33
0.0
 40
0.0
 40
0.0
 40
0.0
 40
0.0
 40
0.5
 40
0.5
 40
1.0
 40
1.0
 40
1.0
 40
1.0
 10
180.9446448691978
 20
82.09929966941368
 30
0.0
 10
180.3779632920492
 20
82.42647343052519
 30
0.0
 10
179.807142454708
 20
82.69601597444347
 30
0.0
 10
178.6535671650156
 20
83.06894848270176
 30
0.0
 10
178.0707235076445
 20
83.1710964391379
 30
0.0
 10
177.48054325406
 20
83.1710964391379
 30
0.0
  0
LINE
  5
2C2
330
1F
100
AcDbEntity
  8
0
  6
Continuous
 62
     7
370
    15
100
AcDbLine
 10
180.9446474096
 20
82.099302171
 30
0.0
 11
180.9446474096
 21
69.1710994227
 31
0.0
  0
LINE
  5
2C3
330
1F
100
AcDbEntity
  8
0
  6
Continuous
 62
     7
370
    15
100
AcDbLine
 10
174.0164419195
 20
82.099302171
 30
0.0
 11
174.0164419195
 21
69.1710994227
 31
0.0
  0
SPLINE
  5
2C4
330
1F
100
AcDbEntity
  8
0
  6
Continuous
 62
     7
370
    15
100
AcDbSpline
210
0.0
220
0.0
230
1.0
 70
     8
 71
     3
 72
    12
 73
     8
 74
     0
 42
0.00000001
 43
0.00000001
 12
1.0
 22
0.0
 32
0.0
 13
1.0
 23
0.0
 33
0.0
 40
0.0
 40
0.0
 40
0.0
 40
0.0
 40
0.2500000000000017
 40
0.2500000000000017
 40
0.5000000000000033
 40
0.5000000000000033
 40
1.0
 40
1.0
 40
1.0
 40
1.0
 10
167.0882384086467
 20
83.1710964391379
 30
0.0
 10
166.5025144125285
 20
83.1710964391379
 30
0.0
 10
165.9149142683217
 20
83.14620503167785
 30
0.0
 10
164.7360101115097
 20
83.04728190739421
 30
0.0
 10
164.150868852599
 20
82.97376139020409
 30
0.0
 10
162.4152333852462
 20
82.69200674205064
 30
0.0
 10
161.2802870155435
 20
82.42268851928922
 30
0.0
 10
160.1600351783712
 20
82.0992996694134
 30
0.0
  0
LINE
  5
2C5
330
1F
100
AcDbEntity
  8
0
  6
Continuous
 62
     7
370
    15
100
AcDbLine
 10
160.1600383899
 20
82.099302171
 30
0.0
 11
160.1600383899
 21
69.1710994227
 31
0.0
  0
SPLINE
  5
2C6
330
1F
100
AcDbEntity
  8
0
  6
Continuous
 62
     7
370
    15
100
AcDbSpline
210
0.0
220
0.0
230
1.0
 70
     8
 71
     3
 72
    10
 73
     6
 74
     0
 42
0.00000001
 43
0.00000001
 12
1.0
 22
0.0
 32
0.0
 13
1.0
 23
0.0
 33
0.0
 40
0.0
 40
0.0
 40
0.0
 40
0.0
 40
0.5
 40
0.5
 40
1.0
 40
1.0
 40
1.0
 40
1.0
 10
160.1600351783712
 20
82.0992996694137
 30
0.0
 10
159.5933536012226
 20
82.4264734305252
 30
0.0
 10
159.0225327638815
 20
82.69601597444347
 30
0.0
 10
157.8689574741891
 20
83.06894848270176
 30
0.0
 10
157.286113816818
 20
83.1710964391379
 30
0.0
 10
156.6959335632334
 20
83.17109643913791
 30
0.0
  0
LINE
  5
2C7
330
1F
100
AcDbEntity
  8
0
  6
Continuous
 62
     7
370
    15
100
AcDbLine
 10
167.0882364294
 20
83.1710979922
 30
0.0
 11
156.6959356448
 21
83.1710979922
 31
0.0
  0
SPLINE
  5
2C8
330
1F
100
AcDbEntity
  8
0
  6
Continuous
 62
     7
370
    15
100
AcDbSpline
210
0.0
220
0.0
230
1.0
 70
     8
 71
     3
 72
    12
 73
     8
 74
     0
 42
0.00000001
 43
0.00000001
 12
1.0
 22
0.0
 32
0.0
 13
1.0
 23
0.0
 33
0.0
 40
0.0
 40
0.0
 40
0.0
 40
0.0
 40
0.2499999999999992
 40
0.2499999999999992
 40
0.4999999999999984
 40
0.4999999999999984
 40
1.0
 40
1.0
 40
1.0
 40
1.0
 10
156.6959335632334
 20
83.17109643913791
 30
0.0
 10
156.4019468321466
 20
83.17109643913787
 30
0.0
 10
156.1066411316785
 20
83.14576318584473
 30
0.0
 10
155.522464944205
 20
83.04772629876797
 30
0.0
 10
155.2323306814556
 20
82.97511692983912
 30
0.0
 10
154.3670809175719
 20
82.69507023090512
 30
0.0
 10
153.7970983903265
 20
82.42565640199935
 30
0.0
 10
153.2318319480957
 20
82.09929966941355
 30
0.0
  0
LINE
  5
2C9
330
1F
100
AcDbEntity
  8
0
  6
Continuous
 62
     7
370
    15
100
AcDbLine
 10
153.2318328998
 20
82.099302171
 30
0.0
 11
153.2318328998
 21
69.1710994227
 31
0.0
  0
SPLINE
  5
2CA
330
1F
100
AcDbEntity
  8
0
  6
Continuous
 62
     7
370
    15
100
AcDbSpline
210
0.0
220
0.0
230
1.0
 70
     8
 71
     3
 72
    12
 73
     8
 74
     0
 42
0.00000001
 43
0.00000001
 12
1.0
 22
0.0
 32
0.0
 13
1.0
 23
0.0
 33
0.0
 40
0.0
 40
0.0
 40
0.0
 40
0.0
 40
0.2499999999999997
 40
0.2499999999999997
 40
0.4999999999999993
 40
0.4999999999999993
 40
1.0
 40
1.0
 40
1.0
 40
1.0
 10
280.0449816099687
 20
213.1710964391379
 30
0.0
 10
280.3360676688718
 20
213.1710964391379
 30
0.0
 10
280.6284596833112
 20
213.1964296924311
 30
0.0
 10
281.2068719929014
 20
213.2944665795078
 30
0.0
 10
281.4941435945289
 20
213.3670759484367
 30
0.0
 10
282.3508562182746
 20
213.6471226473707
 30
0.0
 10
282.9152149119008
 20
213.9165364762765
 30
0.0
 10
283.4749040526008
 20
214.2428932088623
 30
0.0
  0
LINE
  5
2CB
330
1F
100
AcDbEntity
  8
0
  6
Continuous
 62
     7
370
    15
100
AcDbLine
 10
283.4749033234
 20
214.2428927703
 30
0.0
 11
283.4749033234
 21
227.1710955186
 31
0.0
  0
SPLINE
  5
2CC
330
1F
100
AcDbEntity
  8
0
  6
Continuous
 62
     7
370
    15
100
AcDbSpline
210
0.0
220
0.0
230
1.0
 70
     8
 71
     3
 72
    12
 73
     8
 74
     0
 42
0.00000001
 43
0.00000001
 12
1.0
 22
0.0
 32
0.0
 13
1.0
 23
0.0
 33
0.0
 40
0.0
 40
0.0
 40
0.0
 40
0.0
 40
0.2499999999999997
 40
0.2499999999999997
 40
0.4999999999999993
 40
0.4999999999999993
 40
1.0
 40
1.0
 40
1.0
 40
1.0
 10
280.0449816099687
 20
126.6109929857686
 30
0.0
 10
280.3360676688718
 20
126.6109929857686
 30
0.0
 10
280.6284596833112
 20
126.6363262390617
 30
0.0
 10
281.2068719929014
 20
126.7343631261385
 30
0.0
 10
281.4941435945289
 20
126.8069724950673
 30
0.0
 10
282.3508562182746
 20
127.0870191940013
 30
0.0
 10
282.9152149119008
 20
127.3564330229071
 30
0.0
 10
283.4749040526008
 20
127.6827897554929
 30
0.0
  0
LINE
  5
2CD
330
1F
100
AcDbEntity
  8
0
  6
Continuous
 62
     7
370
    15
100
AcDbLine
 10
283.4749033234
 20
127.682788728
 30
0.0
 11
283.4749033234
 21
140.610993339
 31
0.0
  0
SPLINE
  5
2CE
330
1F
100
AcDbEntity
  8
0
  6
Continuous
 62
     7
370
    15
100
AcDbSpline
210
0.0
220
0.0
230
1.0
 70
     8
 71
     3
 72
    12
 73
     8
 74
     0
 42
0.00000001
 43
0.00000001
 12
1.0
 22
0.0
 32
0.0
 13
1.0
 23
0.0
 33
0.0
 40
0.0
 40
0.0
 40
0.0
 40
0.0
 40
0.2499999999999997
 40
0.2499999999999997
 40
0.4999999999999993
 40
0.4999999999999993
 40
1.0
 40
1.0
 40
1.0
 40
1.0
 10
280.0449816099687
 20
32.17109643913791
 30
0.0
 10
280.3360676688718
 20
32.17109643913793
 30
0.0
 10
280.6284596833112
 20
32.19642969243108
 30
0.0
 10
281.2068719929014
 20
32.29446657950785
 30
0.0
 10
281.4941435945289
 20
32.36707594843666
 30
0.0
 10
282.3508562182745
 20
32.64712264737069
 30
0.0
 10
282.9152149119008
 20
32.91653647627643
 30
0.0
 10
283.4749040526008
 20
33.24289320886226
 30
0.0
  0
LINE
  5
2CF
330
1F
100
AcDbEntity
  8
0
  6
Continuous
 62
     7
370
    15
100
AcDbLine
 10
283.4749033234
 20
33.2428947671
 30
0.0
 11
283.4749033234
 21
46.1710975154
 31
0.0
  0
SPLINE
  5
2D0
330
1F
100
AcDbEntity
  8
0
  6
Continuous
 62
     7
370
    15
100
AcDbSpline
210
0.0
220
0.0
230
1.0
 70
     8
 71
     3
 72
    12
 73
     8
 74
     0
 42
0.00000001
 43
0.00000001
 12
1.0
 22
0.0
 32
0.0
 13
1.0
 23
0.0
 33
0.0
 40
0.0
 40
0.0
 40
0.0
 40
0.0
 40
0.2499999999999986
 40
0.2499999999999986
 40
0.4999999999999971
 40
0.4999999999999971
 40
1.0
 40
1.0
 40
1.0
 40
1.0
 10
155.0884324751142
 20
213.1710964391379
 30
0.0
 10
155.091776392922
 20
213.1710964391379
 30
0.0
 10
155.0951353131933
 20
213.1964296924311
 30
0.0
 10
155.1017799571503
 20
213.2944665795079
 30
0.0
 10
155.1050800555061
 20
213.3670759484367
 30
0.0
 10
155.1149217380982
 20
213.6471226473707
 30
0.0
 10
155.1214049379214
 20
213.9165364762765
 30
0.0
 10
155.1278344951852
 20
214.2428932088623
 30
0.0
  0
LINE
  5
2D1
330
1F
100
AcDbEntity
  8
0
  6
Continuous
 62
     7
370
    15
100
AcDbLine
 10
155.0884356281
 20
213.1710969491
 30
0.0
 11
161.1474414846
 21
213.1710969491
 31
0.0
  0
SPLINE
  5
2D2
330
1F
100
AcDbEntity
  8
0
  6
Continuous
 62
     7
370
    15
100
AcDbSpline
210
0.0
220
0.0
230
1.0
 70
     8
 71
     3
 72
    12
 73
     8
 74
     0
 42
0.00000001
 43
0.00000001
 12
1.0
 22
0.0
 32
0.0
 13
1.0
 23
0.0
 33
0.0
 40
0.0
 40
0.0
 40
0.0
 40
0.0
 40
0.2499999999999986
 40
0.2499999999999986
 40
0.4999999999999971
 40
0.4999999999999971
 40
1.0
 40
1.0
 40
1.0
 40
1.0
 10
155.0884324751142
 20
126.6109929857686
 30
0.0
 10
155.091776392922
 20
126.6109929857686
 30
0.0
 10
155.0951353131933
 20
126.6363262390617
 30
0.0
 10
155.1017799571503
 20
126.7343631261385
 30
0.0
 10
155.1050800555061
 20
126.8069724950673
 30
0.0
 10
155.1149217380982
 20
127.0870191940013
 30
0.0
 10
155.1214049379214
 20
127.3564330229071
 30
0.0
 10
155.1278344951852
 20
127.6827897554929
 30
0.0
  0
LINE
  5
2D3
330
1F
100
AcDbEntity
  8
0
  6
Continuous
 62
     7
370
    15
100
AcDbLine
 10
155.0884356281
 20
126.6109929068
 30
0.0
 11
161.1474414846
 21
126.6109929068
 31
0.0
  0
SPLINE
  5
2D4
330
1F
100
AcDbEntity
  8
0
  6
Continuous
 62
     7
370
    15
100
AcDbSpline
210
0.0
220
0.0
230
1.0
 70
     8
 71
     3
 72
    12
 73
     8
 74
     0
 42
0.00000001
 43
0.00000001
 12
1.0
 22
0.0
 32
0.0
 13
1.0
 23
0.0
 33
0.0
 40
0.0
 40
0.0
 40
0.0
 40
0.0
 40
0.2499999999999986
 40
0.2499999999999986
 40
0.4999999999999971
 40
0.4999999999999971
 40
1.0
 40
1.0
 40
1.0
 40
1.0
 10
155.0884324751142
 20
32.17109643913791
 30
0.0
 10
155.091776392922
 20
32.17109643913788
 30
0.0
 10
155.0951353131933
 20
32.19642969243102
 30
0.0
 10
155.1017799571503
 20
32.29446657950785
 30
0.0
 10
155.1050800555061
 20
32.36707594843671
 30
0.0
 10
155.1149217380982
 20
32.64712264737063
 30
0.0
 10
155.1214049379214
 20
32.91653647627643
 30
0.0
 10
155.1278344951852
 20
33.24289320886226
 30
0.0
  0
LINE
  5
2D5
330
1F
100
AcDbEntity
  8
0
  6
Continuous
 62
     7
370
    15
100
AcDbLine
 10
155.0884356281
 20
32.1710989459
 30
0.0
 11
161.1474414846
 21
32.1710989459
 31
0.0
  0
SPLINE
  5
2D6
330
1F
100
AcDbEntity
  8
0
  6
Continuous
 62
     7
370
    15
100
AcDbSpline
210
0.0
220
0.0
230
1.0
 70
    24
 71
     3
 72
    12
 73
     8
 74
     0
 42
0.00000001
 43
0.00000001
 12
1.0
 22
0.0
 32
0.0
 13
1.0
 23
0.0
 33
0.0
 40
0.0
 40
0.0
 40
0.0
 40
0.0
 40
0.2499999999999988
 40
0.2499999999999988
 40
0.4999999999999976
 40
0.4999999999999976
 40
1.0
 40
1.0
 40
1.0
 40
1.0
 10
281.6187216807043
 20
264.1710964391379
 30
0.0
 10
281.6187216807043
 20
264.171096439138
 30
0.0
 10
281.6187216807043
 20
264.1462050316778
 30
0.0
 10
281.6187216807043
 20
264.0472819073942
 30
0.0
 10
281.6187216807043
 20
263.9737613902041
 30
0.0
 10
281.6187216807043
 20
263.6920067420506
 30
0.0
 10
281.6187216807043
 20
263.4226885192892
 30
0.0
 10
281.6187216807043
 20
263.0992996694134
 30
0.0
  0
LINE
  5
2D7
330
1F
100
AcDbEntity
  8
0
  6
Continuous
 62
     7
370
    15
100
AcDbLine
 10
281.6187215528
 20
264.1710997208
 30
0.0
 11
275.6187205693
 21
264.1710997208
 31
0.0
  0
SPLINE
  5
2D8
330
1F
100
AcDbEntity
  8
0
  6
Continuous
 62
     7
370
    15
100
AcDbSpline
210
0.0
220
0.0
230
1.0
 70
    24
 71
     3
 72
    12
 73
     8
 74
     0
 42
0.00000001
 43
0.00000001
 12
1.0
 22
0.0
 32
0.0
 13
1.0
 23
0.0
 33
0.0
 40
0.0
 40
0.0
 40
0.0
 40
0.0
 40
0.2500000000000012
 40
0.2500000000000012
 40
0.5000000000000024
 40
0.5000000000000024
 40
1.0
 40
1.0
 40
1.0
 40
1.0
 10
257.6187216807043
 20
264.1710964391379
 30
0.0
 10
257.6187216807043
 20
264.171096439138
 30
0.0
 10
257.6187216807043
 20
264.1462050316778
 30
0.0
 10
257.6187216807043
 20
264.0472819073942
 30
0.0
 10
257.6187216807043
 20
263.973761390204
 30
0.0
 10
257.6187216807043
 20
263.6920067420506
 30
0.0
 10
257.6187216807043
 20
263.4226885192892
 30
0.0
 10
257.6187216807043
 20
263.0992996694134
 30
0.0
  0
LINE
  5
2D9
330
1F
100
AcDbEntity
  8
0
  6
Continuous
 62
     7
370
    15
100
AcDbLine
 10
263.6187223277
 20
264.1710997208
 30
0.0
 11
257.6187213442
 21
264.1710997208
 31
0.0
  0
SPLINE
  5
2DA
330
1F
100
AcDbEntity
  8
0
  6
Continuous
 62
     7
370
    15
100
AcDbSpline
210
0.0
220
0.0
230
1.0
 70
    24
 71
     3
 72
    12
 73
     8
 74
     0
 42
0.00000001
 43
0.00000001
 12
1.0
 22
0.0
 32
0.0
 13
1.0
 23
0.0
 33
0.0
 40
0.0
 40
0.0
 40
0.0
 40
0.0
 40
0.2499999999999983
 40
0.2499999999999983
 40
0.4999999999999966
 40
0.4999999999999966
 40
1.0
 40
1.0
 40
1.0
 40
1.0
 10
281.6187216807043
 20
83.1710964391379
 30
0.0
 10
281.6187216807043
 20
83.17109643913788
 30
0.0
 10
281.6187216807043
 20
83.14620503167784
 30
0.0
 10
281.6187216807043
 20
83.04728190739418
 30
0.0
 10
281.6187216807043
 20
82.97376139020403
 30
0.0
 10
281.6187216807043
 20
82.6920067420506
 30
0.0
 10
281.6187216807043
 20
82.4226885192892
 30
0.0
 10
281.6187216807043
 20
82.0992996694134
 30
0.0
  0
LINE
  5
2DB
330
1F
100
AcDbEntity
  8
0
  6
Continuous
 62
     7
370
    15
100
AcDbLine
 10
281.6187215528
 20
83.1710979922
 30
0.0
 11
275.6187205693
 21
83.1710979922
 31
0.0
  0
SPLINE
  5
2DC
330
1F
100
AcDbEntity
  8
0
  6
Continuous
 62
     7
370
    15
100
AcDbSpline
210
0.0
220
0.0
230
1.0
 70
    24
 71
     3
 72
    12
 73
     8
 74
     0
 42
0.00000001
 43
0.00000001
 12
1.0
 22
0.0
 32
0.0
 13
1.0
 23
0.0
 33
0.0
 40
0.0
 40
0.0
 40
0.0
 40
0.0
 40
0.2500000000000017
 40
0.2500000000000017
 40
0.5000000000000033
 40
0.5000000000000033
 40
1.0
 40
1.0
 40
1.0
 40
1.0
 10
257.6187216807043
 20
83.1710964391379
 30
0.0
 10
257.6187216807043
 20
83.1710964391379
 30
0.0
 10
257.6187216807043
 20
83.14620503167785
 30
0.0
 10
257.6187216807043
 20
83.04728190739421
 30
0.0
 10
257.6187216807043
 20
82.97376139020409
 30
0.0
 10
257.6187216807043
 20
82.69200674205064
 30
0.0
 10
257.6187216807043
 20
82.42268851928922
 30
0.0
 10
257.6187216807043
 20
82.0992996694134
 30
0.0
  0
LINE
  5
2DD
330
1F
100
AcDbEntity
  8
0
  6
Continuous
 62
     7
370
    15
100
AcDbLine
 10
263.6187223277
 20
83.1710979922
 30
0.0
 11
257.6187213442
 21
83.1710979922
 31
0.0
  0
SPLINE
  5
2DE
330
1F
100
AcDbEntity
  8
0
  6
Continuous
 62
     7
370
    15
100
AcDbSpline
210
0.0
220
0.0
230
1.0
 70
     8
 71
     3
 72
    10
 73
     6
 74
     0
 42
0.00000001
 43
0.00000001
 12
1.0
 22
0.0
 32
0.0
 13
1.0
 23
0.0
 33
0.0
 40
0.0
 40
0.0
 40
0.0
 40
0.0
 40
0.5
 40
0.5
 40
1.0
 40
1.0
 40
1.0
 40
1.0
 10
179.1274463622503
 20
214.2428932088621
 30
0.0
 10
179.1210007086993
 20
213.9157194477506
 30
0.0
 10
179.1145079736157
 20
213.6461769038323
 30
0.0
 10
179.1013867659353
 20
213.273244395574
 30
0.0
 10
179.0947572786866
 20
213.1710964391379
 30
0.0
 10
179.0880443421793
 20
213.1710964391379
 30
0.0
  0
LINE
  5
2DF
330
1F
100
AcDbEntity
  8
0
  6
Continuous
 62
     7
370
    15
100
AcDbLine
 10
173.1472422859
 20
213.1710969491
 30
0.0
 11
179.0880446813
 21
213.1710969491
 31
0.0
  0
SPLINE
  5
2E0
330
1F
100
AcDbEntity
  8
0
  6
Continuous
 62
     7
370
    15
100
AcDbSpline
210
0.0
220
0.0
230
1.0
 70
     8
 71
     3
 72
    10
 73
     6
 74
     0
 42
0.00000001
 43
0.00000001
 12
1.0
 22
0.0
 32
0.0
 13
1.0
 23
0.0
 33
0.0
 40
0.0
 40
0.0
 40
0.0
 40
0.0
 40
0.5
 40
0.5
 40
1.0
 40
1.0
 40
1.0
 40
1.0
 10
179.1274463622503
 20
127.6827897554928
 30
0.0
 10
179.1210007086993
 20
127.3556159943813
 30
0.0
 10
179.1145079736157
 20
127.086073450463
 30
0.0
 10
179.1013867659353
 20
126.7131409422047
 30
0.0
 10
179.0947572786866
 20
126.6109929857686
 30
0.0
 10
179.0880443421793
 20
126.6109929857686
 30
0.0
  0
LINE
  5
2E1
330
1F
100
AcDbEntity
  8
0
  6
Continuous
 62
     7
370
    15
100
AcDbLine
 10
173.1472422859
 20
126.6109929068
 30
0.0
 11
179.0880446813
 21
126.6109929068
 31
0.0
  0
SPLINE
  5
2E2
330
1F
100
AcDbEntity
  8
0
  6
Continuous
 62
     7
370
    15
100
AcDbSpline
210
0.0
220
0.0
230
1.0
 70
     8
 71
     3
 72
    10
 73
     6
 74
     0
 42
0.00000001
 43
0.00000001
 12
1.0
 22
0.0
 32
0.0
 13
1.0
 23
0.0
 33
0.0
 40
0.0
 40
0.0
 40
0.0
 40
0.0
 40
0.5
 40
0.5
 40
1.0
 40
1.0
 40
1.0
 40
1.0
 10
179.1274463622503
 20
33.24289320886212
 30
0.0
 10
179.1210007086993
 20
32.91571944775063
 30
0.0
 10
179.1145079736157
 20
32.64617690383231
 30
0.0
 10
179.1013867659353
 20
32.27324439557397
 30
0.0
 10
179.0947572786866
 20
32.17109643913788
 30
0.0
 10
179.0880443421793
 20
32.17109643913791
 30
0.0
  0
LINE
  5
2E3
330
1F
100
AcDbEntity
  8
0
  6
Continuous
 62
     7
370
    15
100
AcDbLine
 10
173.1472422859
 20
32.1710989459
 30
0.0
 11
179.0880446813
 21
32.1710989459
 31
0.0
  0
LINE
  5
2E4
330
1F
100
AcDbEntity
  8
0
  6
Continuous
 62
     7
370
    15
100
AcDbLine
 10
175.0515436313
 20
313.1711021645
 30
0.0
 11
159.0882351181
 21
313.1711021645
 31
0.0
  0
LINE
  5
2E5
330
1F
100
AcDbEntity
  8
0
  6
Continuous
 62
     7
370
    15
100
AcDbLine
 10
175.0882377407
 20
313.1711021645
 30
0.0
 11
175.0515436313
 21
313.1711021645
 31
0.0
  0
LINE
  5
2E6
330
1F
100
AcDbEntity
  8
0
  6
Continuous
 62
     7
370
    15
100
AcDbLine
 10
175.0515436313
 20
-16.8289109485
 30
0.0
 11
159.0882351181
 21
-16.8289109485
 31
0.0
  0
LINE
  5
2E7
330
1F
100
AcDbEntity
  8
0
  6
Continuous
 62
     7
370
    15
100
AcDbLine
 10
175.0882377407
 20
-16.8289109485
 30
0.0
 11
175.0515436313
 21
-16.8289109485
 31
0.0
  0
LINE
  5
2E8
330
1F
100
AcDbEntity
  8
0
  6
Continuous
 62
     7
370
    15
100
AcDbLine
 10
277.6187208972
 20
313.1711021645
 30
0.0
 11
261.6187219998
 21
313.1711021645
 31
0.0
  0
LINE
  5
2E9
330
1F
100
AcDbEntity
  8
0
  6
Continuous
 62
     7
370
    15
100
AcDbLine
 10
277.6187208972
 20
-16.8289109485
 30
0.0
 11
261.6187219998
 21
-16.8289109485
 31
0.0
  0
SPLINE
  5
2EA
330
1F
100
AcDbEntity
  8
0
  6
Continuous
 62
     7
370
    15
100
AcDbSpline
210
0.0
220
0.0
230
1.0
 70
     8
 71
     3
 72
    10
 73
     6
 74
     0
 42
0.00000001
 43
0.00000001
 12
1.0
 22
0.0
 32
0.0
 13
1.0
 23
0.0
 33
0.0
 40
0.0
 40
0.0
 40
0.0
 40
0.0
 40
0.5
 40
0.5
 40
1.0
 40
1.0
 40
1.0
 40
1.0
 10
155.0490304550432
 20
214.2428932088621
 30
0.0
 10
155.0554761085941
 20
213.9157194477506
 30
0.0
 10
155.0619688436778
 20
213.6461769038323
 30
0.0
 10
155.0750900513581
 20
213.273244395574
 30
0.0
 10
155.0817195386068
 20
213.1710964391379
 30
0.0
 10
155.0884324751142
 20
213.1710964391379
 30
0.0
  0
LINE
  5
2EB
330
1F
100
AcDbEntity
  8
0
  6
Continuous
 62
     7
370
    15
100
AcDbLine
 10
155.0490295074
 20
214.2428927703
 30
0.0
 11
155.0490295074
 21
227.1710955186
 31
0.0
  0
SPLINE
  5
2EC
330
1F
100
AcDbEntity
  8
0
  6
Continuous
 62
     7
370
    15
100
AcDbSpline
210
0.0
220
0.0
230
1.0
 70
     8
 71
     3
 72
    10
 73
     6
 74
     0
 42
0.00000001
 43
0.00000001
 12
1.0
 22
0.0
 32
0.0
 13
1.0
 23
0.0
 33
0.0
 40
0.0
 40
0.0
 40
0.0
 40
0.0
 40
0.5
 40
0.5
 40
1.0
 40
1.0
 40
1.0
 40
1.0
 10
155.0490304550432
 20
127.6827897554928
 30
0.0
 10
155.0554761085941
 20
127.3556159943813
 30
0.0
 10
155.0619688436778
 20
127.086073450463
 30
0.0
 10
155.0750900513581
 20
126.7131409422047
 30
0.0
 10
155.0817195386068
 20
126.6109929857686
 30
0.0
 10
155.0884324751142
 20
126.6109929857686
 30
0.0
  0
LINE
  5
2ED
330
1F
100
AcDbEntity
  8
0
  6
Continuous
 62
     7
370
    15
100
AcDbLine
 10
155.0490295074
 20
127.682788728
 30
0.0
 11
155.0490295074
 21
140.610993339
 31
0.0
  0
SPLINE
  5
2EE
330
1F
100
AcDbEntity
  8
0
  6
Continuous
 62
     7
370
    15
100
AcDbSpline
210
0.0
220
0.0
230
1.0
 70
     8
 71
     3
 72
    10
 73
     6
 74
     0
 42
0.00000001
 43
0.00000001
 12
1.0
 22
0.0
 32
0.0
 13
1.0
 23
0.0
 33
0.0
 40
0.0
 40
0.0
 40
0.0
 40
0.0
 40
0.5
 40
0.5
 40
1.0
 40
1.0
 40
1.0
 40
1.0
 10
155.0490304550432
 20
33.24289320886212
 30
0.0
 10
155.0554761085941
 20
32.91571944775063
 30
0.0
 10
155.0619688436778
 20
32.64617690383234
 30
0.0
 10
155.0750900513581
 20
32.27324439557405
 30
0.0
 10
155.0817195386068
 20
32.17109643913788
 30
0.0
 10
155.0884324751142
 20
32.17109643913791
 30
0.0
  0
LINE
  5
2EF
330
1F
100
AcDbEntity
  8
0
  6
Continuous
 62
     7
370
    15
100
AcDbLine
 10
155.0490295074
 20
33.2428947671
 30
0.0
 11
155.0490295074
 21
46.1710975154
 31
0.0
  0
LINE
  5
2F0
330
1F
100
AcDbEntity
  8
0
  6
Continuous
 62
     7
370
    15
100
AcDbLine
 10
255.8074311844
 20
214.2182797773
 30
0.0
 11
255.7625395736
 21
214.2428927703
 31
0.0
  0
LINE
  5
2F1
330
1F
100
AcDbEntity
  8
0
  6
Continuous
 62
     7
370
    15
100
AcDbLine
 10
257.6187213442
 20
213.1710969491
 30
0.0
 11
259.2607082358
 21
213.1710969491
 31
0.0
  0
LINE
  5
2F2
330
1F
100
AcDbEntity
  8
0
  6
Continuous
 62
     7
370
    15
100
AcDbLine
 10
255.8074311844
 20
127.658175735
 30
0.0
 11
255.7625395736
 21
127.682788728
 31
0.0
  0
LINE
  5
2F3
330
1F
100
AcDbEntity
  8
0
  6
Continuous
 62
     7
370
    15
100
AcDbLine
 10
257.6187213442
 20
126.6109929068
 30
0.0
 11
259.2607082358
 21
126.6109929068
 31
0.0
  0
LINE
  5
2F4
330
1F
100
AcDbEntity
  8
0
  6
Continuous
 62
     7
370
    15
100
AcDbLine
 10
255.8074311844
 20
33.2182780488
 30
0.0
 11
255.7625395736
 21
33.2428947671
 31
0.0
  0
LINE
  5
2F5
330
1F
100
AcDbEntity
  8
0
  6
Continuous
 62
     7
370
    15
100
AcDbLine
 10
257.6187213442
 20
32.1710989459
 30
0.0
 11
259.2607082358
 21
32.1710989459
 31
0.0
  0
LINE
  5
2F6
330
1F
100
AcDbEntity
  8
0
  6
Continuous
 62
     7
370
    15
100
AcDbLine
 10
179.0882383964
 20
264.1710997208
 30
0.0
 11
177.4805446646
 21
264.1710997208
 31
0.0
  0
LINE
  5
2F7
330
1F
100
AcDbEntity
  8
0
  6
Continuous
 62
     7
370
    15
100
AcDbLine
 10
156.6959356448
 20
264.1710997208
 30
0.0
 11
155.088241913
 21
264.1710997208
 31
0.0
  0
LINE
  5
2F8
330
1F
100
AcDbEntity
  8
0
  6
Continuous
 62
     7
370
    15
100
AcDbLine
 10
179.0882383964
 20
83.1710979922
 30
0.0
 11
177.4805446646
 21
83.1710979922
 31
0.0
  0
LINE
  5
2F9
330
1F
100
AcDbEntity
  8
0
  6
Continuous
 62
     7
370
    15
100
AcDbLine
 10
156.6959356448
 20
83.1710979922
 30
0.0
 11
155.088241913
 21
83.1710979922
 31
0.0
  0
LINE
  5
2FA
330
1F
100
AcDbEntity
  8
0
  6
Continuous
 62
     7
370
    15
100
AcDbLine
 10
280.0449801168
 20
213.1710969491
 30
0.0
 11
281.6187215528
 21
213.1710969491
 31
0.0
  0
LINE
  5
2FB
330
1F
100
AcDbEntity
  8
0
  6
Continuous
 62
     7
370
    15
100
AcDbLine
 10
280.0449801168
 20
126.6109929068
 30
0.0
 11
281.6187215528
 21
126.6109929068
 31
0.0
  0
LINE
  5
2FC
330
1F
100
AcDbEntity
  8
0
  6
Continuous
 62
     7
370
    15
100
AcDbLine
 10
280.0449801168
 20
32.1710989459
 30
0.0
 11
281.6187215528
 21
32.1710989459
 31
0.0
  0
LINE
  5
2FD
330
1F
100
AcDbEntity
  8
0
  6
Continuous
 62
     7
370
    15
100
AcDbLine
 10
175.0882377407
 20
179.3527942731
 30
0.0
 11
261.6187219998
 21
179.3527942731
 31
0.0
  0
LINE
  5
2FE
330
1F
100
AcDbEntity
  8
0
  6
Continuous
 62
     7
370
    15
100
AcDbLine
 10
129.9411391398
 20
63.3925259693
 30
0.0
 11
132.0758273384
 21
63.3925259693
 31
0.0
  0
SPLINE
  5
2FF
330
1F
100
AcDbEntity
  8
0
  6
Continuous
 62
     7
370
    15
100
AcDbSpline
210
0.0
220
0.0
230
1.0
 70
     8
 71
     3
 72
    11
 73
     7
 74
     0
 42
0.00000001
 43
0.00000001
 12
1.0
 22
0.0
 32
0.0
 13
1.0
 23
0.0
 33
0.0
 40
0.0
 40
0.0
 40
0.0
 40
0.0
 40
0.2537204256814981
 40
0.5049604034999876
 40
0.7537201777232567
 40
1.0
 40
1.0
 40
1.0
 40
1.0
 10
128.982890969329
 20
56.59966786770923
 30
0.0
 10
129.060457938896
 20
57.17457920552994
 30
0.0
 10
129.2148335598008
 20
58.31878137349851
 30
0.0
 10
129.4530679561352
 20
60.02573743184117
 30
0.0
 10
129.6940876778707
 20
61.7152214648174
 30
0.0
 10
129.859062703958
 20
62.83529420197259
 30
0.0
 10
129.9411369872924
 20
63.3925250105663
 30
0.0
  0
LINE
  5
300
330
1F
100
AcDbEntity
  8
0
  6
Continuous
 62
     7
370
    15
100
AcDbLine
 10
128.4133752367
 20
56.5996677263
 30
0.0
 11
128.982890167
 21
56.5996677263
 31
0.0
  0
SPLINE
  5
301
330
1F
100
AcDbEntity
  8
0
  6
Continuous
 62
     7
370
    15
100
AcDbSpline
210
0.0
220
0.0
230
1.0
 70
     8
 71
     3
 72
    11
 73
     7
 74
     0
 42
0.00000001
 43
0.00000001
 12
1.0
 22
0.0
 32
0.0
 13
1.0
 23
0.0
 33
0.0
 40
0.0
 40
0.0
 40
0.0
 40
0.0
 40
0.2540754438825324
 40
0.5054338169198807
 40
0.7540752801624317
 40
1.0
 40
1.0
 40
1.0
 40
1.0
 10
127.6126750705751
 20
63.39252501056654
 30
0.0
 10
127.6771575265348
 20
62.8168931972039
 30
0.0
 10
127.8054328661033
 20
61.6717853500131
 30
0.0
 10
128.0043028280988
 20
59.96408891663464
 30
0.0
 10
128.2059357303664
 20
58.2753471142877
 30
0.0
 10
128.3444828110741
 20
57.15617834964601
 30
0.0
 10
128.4133758190739
 20
56.59966786770941
 30
0.0
  0
LINE
  5
302
330
1F
100
AcDbEntity
  8
0
  6
Continuous
 62
     7
370
    15
100
AcDbLine
 10
126.3258566639
 20
63.3925259693
 30
0.0
 11
127.6126762411
 21
63.3925259693
 31
0.0
  0
LINE
  5
303
330
1F
100
AcDbEntity
  8
0
  6
Continuous
 62
     7
370
    15
100
AcDbLine
 10
126.3258566639
 20
65.1710987671
 30
0.0
 11
126.3258566639
 21
63.3925259693
 31
0.0
  0
LINE
  5
304
330
1F
100
AcDbEntity
  8
0
  6
Continuous
 62
     7
370
    15
100
AcDbLine
 10
127.9541959545
 20
65.1710987671
 30
0.0
 11
126.3258566639
 21
65.1710987671
 31
0.0
  0
SPLINE
  5
305
330
1F
100
AcDbEntity
  8
0
  6
Continuous
 62
     7
370
    15
100
AcDbSpline
210
0.0
220
0.0
230
1.0
 70
     8
 71
     3
 72
    10
 73
     6
 74
     0
 42
0.00000001
 43
0.00000001
 12
1.0
 22
0.0
 32
0.0
 13
1.0
 23
0.0
 33
0.0
 40
0.0
 40
0.0
 40
0.0
 40
0.0
 40
0.3291705126078623
 40
0.6625037344551874
 40
1.0
 40
1.0
 40
1.0
 40
1.0
 10
128.6931148004179
 20
59.17109643913781
 30
0.0
 10
128.6088359307824
 20
59.82909611163272
 30
0.0
 10
128.4392123960776
 20
61.15341655833532
 30
0.0
 10
128.1928348239956
 20
63.15342783237487
 30
0.0
 10
128.0340716478863
 20
64.49576347466072
 30
0.0
 10
127.9541974323816
 20
65.17109643913784
 30
0.0
  0
SPLINE
  5
306
330
1F
100
AcDbEntity
  8
0
  6
Continuous
 62
     7
370
    15
100
AcDbSpline
210
0.0
220
0.0
230
1.0
 70
     8
 71
     3
 72
    10
 73
     6
 74
     0
 42
0.00000001
 43
0.00000001
 12
1.0
 22
0.0
 32
0.0
 13
1.0
 23
0.0
 33
0.0
 40
0.0
 40
0.0
 40
0.0
 40
0.0
 40
0.3293684180273772
 40
0.6627016121417286
 40
1.0
 40
1.0
 40
1.0
 40
1.0
 10
129.506571404584
 20
65.17109643913774
 30
0.0
 10
129.4139811993837
 20
64.51274443055755
 30
0.0
 10
129.2276862333324
 20
63.18811549358831
 30
0.0
 10
128.9564696506325
 20
61.18810315440528
 30
0.0
 10
128.7812450962428
 20
59.84607697719365
 30
0.0
 10
128.6931148004179
 20
59.17109643913786
 30
0.0
  0
LINE
  5
307
330
1F
100
AcDbEntity
  8
0
  6
Continuous
 62
     7
370
    15
100
AcDbLine
 10
132.0758273384
 20
65.1710987671
 30
0.0
 11
129.5065691254
 21
65.1710987671
 31
0.0
  0
LINE
  5
308
330
1F
100
AcDbEntity
  8
0
  6
Continuous
 62
     7
370
    15
100
AcDbLine
 10
132.0758273384
 20
65.1710987671
 30
0.0
 11
132.0758273384
 21
63.3925259693
 31
0.0
  0
LINE
  5
309
330
1F
100
AcDbEntity
  8
0
  6
Continuous
 62
     7
370
    15
100
AcDbLine
 10
133.5758303782
 20
63.3925259693
 30
0.0
 11
132.0758273384
 21
63.3925259693
 31
0.0
  0
LINE
  5
30A
330
1F
100
AcDbEntity
  8
0
  6
Continuous
 62
     7
370
    15
100
AcDbLine
 10
133.5758303782
 20
65.1710987671
 30
0.0
 11
132.0758273384
 21
65.1710987671
 31
0.0
  0
LINE
  5
30B
330
1F
100
AcDbEntity
  8
0
  6
Continuous
 62
     7
370
    15
100
AcDbLine
 10
131.8532263419
 20
60.9925225957
 30
0.0
 11
132.0758273384
 21
60.9925225957
 31
0.0
  0
SPLINE
  5
30C
330
1F
100
AcDbEntity
  8
0
  6
Continuous
 62
     7
370
    15
100
AcDbSpline
210
0.0
220
0.0
230
1.0
 70
     8
 71
     3
 72
    19
 73
    15
 74
     0
 42
0.00000001
 43
0.00000001
 12
1.0
 22
0.0
 32
0.0
 13
1.0
 23
0.0
 33
0.0
 40
0.0
 40
0.0
 40
0.0
 40
0.0
 40
0.0629061515951785
 40
0.1259336749440629
 40
0.1886907237685209
 40
0.2514828965052013
 40
0.3765858205570269
 40
0.5012861435019764
 40
0.6256466536281222
 40
0.7498721559093255
 40
0.8123399703816777
 40
0.874446448916085
 40
0.937328110734271
 40
1.0
 40
1.0
 40
1.0
 40
1.0
 10
131.038021958176
 20
59.31572530593957
 30
0.0
 10
131.0595959395945
 20
59.32811805579566
 30
0.0
 10
131.1027855274857
 20
59.35292746620247
 30
0.0
 10
131.1667025235015
 20
59.40283295677963
 30
0.0
 10
131.2297197531877
 20
59.46171809447104
 30
0.0
 10
131.311965335006
 20
59.55291682530936
 30
0.0
 10
131.4112723237787
 20
59.68973883946794
 30
0.0
 10
131.5229195507179
 20
59.88863402377667
 30
0.0
 10
131.6251821127379
 20
60.12012381578361
 30
0.0
 10
131.7010353170521
 20
60.33880562424782
 30
0.0
 10
131.7549669617718
 20
60.52744797839227
 30
0.0
 10
131.7918646810391
 20
60.67621415816113
 30
0.0
 10
131.8251914853752
 20
60.83079620623962
 30
0.0
 10
131.8438936740025
 20
60.93867549002854
 30
0.0
 10
131.8532291446805
 20
60.9925250105663
 30
0.0
  0
SPLINE
  5
30D
330
1F
100
AcDbEntity
  8
0
  6
Continuous
 62
     7
370
    15
100
AcDbSpline
210
0.0
220
0.0
230
1.0
 70
     8
 71
     3
 72
     9
 73
     5
 74
     0
 42
0.00000001
 43
0.00000001
 12
1.0
 22
0.0
 32
0.0
 13
1.0
 23
0.0
 33
0.0
 40
0.0
 40
0.0
 40
0.0
 40
0.0
 40
0.4968533133904767
 40
1.0
 40
1.0
 40
1.0
 40
1.0
 10
131.890072555064
 20
56.59966786770916
 30
0.0
 10
131.7455872623566
 20
57.04882090720741
 30
0.0
 10
131.4547865595869
 20
57.95281616575421
 30
0.0
 10
131.1775251285346
 20
58.85952018361658
 30
0.0
 10
131.038021958176
 20
59.31572530593955
 30
0.0
  0
LINE
  5
30E
330
1F
100
AcDbEntity
  8
0
  6
Continuous
 62
     7
370
    15
100
AcDbLine
 10
130.9656982801
 20
56.5996677263
 30
0.0
 11
131.890069463
 21
56.5996677263
 31
0.0
  0
SPLINE
  5
30F
330
1F
100
AcDbEntity
  8
0
  6
Continuous
 62
     7
370
    15
100
AcDbSpline
210
0.0
220
0.0
230
1.0
 70
     8
 71
     3
 72
     9
 73
     5
 74
     0
 42
0.00000001
 43
0.00000001
 12
1.0
 22
0.0
 32
0.0
 13
1.0
 23
0.0
 33
0.0
 40
0.0
 40
0.0
 40
0.0
 40
0.0
 40
0.5028690475659119
 40
1.0
 40
1.0
 40
1.0
 40
1.0
 10
130.2640478756358
 20
59.00096594906437
 30
0.0
 10
130.3790619923899
 20
58.59796888987094
 30
0.0
 10
130.6077778326483
 20
57.79657325587015
 30
0.0
 10
130.8468485697668
 20
56.99710719298838
 30
0.0
 10
130.9656980330095
 20
56.59966786770923
 30
0.0
  0
SPLINE
  5
310
330
1F
100
AcDbEntity
  8
0
  6
Continuous
 62
     7
370
    15
100
AcDbSpline
210
0.0
220
0.0
230
1.0
 70
     8
 71
     3
 72
     9
 73
     5
 74
     0
 42
0.00000001
 43
0.00000001
 12
1.0
 22
0.0
 32
0.0
 13
1.0
 23
0.0
 33
0.0
 40
0.0
 40
0.0
 40
0.0
 40
0.0
 40
0.5017081781391436
 40
1.0
 40
1.0
 40
1.0
 40
1.0
 10
129.902972181746
 20
56.59966786770919
 30
0.0
 10
129.9625878253206
 20
57.00135069558457
 30
0.0
 10
130.0814131627821
 20
57.80198111258365
 30
0.0
 10
130.2033084505952
 20
58.60221563231262
 30
0.0
 10
130.2640478756358
 20
59.00096594906433
 30
0.0
  0
LINE
  5
311
330
1F
100
AcDbEntity
  8
0
  6
Continuous
 62
     7
370
    15
100
AcDbLine
 10
129.2298322103
 20
56.5996677263
 30
0.0
 11
129.9029698154
 21
56.5996677263
 31
0.0
  0
SPLINE
  5
312
330
1F
100
AcDbEntity
  8
0
  6
Continuous
 62
     7
370
    15
100
AcDbSpline
210
0.0
220
0.0
230
1.0
 70
     8
 71
     3
 72
    10
 73
     6
 74
     0
 42
0.00000001
 43
0.00000001
 12
1.0
 22
0.0
 32
0.0
 13
1.0
 23
0.0
 33
0.0
 40
0.0
 40
0.0
 40
0.0
 40
0.0
 40
0.3294062732453801
 40
0.6627394397496804
 40
1.0
 40
1.0
 40
1.0
 40
1.0
 10
130.110535978075
 20
62.70681072485207
 30
0.0
 10
130.0103721878629
 20
62.03666527446974
 30
0.0
 10
129.8088505424056
 20
60.68838548622682
 30
0.0
 10
129.5152187845155
 20
58.65265731233549
 30
0.0
 10
129.3253303565845
 20
57.28666437028923
 30
0.0
 10
129.2298300931106
 20
56.59966786770924
 30
0.0
  0
LINE
  5
313
330
1F
100
AcDbEntity
  8
0
  6
Continuous
 62
     7
370
    15
100
AcDbLine
 10
130.8460643074
 20
62.7068117841
 30
0.0
 11
130.1105355403
 21
62.7068117841
 31
0.0
  0
SPLINE
  5
314
330
1F
100
AcDbEntity
  8
0
  6
Continuous
 62
     7
370
    15
100
AcDbSpline
210
0.0
220
0.0
230
1.0
 70
     8
 71
     3
 72
     9
 73
     5
 74
     0
 42
0.00000001
 43
0.00000001
 12
1.0
 22
0.0
 32
0.0
 13
1.0
 23
0.0
 33
0.0
 40
0.0
 40
0.0
 40
0.0
 40
0.0
 40
0.5015545017073568
 40
1.0
 40
1.0
 40
1.0
 40
1.0
 10
130.4926529253877
 20
60.47966878282039
 30
0.0
 10
130.5510644263482
 20
60.85210482151778
 30
0.0
 10
130.6675253508573
 20
61.59466826662612
 30
0.0
 10
130.7866754777561
 20
62.33686573693326
 30
0.0
 10
130.8460653221298
 20
62.70681072485203
 30
0.0
  0
SPLINE
  5
315
330
1F
100
AcDbEntity
  8
0
  6
Continuous
 62
     7
370
    15
100
AcDbSpline
210
0.0
220
0.0
230
1.0
 70
     8
 71
     3
 72
    26
 73
    22
 74
     0
 42
0.00000001
 43
0.00000001
 12
1.0
 22
0.0
 32
0.0
 13
1.0
 23
0.0
 33
0.0
 40
0.0
 40
0.0
 40
0.0
 40
0.0
 40
0.0180131253422309
 40
0.0359881886444346
 40
0.0718435468178834
 40
0.1254635814784573
 40
0.1878956174421976
 40
0.2502861111888393
 40
0.3126691518003638
 40
0.3750410055216959
 40
0.4373791944909626
 40
0.49966157915611
 40
0.5618930493990072
 40
0.6241475088283785
 40
0.6864909208982323
 40
0.7489534092148756
 40
0.8115407444339483
 40
0.8742458208941112
 40
0.9370600339024658
 40
0.9685569660764133
 40
1.0
 40
1.0
 40
1.0
 40
1.0
 10
131.348109644052
 20
62.70681072485203
 30
0.0
 10
131.3480332541311
 20
62.68552037135453
 30
0.0
 10
131.3478806357026
 20
62.64298465123839
 30
0.0
 10
131.3462586725883
 20
62.55816098067603
 30
0.0
 10
131.3416345947023
 20
62.43166934818567
 30
0.0
 10
131.3297413751874
 20
62.25459350432255
 30
0.0
 10
131.3080799522269
 20
62.05111207576621
 30
0.0
 10
131.2771914673141
 20
61.84491658181034
 30
0.0
 10
131.2387240387185
 20
61.64796326634307
 30
0.0
 10
131.1932282739986
 20
61.4620349033651
 30
0.0
 10
131.1412723249506
 20
61.28887862023752
 30
0.0
 10
131.0833644553618
 20
61.13038182367274
 30
0.0
 10
131.0202030305099
 20
60.98790176757071
 30
0.0
 10
130.9526846029315
 20
60.86168294586919
 30
0.0
 10
130.8814558413449
 20
60.75236135458792
 30
0.0
 10
130.807190689427
 20
60.66039516254576
 30
0.0
 10
130.730536019906
 20
60.58631648362309
 30
0.0
 10
130.6521332176121
 20
60.53054453417496
 30
0.0
 10
130.5858601103082
 20
60.50002423499463
 30
0.0
 10
130.5326145496535
 20
60.48483775760989
 30
0.0
 10
130.5059658599962
 20
60.48139079048723
 30
0.0
 10
130.4926529253877
 20
60.47966878282039
 30
0.0
  0
LINE
  5
316
330
1F
100
AcDbEntity
  8
0
  6
Continuous
 62
     7
370
    15
100
AcDbLine
 10
132.0758273384
 20
62.7068117841
 30
0.0
 11
131.3481067798
 21
62.7068117841
 31
0.0
  0
LINE
  5
317
330
1F
100
AcDbEntity
  8
0
  6
Continuous
 62
     7
370
    15
100
AcDbLine
 10
132.0758273384
 20
62.7068117841
 30
0.0
 11
132.0758273384
 21
60.9925225957
 31
0.0
  0
LINE
  5
318
330
1F
100
AcDbEntity
  8
0
  6
Continuous
 62
     7
370
    15
100
AcDbLine
 10
133.5758303782
 20
62.7068117841
 30
0.0
 11
132.0758273384
 21
62.7068117841
 31
0.0
  0
LINE
  5
319
330
1F
100
AcDbEntity
  8
0
  6
Continuous
 62
     7
370
    15
100
AcDbLine
 10
133.5758303782
 20
60.9925225957
 30
0.0
 11
132.0758273384
 21
60.9925225957
 31
0.0
  0
LINE
  5
31A
330
1F
100
AcDbEntity
  8
0
  6
Continuous
 62
     7
370
    15
100
AcDbLine
 10
132.5380241057
 20
59.3157247289
 30
0.0
 11
131.0380210659
 21
59.3157247289
 31
0.0
  0
LINE
  5
31B
330
1F
100
AcDbEntity
  8
0
  6
Continuous
 62
     7
370
    15
100
AcDbLine
 10
133.3900725028
 20
56.5996677263
 30
0.0
 11
131.890069463
 21
56.5996677263
 31
0.0
  0
LINE
  5
31C
330
1F
100
AcDbEntity
  8
0
  6
Continuous
 62
     7
370
    15
100
AcDbLine
 10
131.3481067798
 20
62.7068117841
 30
0.0
 11
130.8460643074
 21
62.7068117841
 31
0.0
  0
LINE
  5
31D
330
1F
100
AcDbEntity
  8
0
  6
Continuous
 62
     7
370
    15
100
AcDbLine
 10
130.9656982801
 20
56.5996677263
 30
0.0
 11
129.9029698154
 21
56.5996677263
 31
0.0
  0
LINE
  5
31E
330
1F
100
AcDbEntity
  8
0
  6
Continuous
 62
     7
370
    15
100
AcDbLine
 10
129.2298322103
 20
56.5996677263
 30
0.0
 11
128.982890167
 21
56.5996677263
 31
0.0
  0
LINE
  5
31F
330
1F
100
AcDbEntity
  8
0
  6
Continuous
 62
     7
370
    15
100
AcDbLine
 10
129.4541989944
 20
65.1710987671
 30
0.0
 11
127.9541959545
 21
65.1710987671
 31
0.0
  0
LINE
  5
320
330
1F
100
AcDbEntity
  8
0
  6
Continuous
 62
     7
370
    15
100
AcDbLine
 10
126.3258566639
 20
56.5996677263
 30
0.0
 11
126.7467325112
 21
56.5996677263
 31
0.0
  0
SPLINE
  5
321
330
1F
100
AcDbEntity
  8
0
  6
Continuous
 62
     7
370
    15
100
AcDbSpline
210
0.0
220
0.0
230
1.0
 70
     8
 71
     3
 72
     9
 73
     5
 74
     0
 42
0.00000001
 43
0.00000001
 12
1.0
 22
0.0
 32
0.0
 13
1.0
 23
0.0
 33
0.0
 40
0.0
 40
0.0
 40
0.0
 40
0.0
 40
0.4960164335806321
 40
1.0
 40
1.0
 40
1.0
 40
1.0
 10
126.6962360059041
 20
60.99252501056655
 30
0.0
 10
126.6329600949666
 20
60.2663649942083
 30
0.0
 10
126.5053919204998
 20
58.80238120819494
 30
0.0
 10
126.3860209549647
 20
57.3377951650577
 30
0.0
 10
126.3258599500274
 20
56.59966786770936
 30
0.0
  0
LINE
  5
322
330
1F
100
AcDbEntity
  8
0
  6
Continuous
 62
     7
370
    15
100
AcDbLine
 10
126.3258566639
 20
60.9925225957
 30
0.0
 11
126.696232476
 21
60.9925225957
 31
0.0
  0
LINE
  5
323
330
1F
100
AcDbEntity
  8
0
  6
Continuous
 62
     7
370
    15
100
AcDbLine
 10
126.3258566639
 20
62.7068117841
 30
0.0
 11
126.3258566639
 21
60.9925225957
 31
0.0
  0
LINE
  5
324
330
1F
100
AcDbEntity
  8
0
  6
Continuous
 62
     7
370
    15
100
AcDbLine
 10
127.4881770393
 20
62.7068117841
 30
0.0
 11
126.3258566639
 21
62.7068117841
 31
0.0
  0
SPLINE
  5
325
330
1F
100
AcDbEntity
  8
0
  6
Continuous
 62
     7
370
    15
100
AcDbSpline
210
0.0
220
0.0
230
1.0
 70
     8
 71
     3
 72
    10
 73
     6
 74
     0
 42
0.00000001
 43
0.00000001
 12
1.0
 22
0.0
 32
0.0
 13
1.0
 23
0.0
 33
0.0
 40
0.0
 40
0.0
 40
0.0
 40
0.0
 40
0.328925557228258
 40
0.6622587918883798
 40
1.0
 40
1.0
 40
1.0
 40
1.0
 10
128.189862523975
 20
56.59966786770929
 30
0.0
 10
128.1096616353712
 20
57.26894121438968
 30
0.0
 10
127.9481851479777
 20
58.61645632312927
 30
0.0
 10
127.7142088240845
 20
60.65218183452695
 30
0.0
 10
127.5638512237074
 20
62.01894189269057
 30
0.0
 10
127.4881786092202
 20
62.70681072485214
 30
0.0
  0
LINE
  5
326
330
1F
100
AcDbEntity
  8
0
  6
Continuous
 62
     7
370
    15
100
AcDbLine
 10
127.641368427
 20
56.5996677263
 30
0.0
 11
128.1898652694
 21
56.5996677263
 31
0.0
  0
LINE
  5
327
330
1F
100
AcDbEntity
  8
0
  6
Continuous
 62
     7
370
    15
100
AcDbLine
 10
127.5370751998
 20
57.5425237997
 30
0.0
 11
127.641368427
 21
56.5996677263
 31
0.0
  0
LINE
  5
328
330
1F
100
AcDbEntity
  8
0
  6
Continuous
 62
     7
370
    15
100
AcDbLine
 10
126.8314679644
 20
57.5425237997
 30
0.0
 11
127.5370751998
 21
57.5425237997
 31
0.0
  0
LINE
  5
329
330
1F
100
AcDbEntity
  8
0
  6
Continuous
 62
     7
370
    15
100
AcDbLine
 10
126.7467325112
 20
56.5996677263
 30
0.0
 11
126.8314679644
 21
57.5425237997
 31
0.0
  0
SPLINE
  5
32A
330
1F
100
AcDbEntity
  8
0
  6
Continuous
 62
     7
370
    15
100
AcDbSpline
210
0.0
220
0.0
230
1.0
 70
     8
 71
     3
 72
     9
 73
     5
 74
     0
 42
0.00000001
 43
0.00000001
 12
1.0
 22
0.0
 32
0.0
 13
1.0
 23
0.0
 33
0.0
 40
0.0
 40
0.0
 40
0.0
 40
0.0
 40
0.500242464155372
 40
1.0
 40
1.0
 40
1.0
 40
1.0
 10
126.9369168481353
 20
59.171096439138
 30
0.0
 10
126.9700487939924
 20
59.52681873356742
 30
0.0
 10
127.0362805680443
 20
60.23791849002258
 30
0.0
 10
127.104474487284
 20
60.9488565849137
 30
0.0
 10
127.1385549123229
 20
61.30415325535456
 30
0.0
  0
LINE
  5
32B
330
1F
100
AcDbEntity
  8
0
  6
Continuous
 62
     7
370
    15
100
AcDbLine
 10
126.9369160316
 20
59.1710940583
 30
0.0
 11
127.3611073873
 21
59.1710940583
 31
0.0
  0
SPLINE
  5
32C
330
1F
100
AcDbEntity
  8
0
  6
Continuous
 62
     7
370
    15
100
AcDbSpline
210
0.0
220
0.0
230
1.0
 70
     8
 71
     3
 72
     9
 73
     5
 74
     0
 42
0.00000001
 43
0.00000001
 12
1.0
 22
0.0
 32
0.0
 13
1.0
 23
0.0
 33
0.0
 40
0.0
 40
0.0
 40
0.0
 40
0.0
 40
0.5002636023165166
 40
1.0
 40
1.0
 40
1.0
 40
1.0
 10
127.1385549123229
 20
61.30415325535454
 30
0.0
 10
127.1751108538352
 20
60.9484066784939
 30
0.0
 10
127.2481842122468
 20
60.23728842960801
 30
0.0
 10
127.323477226269
 20
59.52636883592675
 30
0.0
 10
127.3611038858672
 20
59.17109643913787
 30
0.0
  0
LINE
  5
32D
330
1F
100
AcDbEntity
  8
0
  6
Continuous
 62
     7
370
    15
100
AcDbLine
 10
127.6903932473
 20
62.7068117841
 30
0.0
 11
127.4881770393
 21
62.7068117841
 31
0.0
  0
LINE
  5
32E
330
1F
100
AcDbEntity
  8
0
  6
Continuous
 62
     7
370
    15
100
AcDbLine
 10
128.4133752367
 20
56.5996677263
 30
0.0
 11
128.1898652694
 21
56.5996677263
 31
0.0
  0
LINE
  5
32F
330
1F
100
AcDbEntity
  8
0
  6
Continuous
 62
     7
370
    15
100
AcDbLine
 10
127.641368427
 20
56.5996677263
 30
0.0
 11
126.7467325112
 21
56.5996677263
 31
0.0
  0
SPLINE
  5
330
330
1F
100
AcDbEntity
  8
0
  6
Continuous
 62
     7
370
    15
100
AcDbSpline
210
0.0
220
0.0
230
1.0
 70
     8
 71
     3
 72
    11
 73
     7
 74
     0
 42
0.00000001
 43
0.00000001
 12
1.0
 22
0.0
 32
0.0
 13
1.0
 23
0.0
 33
0.0
 40
0.0
 40
0.0
 40
0.0
 40
0.0
 40
0.2423487341414714
 40
0.4848813428293189
 40
0.832874239862601
 40
1.0
 40
1.0
 40
1.0
 40
1.0
 10
153.2320564171822
 20
214.2428927703247
 30
0.0
 10
153.3785588802966
 20
214.1612892229879
 30
0.0
 10
153.6716749607017
 20
213.998020214167
 30
0.0
 10
154.1799883956815
 20
213.7545851296549
 30
0.0
 10
154.6454794708964
 20
213.5562512357652
 30
0.0
 10
154.9656833872924
 20
213.4650962278898
 30
0.0
 10
155.0695707580597
 20
213.4355217798099
 30
0.0
  0
LINE
  5
331
330
1F
100
AcDbEntity
  8
0
  6
Continuous
 62
     7
370
    15
100
AcDbLine
 10
153.2320564172
 20
214.2428927703
 30
0.0
 11
153.2320564172
 21
227.1710955186
 31
0.0
  0
SPLINE
  5
332
330
1F
100
AcDbEntity
  8
0
  6
Continuous
 62
     7
370
    15
100
AcDbSpline
210
0.0
220
0.0
230
1.0
 70
     8
 71
     3
 72
    11
 73
     7
 74
     0
 42
0.00000001
 43
0.00000001
 12
1.0
 22
0.0
 32
0.0
 13
1.0
 23
0.0
 33
0.0
 40
0.0
 40
0.0
 40
0.0
 40
0.0
 40
0.2423484762849635
 40
0.4848813288501792
 40
0.832874235327191
 40
1.0
 40
1.0
 40
1.0
 40
1.0
 10
153.2320564171822
 20
127.682788728033
 30
0.0
 10
153.3785589702978
 20
127.6011871133483
 30
0.0
 10
153.6716755341962
 20
127.4379218022923
 30
0.0
 10
154.1799879650166
 20
127.1944788887121
 30
0.0
 10
154.6454795058153
 20
126.9961474705914
 30
0.0
 10
154.9656833958463
 20
126.9049922534823
 30
0.0
 10
155.0695707580597
 20
126.8754177375183
 30
0.0
  0
LINE
  5
333
330
1F
100
AcDbEntity
  8
0
  6
Continuous
 62
     7
370
    15
100
AcDbLine
 10
153.2320564172
 20
127.682788728
 30
0.0
 11
153.2320564172
 21
140.610993339
 31
0.0
  0
SPLINE
  5
334
330
1F
100
AcDbEntity
  8
0
  6
Continuous
 62
     7
370
    15
100
AcDbSpline
210
0.0
220
0.0
230
1.0
 70
     8
 71
     3
 72
    11
 73
     7
 74
     0
 42
0.00000001
 43
0.00000001
 12
1.0
 22
0.0
 32
0.0
 13
1.0
 23
0.0
 33
0.0
 40
0.0
 40
0.0
 40
0.0
 40
0.0
 40
0.2423489648924018
 40
0.4848810652890803
 40
0.8328741136293898
 40
1.0
 40
1.0
 40
1.0
 40
1.0
 10
153.2320564171822
 20
33.24289476708023
 30
0.0
 10
153.3785587389238
 20
33.16128887384498
 30
0.0
 10
153.6716740896122
 20
32.99801542036299
 30
0.0
 10
154.1799893865578
 20
32.75459526193164
 30
0.0
 10
154.6454794875999
 20
32.55625438429121
 30
0.0
 10
154.9656833743999
 20
32.4650956988978
 30
0.0
 10
155.0695707580597
 20
32.4355200512752
 30
0.0
  0
LINE
  5
335
330
1F
100
AcDbEntity
  8
0
  6
Continuous
 62
     7
370
    15
100
AcDbLine
 10
153.2320564172
 20
33.2428947671
 30
0.0
 11
153.2320564172
 21
46.1710975154
 31
0.0
  0
SPLINE
  5
336
330
1F
100
AcDbEntity
  8
0
  6
Continuous
 62
     7
370
    15
100
AcDbSpline
210
0.0
220
0.0
230
1.0
 70
     8
 71
     3
 72
    11
 73
     7
 74
     0
 42
0.00000001
 43
0.00000001
 12
1.0
 22
0.0
 32
0.0
 13
1.0
 23
0.0
 33
0.0
 40
0.0
 40
0.0
 40
0.0
 40
0.0
 40
0.3051708223497269
 40
0.6104274229952419
 40
0.9155252340350306
 40
1.0
 40
1.0
 40
1.0
 40
1.0
 10
283.4751268407853
 20
263.0992964489803
 30
0.0
 10
283.28867044605
 20
263.203448079576
 30
0.0
 10
282.9157052468779
 20
263.4117806160086
 30
0.0
 10
282.3493204011608
 20
263.6685313597297
 30
0.0
 10
281.9168185703289
 20
263.841708453628
 30
0.0
 10
281.6718421454279
 20
263.9065630555959
 30
0.0
 10
281.6187215528042
 20
263.9206261022434
 30
0.0
  0
LINE
  5
337
330
1F
100
AcDbEntity
  8
0
  6
Continuous
 62
     7
370
    15
100
AcDbLine
 10
283.4751268408
 20
263.099296449
 30
0.0
 11
283.4751268408
 21
250.1710937007
 31
0.0
  0
SPLINE
  5
338
330
1F
100
AcDbEntity
  8
0
  6
Continuous
 62
     7
370
    15
100
AcDbSpline
210
0.0
220
0.0
230
1.0
 70
     8
 71
     3
 72
    11
 73
     7
 74
     0
 42
0.00000001
 43
0.00000001
 12
1.0
 22
0.0
 32
0.0
 13
1.0
 23
0.0
 33
0.0
 40
0.0
 40
0.0
 40
0.0
 40
0.0
 40
0.1328518167479514
 40
0.4218377665696151
 40
0.7109555026235308
 40
1.0
 40
1.0
 40
1.0
 40
1.0
 10
257.618721344188
 20
263.9203951342449
 30
0.0
 10
257.5352782077771
 20
263.8968241140528
 30
0.0
 10
257.2703253666289
 20
263.8219802258999
 30
0.0
 10
256.8280553645271
 20
263.6432931686715
 30
0.0
 10
256.2921047080958
 20
263.3955436881075
 30
0.0
 10
255.9388967384197
 20
263.19803718898
 30
0.0
 10
255.7623151248843
 20
263.0992964489803
 30
0.0
  0
LINE
  5
339
330
1F
100
AcDbEntity
  8
0
  6
Continuous
 62
     7
370
    15
100
AcDbLine
 10
255.7623151249
 20
263.099296449
 30
0.0
 11
255.7623151249
 21
250.1710937007
 31
0.0
  0
SPLINE
  5
33A
330
1F
100
AcDbEntity
  8
0
  6
Continuous
 62
     7
370
    15
100
AcDbSpline
210
0.0
220
0.0
230
1.0
 70
     8
 71
     3
 72
    11
 73
     7
 74
     0
 42
0.00000001
 43
0.00000001
 12
1.0
 22
0.0
 32
0.0
 13
1.0
 23
0.0
 33
0.0
 40
0.0
 40
0.0
 40
0.0
 40
0.0
 40
0.3051704672347292
 40
0.6104272238915351
 40
0.9155251908614603
 40
0.9999999999999999
 40
0.9999999999999999
 40
0.9999999999999999
 40
0.9999999999999999
 10
283.4751268407853
 20
82.09930217102618
 30
0.0
 10
283.2886703610531
 20
82.20345068894547
 30
0.0
 10
282.9157046795083
 20
82.41177717362127
 30
0.0
 10
282.3493204707423
 20
82.6685301456448
 30
0.0
 10
281.9168185664227
 20
82.84170669621258
 30
0.0
 10
281.6718421447318
 20
82.9065613219147
 30
0.0
 10
281.6187215528042
 20
82.92062437370868
 30
0.0
  0
LINE
  5
33B
330
1F
100
AcDbEntity
  8
0
  6
Continuous
 62
     7
370
    15
100
AcDbLine
 10
283.4751268408
 20
82.099302171
 30
0.0
 11
283.4751268408
 21
69.1710994227
 31
0.0
  0
SPLINE
  5
33C
330
1F
100
AcDbEntity
  8
0
  6
Continuous
 62
     7
370
    15
100
AcDbSpline
210
0.0
220
0.0
230
1.0
 70
     8
 71
     3
 72
    11
 73
     7
 74
     0
 42
0.00000001
 43
0.00000001
 12
1.0
 22
0.0
 32
0.0
 13
1.0
 23
0.0
 33
0.0
 40
0.0
 40
0.0
 40
0.0
 40
0.0
 40
0.1328476290693726
 40
0.4218353468527442
 40
0.7109540449746274
 40
1.0
 40
1.0
 40
1.0
 40
1.0
 10
179.1063433072121
 20
32.42179608181567
 30
0.0
 10
179.1889586219109
 20
32.44536733248604
 30
0.0
 10
179.4512896862697
 20
32.52021388241663
 30
0.0
 10
179.8891993809463
 20
32.6988970446456
 30
0.0
 10
180.4198602009401
 20
32.94664799322661
 30
0.0
 10
180.769583995554
 20
33.14415412568963
 30
0.0
 10
180.944423892215
 20
33.24289476708026
 30
0.0
  0
LINE
  5
33D
330
1F
100
AcDbEntity
  8
0
  6
Continuous
 62
     7
370
    15
100
AcDbLine
 10
180.9444238922
 20
33.2428947671
 30
0.0
 11
180.9444238922
 21
46.1710975154
 31
0.0
  0
LINE
  5
33E
330
1F
100
AcDbEntity
  8
0
  6
Continuous
 62
     7
370
    15
100
AcDbLine
 10
153.2769461653
 20
214.2182797773
 30
0.0
 11
153.2320564172
 21
214.2428927703
 31
0.0
  0
LINE
  5
33F
330
1F
100
AcDbEntity
  8
0
  6
Continuous
 62
     7
370
    15
100
AcDbLine
 10
153.2769461653
 20
127.658175735
 30
0.0
 11
153.2320564172
 21
127.682788728
 31
0.0
  0
LINE
  5
340
330
1F
100
AcDbEntity
  8
0
  6
Continuous
 62
     7
370
    15
100
AcDbLine
 10
153.2769461653
 20
33.2182780488
 30
0.0
 11
153.2320564172
 21
33.2428947671
 31
0.0
  0
LINE
  5
341
330
1F
100
AcDbEntity
  8
0
  6
Continuous
 62
     8
370
     0
100
AcDbLine
 10
175.0882377407
 20
172.4692298679
 30
0.0
 11
261.6187219998
 21
172.4692298679
 31
0.0
  0
LINE
  5
342
330
1F
100
AcDbEntity
  8
0
  6
Continuous
 62
     8
370
     0
100
AcDbLine
 10
175.0882377407
 20
169.6515656598
 30
0.0
 11
261.6187219998
 21
169.6515656598
 31
0.0
  0
LINE
  5
343
330
1F
100
AcDbEntity
  8
0
  6
Continuous
 62
     8
370
     0
100
AcDbLine
 10
175.0882377407
 20
168.8855212063
 30
0.0
 11
261.6187219998
 21
168.8855212063
 31
0.0
  0
LINE
  5
344
330
1F
100
AcDbEntity
  8
FORMAT
  6
CENTERX2
370
     0
100
AcDbLine
 10
218.3534800447
 20
32.5083953015
 30
0.0
 11
218.3534800447
 21
264.4874437855
 31
0.0
  0
ENDSEC
  0
SECTION
  2
OBJECTS
  0
DICTIONARY
  5
C
330
0
100
AcDbDictionary
281
     1
  3
ACAD_GROUP
350
D
  3
ACAD_LAYOUT
350
1A
  3
ACAD_MLINESTYLE
350
17
  3
ACAD_PLOTSETTINGS
350
19
  3
ACAD_PLOTSTYLENAME
350
E
  0
DICTIONARY
  5
D
102
{ACAD_REACTORS
330
C
102
}
330
C
100
AcDbDictionary
281
     1
  0
DICTIONARY
  5
1A
102
{ACAD_REACTORS
330
C
102
}
330
C
100
AcDbDictionary
281
     1
  3
Layout1
350
1E
  3
Layout2
350
26
  3
Model
350
22
  0
DICTIONARY
  5
17
102
{ACAD_REACTORS
330
C
102
}
330
C
100
AcDbDictionary
281
     1
  3
Standard
350
18
  0
DICTIONARY
  5
19
102
{ACAD_REACTORS
330
C
102
}
330
C
100
AcDbDictionary
281
     1
  0
ACDBDICTIONARYWDFLT
  5
E
102
{ACAD_REACTORS
330
C
102
}
330
C
100
AcDbDictionary
281
     1
  3
Normal
350
F
100
AcDbDictionaryWithDefault
340
F
  0
LAYOUT
  5
1E
102
{ACAD_REACTORS
330
1A
102
}
330
1A
100
AcDbPlotSettings
  1

  2
none_device
  4

  6

 40
0.0
 41
0.0
 42
0.0
 43
0.0
 44
0.0
 45
0.0
 46
0.0
 47
0.0
 48
0.0
 49
0.0
140
0.0
141
0.0
142
1.0
143
1.0
 70
   688
 72
     0
 73
     0
 74
     5
  7

 75
    16
147
1.0
148
0.0
149
0.0
100
AcDbLayout
  1
Layout1
 70
     1
 71
     1
 10
0.0
 20
0.0
 11
420.0
 21
297.0
 12
0.0
 22
0.0
 32
0.0
 14
1.0000000000E+20
 24
1.0000000000E+20
 34
1.0000000000E+20
 15
-1.0000000000E+20
 25
-1.0000000000E+20
 35
-1.0000000000E+20
146
0.0
 13
0.0
 23
0.0
 33
0.0
 16
1.0
 26
0.0
 36
0.0
 17
0.0
 27
1.0
 37
0.0
 76
     0
330
1B
  0
LAYOUT
  5
26
102
{ACAD_REACTORS
330
1A
102
}
330
1A
100
AcDbPlotSettings
  1

  2
none_device
  4

  6

 40
0.0
 41
0.0
 42
0.0
 43
0.0
 44
0.0
 45
0.0
 46
0.0
 47
0.0
 48
0.0
 49
0.0
140
0.0
141
0.0
142
1.0
143
1.0
 70
   688
 72
     0
 73
     0
 74
     5
  7

 75
    16
147
1.0
148
0.0
149
0.0
100
AcDbLayout
  1
Layout2
 70
     1
 71
     2
 10
0.0
 20
0.0
 11
0.0
 21
0.0
 12
0.0
 22
0.0
 32
0.0
 14
0.0
 24
0.0
 34
0.0
 15
0.0
 25
0.0
 35
0.0
146
0.0
 13
0.0
 23
0.0
 33
0.0
 16
1.0
 26
0.0
 36
0.0
 17
0.0
 27
1.0
 37
0.0
 76
     0
330
23
  0
LAYOUT
  5
22
102
{ACAD_REACTORS
330
1A
102
}
330
1A
100
AcDbPlotSettings
  1

  2
none_device
  4

  6

 40
0.0
 41
0.0
 42
0.0
 43
0.0
 44
0.0
 45
0.0
 46
0.0
 47
0.0
 48
0.0
 49
0.0
140
0.0
141
0.0
142
1.0
143
1.0
 70
  1712
 72
     0
 73
     0
 74
     0
  7

 75
     0
147
1.0
148
0.0
149
0.0
100
AcDbLayout
  1
Model
 70
     1
 71
     0
 10
0.0
 20
0.0
 11
841.0
 21
594.0
 12
0.0
 22
0.0
 32
0.0
 14
0.0
 24
0.0
 34
0.0
 15
841.0
 25
594.0
 35
0.0
146
0.0
 13
0.0
 23
0.0
 33
0.0
 16
1.0
 26
0.0
 36
0.0
 17
0.0
 27
1.0
 37
0.0
 76
     0
330
1F
331
29
  0
MLINESTYLE
  5
18
102
{ACAD_REACTORS
330
17
102
}
330
17
100
AcDbMlineStyle
  2
Standard
 70
     0
  3

 62
   256
 51
90.0
 52
90.0
 71
     2
 49
0.5
 62
   256
  6
BYLAYER
 49
-0.5
 62
   256
  6
BYLAYER
  0
ACDBPLACEHOLDER
  5
F
102
{ACAD_REACTORS
330
E
102
}
330
E
  0
ENDSEC
  0
EOF
