  0
SECTION
  2
HEADER
  9
$ACADVER
  1
AC1015
  9
$ACADMAINTVER
 70
     6
  9
$DWGCODEPAGE
  3
ANSI_1252
  9
$INSBASE
 10
0.0
 20
0.0
 30
0.0
  9
$EXTMIN
 10
0.0
 20
0.0
 30
0.0
  9
$EXTMAX
 10
594.0
 20
420.0
 30
0.0
  9
$LIMMIN
 10
0.0
 20
0.0
  9
$LIMMAX
 10
594.0
 20
420.0
  9
$ORTHOMODE
 70
     0
  9
$REGENMODE
 70
     1
  9
$FILLMODE
 70
     1
  9
$QTEXTMODE
 70
     0
  9
$MIRRTEXT
 70
     1
  9
$LTSCALE
 40
1.0
  9
$ATTMODE
 70
     1
  9
$TEXTSIZE
 40
2.5
  9
$TRACEWID
 40
1.0
  9
$TEXTSTYLE
  7
Standard
  9
$CLAYER
  8
0
  9
$CELTYPE
  6
ByLayer
  9
$CECOLOR
 62
   256
  9
$CELTSCALE
 40
1.0
  9
$DISPSILH
 70
     0
  9
$DIMSCALE
 40
1.0
  9
$DIMASZ
 40
2.5
  9
$DIMEXO
 40
1.0
  9
$DIMDLI
 40
3.75
  9
$DIMRND
 40
0.0
  9
$DIMDLE
 40
0.0
  9
$DIMEXE
 40
1.0
  9
$DIMTP
 40
0.0
  9
$DIMTM
 40
0.0
  9
$DIMTXT
 40
2.5
  9
$DIMCEN
 40
2.5
  9
$DIMTSZ
 40
0.0
  9
$DIMTOL
 70
     0
  9
$DIMLIM
 70
     0
  9
$DIMTIH
 70
     1
  9
$DIMTOH
 70
     1
  9
$DIMSE1
 70
     0
  9
$DIMSE2
 70
     0
  9
$DIMTAD
 70
     1
  9
$DIMZIN
 70
     0
  9
$DIMBLK
  1

  9
$DIMASO
 70
     1
  9
$DIMSHO
 70
     1
  9
$DIMPOST
  1

  9
$DIMAPOST
  1

  9
$DIMALT
 70
     0
  9
$DIMALTD
 70
     3
  9
$DIMALTF
 40
0.0393700787
  9
$DIMLFAC
 40
1.0
  9
$DIMTOFL
 70
     1
  9
$DIMTVP
 40
0.0
  9
$DIMTIX
 70
     0
  9
$DIMSOXD
 70
     0
  9
$DIMSAH
 70
     0
  9
$DIMBLK1
  1

  9
$DIMBLK2
  1

  9
$DIMSTYLE
  2
ISO-25
  9
$DIMCLRD
 70
     0
  9
$DIMCLRE
 70
     0
  9
$DIMCLRT
 70
     0
  9
$DIMTFAC
 40
1.0
  9
$DIMGAP
 40
1.524
  9
$DIMJUST
 70
     0
  9
$DIMSD1
 70
     0
  9
$DIMSD2
 70
     0
  9
$DIMTOLJ
 70
     0
  9
$DIMTZIN
 70
     0
  9
$DIMALTZ
 70
     0
  9
$DIMALTTZ
 70
     0
  9
$DIMUPT
 70
     0
  9
$DIMDEC
 70
     2
  9
$DIMTDEC
 70
     2
  9
$DIMALTU
 70
     2
  9
$DIMALTTD
 70
     3
  9
$DIMTXSTY
  7
Standard
  9
$DIMAUNIT
 70
     0
  9
$DIMADEC
 70
     2
  9
$DIMALTRND
 40
0.0
  9
$DIMAZIN
 70
     0
  9
$DIMDSEP
 70
    44
  9
$DIMATFIT
 70
     3
  9
$DIMFRAC
 70
     0
  9
$DIMLDRBLK
  1

  9
$DIMLUNIT
 70
     2
  9
$DIMLWD
 70
    -2
  9
$DIMLWE
 70
    -2
  9
$DIMTMOVE
 70
     0
  9
$LUNITS
 70
     2
  9
$LUPREC
 70
     2
  9
$SKETCHINC
 40
1.0
  9
$FILLETRAD
 40
10.0
  9
$AUNITS
 70
     0
  9
$AUPREC
 70
     2
  9
$MENU
  1
.
  9
$ELEVATION
 40
0.0
  9
$PELEVATION
 40
0.0
  9
$THICKNESS
 40
0.0
  9
$LIMCHECK
 70
     0
  9
$CHAMFERA
 40
10.0
  9
$CHAMFERB
 40
10.0
  9
$CHAMFERC
 40
20.0
  9
$CHAMFERD
 40
0.0
  9
$SKPOLY
 70
     0
  9
$TDCREATE
 40
2458043.460857662
  9
$TDUCREATE
 40
2458043.377524329
  9
$TDUPDATE
 40
2458043.460858033
  9
$TDUUPDATE
 40
2458043.377524699
  9
$TDINDWG
 40
0.0000000116
  9
$TDUSRTIMER
 40
0.0000000116
  9
$USRTIMER
 70
     1
  9
$ANGBASE
 50
0.0
  9
$ANGDIR
 70
     0
  9
$PDMODE
 70
     0
  9
$PDSIZE
 40
-1.0
  9
$PLINEWID
 40
0.0
  9
$SPLFRAME
 70
     0
  9
$SPLINETYPE
 70
     6
  9
$SPLINESEGS
 70
     8
  9
$HANDSEED
  5
286
  9
$SURFTAB1
 70
     6
  9
$SURFTAB2
 70
     6
  9
$SURFTYPE
 70
     6
  9
$SURFU
 70
     6
  9
$SURFV
 70
     6
  9
$UCSBASE
  2

  9
$UCSNAME
  2

  9
$UCSORG
 10
0.0
 20
0.0
 30
0.0
  9
$UCSXDIR
 10
1.0
 20
0.0
 30
0.0
  9
$UCSYDIR
 10
0.0
 20
1.0
 30
0.0
  9
$UCSORTHOREF
  2

  9
$UCSORTHOVIEW
 70
     0
  9
$UCSORGTOP
 10
0.0
 20
0.0
 30
0.0
  9
$UCSORGBOTTOM
 10
0.0
 20
0.0
 30
0.0
  9
$UCSORGLEFT
 10
0.0
 20
0.0
 30
0.0
  9
$UCSORGRIGHT
 10
0.0
 20
0.0
 30
0.0
  9
$UCSORGFRONT
 10
0.0
 20
0.0
 30
0.0
  9
$UCSORGBACK
 10
0.0
 20
0.0
 30
0.0
  9
$PUCSBASE
  2

  9
$PUCSNAME
  2

  9
$PUCSORG
 10
0.0
 20
0.0
 30
0.0
  9
$PUCSXDIR
 10
1.0
 20
0.0
 30
0.0
  9
$PUCSYDIR
 10
0.0
 20
1.0
 30
0.0
  9
$PUCSORTHOREF
  2

  9
$PUCSORTHOVIEW
 70
     0
  9
$PUCSORGTOP
 10
0.0
 20
0.0
 30
0.0
  9
$PUCSORGBOTTOM
 10
0.0
 20
0.0
 30
0.0
  9
$PUCSORGLEFT
 10
0.0
 20
0.0
 30
0.0
  9
$PUCSORGRIGHT
 10
0.0
 20
0.0
 30
0.0
  9
$PUCSORGFRONT
 10
0.0
 20
0.0
 30
0.0
  9
$PUCSORGBACK
 10
0.0
 20
0.0
 30
0.0
  9
$USERI1
 70
     0
  9
$USERI2
 70
     0
  9
$USERI3
 70
     0
  9
$USERI4
 70
     0
  9
$USERI5
 70
     0
  9
$USERR1
 40
0.0
  9
$USERR2
 40
0.0
  9
$USERR3
 40
0.0
  9
$USERR4
 40
0.0
  9
$USERR5
 40
0.0
  9
$WORLDVIEW
 70
     1
  9
$SHADEDGE
 70
     3
  9
$SHADEDIF
 70
    70
  9
$TILEMODE
 70
     1
  9
$MAXACTVP
 70
    64
  9
$PINSBASE
 10
0.0
 20
0.0
 30
0.0
  9
$PLIMCHECK
 70
     0
  9
$PEXTMIN
 10
1.0000000000E+20
 20
1.0000000000E+20
 30
1.0000000000E+20
  9
$PEXTMAX
 10
-1.0000000000E+20
 20
-1.0000000000E+20
 30
-1.0000000000E+20
  9
$PLIMMIN
 10
0.0
 20
0.0
  9
$PLIMMAX
 10
420.0
 20
297.0
  9
$UNITMODE
 70
     0
  9
$VISRETAIN
 70
     1
  9
$PLINEGEN
 70
     0
  9
$PSLTSCALE
 70
     1
  9
$TREEDEPTH
 70
  3020
  9
$CMLSTYLE
  2
Standard
  9
$CMLJUST
 70
     0
  9
$CMLSCALE
 40
20.0
  9
$PROXYGRAPHICS
 70
     1
  9
$MEASUREMENT
 70
     1
  9
$CELWEIGHT
370
    -1
  9
$ENDCAPS
280
     0
  9
$JOINSTYLE
280
     0
  9
$LWDISPLAY
290
     1
  9
$INSUNITS
 70
     4
  9
$HYPERLINKBASE
  1

  9
$STYLESHEET
  1

  9
$XEDIT
290
     1
  9
$CEPSNTYPE
380
     0
  9
$PSTYLEMODE
290
     1
  9
$FINGERPRINTGUID
  2
{23868E01-0A19-4BB6-BC09-7911DA4E3F16}
  9
$VERSIONGUID
  2
{FAEB1C32-E019-11D5-929B-00C0DF256EC4}
  9
$EXTNAMES
290
     1
  9
$PSVPSCALE
 40
0.0
  9
$OLESTARTUP
290
     0
  0
ENDSEC
  0
SECTION
  2
CLASSES
  0
CLASS
  1
ACDBDICTIONARYWDFLT
  2
AcDbDictionaryWithDefault
  3
ObjectDBX Classes
 90
        0
280
     0
281
     0
  0
CLASS
  1
VISUALSTYLE
  2
AcDbVisualStyle
  3
ObjectDBX Classes
 90
     4095
280
     0
281
     0
  0
CLASS
  1
MATERIAL
  2
AcDbMaterial
  3
ObjectDBX Classes
 90
     1153
280
     0
281
     0
  0
CLASS
  1
ACDBPLACEHOLDER
  2
AcDbPlaceHolder
  3
ObjectDBX Classes
 90
        0
280
     0
281
     0
  0
CLASS
  1
LAYOUT
  2
AcDbLayout
  3
ObjectDBX Classes
 90
        0
280
     0
281
     0
  0
ENDSEC
  0
SECTION
  2
TABLES
  0
TABLE
  2
VPORT
  5
8
330
0
100
AcDbSymbolTable
 70
     1
  0
VPORT
  5
29
330
8
100
AcDbSymbolTableRecord
100
AcDbViewportTableRecord
  2
*Active
 70
     0
 10
0.0
 20
0.0
 11
1.0
 21
1.0
 12
297.0
 22
210.0
 13
0.0
 23
0.0
 14
10.0
 24
10.0
 15
10.0
 25
10.0
 16
0.0
 26
0.0
 36
1.0
 17
0.0
 27
0.0
 37
0.0
 40
420.0
 41
1.4142857143
 42
50.0
 43
0.0
 44
0.0
 50
0.0
 51
0.0
 71
     0
 72
  2000
 73
     1
 74
     3
 75
     0
 76
     0
 77
     0
 78
     0
281
     0
 65
     1
110
0.0
120
0.0
130
0.0
111
1.0
121
0.0
131
0.0
112
0.0
122
1.0
132
0.0
 79
     0
146
0.0
  0
ENDTAB
  0
TABLE
  2
LTYPE
  5
5
330
0
100
AcDbSymbolTable
 70
     6
  0
LTYPE
  5
14
330
5
100
AcDbSymbolTableRecord
100
AcDbLinetypeTableRecord
  2
ByBlock
 70
     0
  3

 72
    65
 73
     0
 40
0.0
  0
LTYPE
  5
15
330
5
100
AcDbSymbolTableRecord
100
AcDbLinetypeTableRecord
  2
ByLayer
 70
     0
  3

 72
    65
 73
     0
 40
0.0
  0
LTYPE
  5
16
330
5
100
AcDbSymbolTableRecord
100
AcDbLinetypeTableRecord
  2
Continuous
 70
     0
  3
Solid line
 72
    65
 73
     0
 40
0.0
  0
LTYPE
  5
3F
330
5
100
AcDbSymbolTableRecord
100
AcDbLinetypeTableRecord
  2
HIDDEN
 70
     0
  3
Hidden __ __ __ __ __ __ __ __ __ __ __ __ __ __
 72
    65
 73
     2
 40
1.905
 49
1.27
 74
     0
 49
-0.635
 74
     0
  0
LTYPE
  5
40
330
5
100
AcDbSymbolTableRecord
100
AcDbLinetypeTableRecord
  2
PHANTOM
 70
     0
  3
Phantom ______  __  __  ______  __  __  ______
 72
    65
 73
     6
 40
12.7
 49
6.35
 74
     0
 49
-1.27
 74
     0
 49
1.27
 74
     0
 49
-1.27
 74
     0
 49
1.27
 74
     0
 49
-1.27
 74
     0
  0
LTYPE
  5
41
330
5
100
AcDbSymbolTableRecord
100
AcDbLinetypeTableRecord
  2
CENTER
 70
     0
  3
Center ____ _ ____ _ ____ _ ____ _ ____ _ ____
 72
    65
 73
     4
 40
10.16
 49
6.35
 74
     0
 49
-1.27
 74
     0
 49
1.27
 74
     0
 49
-1.27
 74
     0
  0
LTYPE
  5
42
330
5
100
AcDbSymbolTableRecord
100
AcDbLinetypeTableRecord
  2
CENTERX2
 70
     0
  3
Center (2x) ________  __  ________  __  _____
 72
    65
 73
     4
 40
20.32
 49
12.7
 74
     0
 49
-2.54
 74
     0
 49
2.54
 74
     0
 49
-2.54
 74
     0
  0
LTYPE
  5
43
330
5
100
AcDbSymbolTableRecord
100
AcDbLinetypeTableRecord
  2
DOT2
 70
     0
  3
Dot (.5x) ........................................
 72
    65
 73
     2
 40
0.635
 49
0.0
 74
     0
 49
-0.635
 74
     0
  0
ENDTAB
  0
TABLE
  2
LAYER
  5
2
330
0
100
AcDbSymbolTable
 70
     3
  0
LAYER
  5
10
330
2
100
AcDbSymbolTableRecord
100
AcDbLayerTableRecord
  2
0
 70
     0
 62
     7
  6
Continuous
370
    -3
390
F
  0
LAYER
  5
44
330
2
100
AcDbSymbolTableRecord
100
AcDbLayerTableRecord
  2
FORMAT
 70
     0
 62
     7
  6
Continuous
370
    -3
390
F
  0
LAYER
  5
45
330
2
100
AcDbSymbolTableRecord
100
AcDbLayerTableRecord
  2
PROTOTYPE
 70
     0
 62
     7
  6
Continuous
370
    -3
390
F
  0
ENDTAB
  0
TABLE
  2
STYLE
  5
3
330
0
100
AcDbSymbolTable
 70
     1
  0
STYLE
  5
11
330
3
100
AcDbSymbolTableRecord
100
AcDbTextStyleTableRecord
  2
Standard
 70
     0
 40
0.0
 41
1.0
 50
0.0
 71
     0
 42
2.5
  3
txt
  4

  0
ENDTAB
  0
TABLE
  2
VIEW
  5
6
330
0
100
AcDbSymbolTable
 70
     0
  0
ENDTAB
  0
TABLE
  2
UCS
  5
7
330
0
100
AcDbSymbolTable
 70
     0
  0
ENDTAB
  0
TABLE
  2
APPID
  5
9
330
0
100
AcDbSymbolTable
 70
     1
  0
APPID
  5
12
330
9
100
AcDbSymbolTableRecord
100
AcDbRegAppTableRecord
  2
ACAD
 70
     0
  0
ENDTAB
  0
TABLE
  2
DIMSTYLE
  5
A
330
0
100
AcDbSymbolTable
 70
     1
100
AcDbDimStyleTable
  0
DIMSTYLE
105
27
330
A
100
AcDbSymbolTableRecord
100
AcDbDimStyleTableRecord
  2
ISO-25
 70
     0
 41
2.5
 42
0.625
 43
3.75
 44
1.25
 73
     0
 74
     0
 77
     1
 78
     8
140
2.5
141
2.5
143
0.0393700787
147
0.625
171
     3
172
     1
178
     0
271
     2
272
     2
274
     3
278
    44
283
     0
284
     8
340
11
  0
ENDTAB
  0
TABLE
  2
BLOCK_RECORD
  5
1
330
0
100
AcDbSymbolTable
 70
     3
  0
BLOCK_RECORD
  5
1F
330
1
100
AcDbSymbolTableRecord
100
AcDbBlockTableRecord
  2
*Model_Space
340
22
  0
BLOCK_RECORD
  5
1B
330
1
100
AcDbSymbolTableRecord
100
AcDbBlockTableRecord
  2
*Paper_Space
340
1E
  0
BLOCK_RECORD
  5
23
330
1
100
AcDbSymbolTableRecord
100
AcDbBlockTableRecord
  2
*Paper_Space0
340
26
  0
BLOCK_RECORD
  5
1DC
330
1
100
AcDbSymbolTableRecord
100
AcDbBlockTableRecord
  2
SW_CENTERMARKSYMBOL_0
340
0
102
{BLKREFS
331
1E7
102
}
  0
BLOCK_RECORD
  5
27A
330
1
100
AcDbSymbolTableRecord
100
AcDbBlockTableRecord
  2
SW_CENTERMARKSYMBOL_1
340
0
102
{BLKREFS
331
285
102
}
  0
ENDTAB
  0
ENDSEC
  0
SECTION
  2
BLOCKS
  0
BLOCK
  5
20
330
1F
100
AcDbEntity
  8
0
100
AcDbBlockBegin
  2
*Model_Space
 70
     0
 10
0.0
 20
0.0
 30
0.0
  3
*Model_Space
  1

  0
ENDBLK
  5
21
330
1F
100
AcDbEntity
  8
0
100
AcDbBlockEnd
  0
BLOCK
  5
1C
330
1B
100
AcDbEntity
 67
     1
  8
0
100
AcDbBlockBegin
  2
*Paper_Space
 70
     0
 10
0.0
 20
0.0
 30
0.0
  3
*Paper_Space
  1

  0
ENDBLK
  5
1D
330
1B
100
AcDbEntity
 67
     1
  8
0
100
AcDbBlockEnd
  0
BLOCK
  5
24
330
23
100
AcDbEntity
  8
0
100
AcDbBlockBegin
  2
*Paper_Space0
 70
     0
 10
0.0
 20
0.0
 30
0.0
  3
*Paper_Space0
  1

  0
ENDBLK
  5
25
330
23
100
AcDbEntity
  8
0
100
AcDbBlockEnd
  0
BLOCK
  5
1DD
330
1DC
100
AcDbEntity
  8
0
100
AcDbBlockBegin
  2
SW_CENTERMARKSYMBOL_0
 70
     0
 10
0.0
 20
0.0
 30
0.0
  3
SW_CENTERMARKSYMBOL_0
  1

  0
LINE
  5
1DF
330
1DC
100
AcDbEntity
  8
FORMAT
 62
     0
100
AcDbLine
 10
0.0
 20
0.0
 30
0.0
 11
0.0
 21
2.5
 31
0.0
  0
LINE
  5
1E0
330
1DC
100
AcDbEntity
  8
FORMAT
 62
     0
100
AcDbLine
 10
0.0
 20
0.0
 30
0.0
 11
-2.5
 21
0.0
 31
0.0
  0
LINE
  5
1E1
330
1DC
100
AcDbEntity
  8
FORMAT
 62
     0
100
AcDbLine
 10
0.0
 20
0.0
 30
0.0
 11
0.0
 21
-2.5
 31
0.0
  0
LINE
  5
1E2
330
1DC
100
AcDbEntity
  8
FORMAT
 62
     0
100
AcDbLine
 10
0.0
 20
0.0
 30
0.0
 11
2.5
 21
0.0
 31
0.0
  0
LINE
  5
1E3
330
1DC
100
AcDbEntity
  8
FORMAT
 62
     0
100
AcDbLine
 10
0.0
 20
5.0
 30
0.0
 11
0.0
 21
205.8250867817
 31
0.0
  0
LINE
  5
1E4
330
1DC
100
AcDbEntity
  8
FORMAT
 62
     0
100
AcDbLine
 10
-5.0
 20
0.0
 30
0.0
 11
-39.0552198888
 21
0.0
 31
0.0
  0
LINE
  5
1E5
330
1DC
100
AcDbEntity
  8
FORMAT
 62
     0
100
AcDbLine
 10
0.0
 20
-5.0
 30
0.0
 11
0.0
 21
-33.7222623832
 31
0.0
  0
LINE
  5
1E6
330
1DC
100
AcDbEntity
  8
FORMAT
 62
     0
100
AcDbLine
 10
5.0
 20
0.0
 30
0.0
 11
39.625372845
 21
0.0
 31
0.0
  0
ENDBLK
  5
1DE
330
1DC
100
AcDbEntity
  8
0
100
AcDbBlockEnd
  0
BLOCK
  5
27B
330
27A
100
AcDbEntity
  8
0
100
AcDbBlockBegin
  2
SW_CENTERMARKSYMBOL_1
 70
     0
 10
0.0
 20
0.0
 30
0.0
  3
SW_CENTERMARKSYMBOL_1
  1

  0
LINE
  5
27D
330
27A
100
AcDbEntity
  8
FORMAT
 62
     0
100
AcDbLine
 10
0.0
 20
0.0
 30
0.0
 11
0.0
 21
2.5
 31
0.0
  0
LINE
  5
27E
330
27A
100
AcDbEntity
  8
FORMAT
 62
     0
100
AcDbLine
 10
0.0
 20
0.0
 30
0.0
 11
-2.5
 21
0.0
 31
0.0
  0
LINE
  5
27F
330
27A
100
AcDbEntity
  8
FORMAT
 62
     0
100
AcDbLine
 10
0.0
 20
0.0
 30
0.0
 11
0.0
 21
-2.5
 31
0.0
  0
LINE
  5
280
330
27A
100
AcDbEntity
  8
FORMAT
 62
     0
100
AcDbLine
 10
0.0
 20
0.0
 30
0.0
 11
2.5
 21
0.0
 31
0.0
  0
LINE
  5
281
330
27A
100
AcDbEntity
  8
FORMAT
 62
     0
100
AcDbLine
 10
0.0
 20
5.0
 30
0.0
 11
0.0
 21
47.6324726095
 31
0.0
  0
LINE
  5
282
330
27A
100
AcDbEntity
  8
FORMAT
 62
     0
100
AcDbLine
 10
-5.0
 20
0.0
 30
0.0
 11
-77.8704685949
 21
0.0
 31
0.0
  0
LINE
  5
283
330
27A
100
AcDbEntity
  8
FORMAT
 62
     0
100
AcDbLine
 10
0.0
 20
-5.0
 30
0.0
 11
0.0
 21
-47.5298231359
 31
0.0
  0
LINE
  5
284
330
27A
100
AcDbEntity
  8
FORMAT
 62
     0
100
AcDbLine
 10
5.0
 20
0.0
 30
0.0
 11
79.1791107979
 21
0.0
 31
0.0
  0
ENDBLK
  5
27C
330
27A
100
AcDbEntity
  8
0
100
AcDbBlockEnd
  0
ENDSEC
  0
SECTION
  2
ENTITIES
  0
LINE
  5
46
330
1F
100
AcDbEntity
  8
0
  6
Continuous
 62
     7
370
    15
100
AcDbLine
 10
221.5239783408
 20
323.7061012486
 30
0.0
 11
221.5239783408
 21
335.709061096
 31
0.0
  0
LINE
  5
47
330
1F
100
AcDbEntity
  8
0
  6
Continuous
 62
     7
370
    15
100
AcDbLine
 10
167.0239796522
 20
335.709061096
 30
0.0
 11
167.0239796522
 21
323.7061012486
 31
0.0
  0
ARC
  5
48
330
1F
100
AcDbEntity
  8
0
  6
Continuous
 62
     7
370
    15
100
AcDbCircle
 10
218.5239789965
 20
335.7090551891
 30
0.0
 40
3.000000000000028
100
AcDbArc
 50
0.0
 51
73.8187126959
  0
ARC
  5
49
330
1F
100
AcDbEntity
  8
0
  6
Continuous
 62
     7
370
    15
100
AcDbCircle
 10
170.0239789965
 20
335.7090551891
 30
0.0
 40
3.0
100
AcDbArc
 50
106.1812873041
 51
180.0
  0
LINE
  5
4A
330
1F
100
AcDbEntity
  8
0
  6
Continuous
 62
     7
370
    15
100
AcDbLine
 10
212.6599592748
 20
338.7090522745
 30
0.0
 11
175.8879968556
 21
338.7090522745
 31
0.0
  0
LINE
  5
4B
330
1F
100
AcDbEntity
  8
0
  6
Continuous
 62
     7
370
    15
100
AcDbLine
 10
256.7739789965
 20
297.7061081627
 30
0.0
 11
256.0931449416
 21
323.7061012486
 31
0.0
  0
LINE
  5
4C
330
1F
100
AcDbEntity
  8
0
  6
Continuous
 62
     7
370
    15
100
AcDbLine
 10
255.5078124287
 20
268.7061052719
 30
0.0
 11
256.7739789965
 21
297.7061081627
 31
0.0
  0
LINE
  5
4D
330
1F
100
AcDbEntity
  8
0
  6
Continuous
 62
     7
370
    15
100
AcDbLine
 10
131.7739789965
 20
297.7061081627
 30
0.0
 11
133.0401455643
 21
268.7061052719
 31
0.0
  0
LINE
  5
4E
330
1F
100
AcDbEntity
  8
0
  6
Continuous
 62
     7
370
    15
100
AcDbLine
 10
132.4548130514
 20
323.7061012486
 30
0.0
 11
131.7739789965
 21
297.7061081627
 31
0.0
  0
LINE
  5
4F
330
1F
100
AcDbEntity
  8
0
  6
Continuous
 62
     7
370
    15
100
AcDbLine
 10
203.2739786091
 20
369.7061050633
 30
0.0
 11
203.2739786091
 21
374.4948316315
 31
0.0
  0
LINE
  5
50
330
1F
100
AcDbEntity
  8
0
  6
Continuous
 62
     7
370
    15
100
AcDbLine
 10
185.2739793839
 20
374.4948316315
 30
0.0
 11
185.2739793839
 21
369.7061050633
 31
0.0
  0
LINE
  5
51
330
1F
100
AcDbEntity
  8
0
  6
Continuous
 62
     7
370
    15
100
AcDbLine
 10
254.154321331
 20
237.7061039159
 30
0.0
 11
255.5078124287
 21
268.7061052719
 31
0.0
  0
LINE
  5
52
330
1F
100
AcDbEntity
  8
0
  6
Continuous
 62
     7
370
    15
100
AcDbLine
 10
133.0401455643
 20
268.7061052719
 30
0.0
 11
134.393636662
 21
237.7061039159
 31
0.0
  0
LINE
  5
53
330
1F
100
AcDbEntity
  8
0
  6
Continuous
 62
     7
370
    15
100
AcDbLine
 10
174.8832599851
 20
297.7061081627
 30
0.0
 11
146.8951856377
 21
297.7061081627
 31
0.0
  0
LINE
  5
54
330
1F
100
AcDbEntity
  8
0
  6
Continuous
 62
     7
370
    15
100
AcDbLine
 10
174.9735349449
 20
287.7061027983
 30
0.0
 11
174.8832599851
 21
297.7061081627
 31
0.0
  0
LINE
  5
55
330
1F
100
AcDbEntity
  8
0
  6
Continuous
 62
     7
370
    15
100
AcDbLine
 10
147.1452047708
 20
287.7061027983
 30
0.0
 11
174.9735349449
 21
287.7061027983
 31
0.0
  0
SPLINE
  5
56
330
1F
100
AcDbEntity
  8
0
  6
Continuous
 62
     7
370
    15
100
AcDbSpline
210
0.0
220
0.0
230
1.0
 70
    24
 71
     3
 72
     8
 73
     4
 74
     0
 42
0.00000001
 43
0.00000001
 12
1.0
 22
0.0
 32
0.0
 13
1.0
 23
0.0
 33
0.0
 40
0.0
 40
0.0
 40
0.0
 40
0.0
 40
1.0
 40
1.0
 40
1.0
 40
1.0
 10
146.8264789964993
 20
297.7061045864303
 30
0.0
 10
146.9327247002757
 20
294.3726433674945
 30
0.0
 10
147.0389665085489
 20
291.0393043700567
 30
0.0
 10
147.1452038797315
 20
287.7061045864303
 30
0.0
  0
LINE
  5
57
330
1F
100
AcDbEntity
  8
0
  6
Continuous
 62
     7
370
    15
100
AcDbLine
 10
213.6646980079
 20
297.7061081627
 30
0.0
 11
241.6527723553
 21
297.7061081627
 31
0.0
  0
LINE
  5
58
330
1F
100
AcDbEntity
  8
0
  6
Continuous
 62
     7
370
    15
100
AcDbLine
 10
213.6646980079
 20
297.7061081627
 30
0.0
 11
213.6225184085
 21
305.5061060885
 31
0.0
  0
LINE
  5
59
330
1F
100
AcDbEntity
  8
0
  6
Continuous
 62
     7
370
    15
100
AcDbLine
 10
213.6225184085
 20
305.5061060885
 30
0.0
 11
241.4951590481
 21
305.5061060885
 31
0.0
  0
LINE
  5
5A
330
1F
100
AcDbEntity
  8
0
  6
Continuous
 62
     7
370
    15
100
AcDbLine
 10
241.6527723553
 20
297.7061081627
 30
0.0
 11
241.4951590481
 21
305.5061060885
 31
0.0
  0
LINE
  5
5B
330
1F
100
AcDbEntity
  8
0
  6
Continuous
 62
     7
370
    15
100
AcDbLine
 10
174.9254395845
 20
305.5061060885
 30
0.0
 11
147.0527989449
 21
305.5061060885
 31
0.0
  0
LINE
  5
5C
330
1F
100
AcDbEntity
  8
0
  6
Continuous
 62
     7
370
    15
100
AcDbLine
 10
174.8832599851
 20
297.7061081627
 30
0.0
 11
174.9254395845
 21
305.5061060885
 31
0.0
  0
LINE
  5
5D
330
1F
100
AcDbEntity
  8
0
  6
Continuous
 62
     7
370
    15
100
AcDbLine
 10
146.8951856377
 20
297.7061081627
 30
0.0
 11
147.0527989449
 21
305.5061060885
 31
0.0
  0
SPLINE
  5
5E
330
1F
100
AcDbEntity
  8
0
  6
Continuous
 62
     7
370
    15
100
AcDbSpline
210
0.0
220
0.0
230
1.0
 70
    24
 71
     3
 72
     8
 73
     4
 74
     0
 42
0.00000001
 43
0.00000001
 12
1.0
 22
0.0
 32
0.0
 13
1.0
 23
0.0
 33
0.0
 40
0.0
 40
0.0
 40
0.0
 40
0.0
 40
1.0
 40
1.0
 40
1.0
 40
1.0
 10
241.7214789964993
 20
297.7061045864303
 30
0.0
 10
241.6152332927229
 20
294.3726433674945
 30
0.0
 10
241.5089914844497
 20
291.0393043700567
 30
0.0
 10
241.4027541132672
 20
287.7061045864303
 30
0.0
  0
LINE
  5
5F
330
1F
100
AcDbEntity
  8
0
  6
Continuous
 62
     7
370
    15
100
AcDbLine
 10
241.4027532222
 20
287.7061027983
 30
0.0
 11
213.5744230481
 21
287.7061027983
 31
0.0
  0
LINE
  5
60
330
1F
100
AcDbEntity
  8
0
  6
Continuous
 62
     7
370
    15
100
AcDbLine
 10
213.5744230481
 20
287.7061027983
 30
0.0
 11
213.6646980079
 21
297.7061081627
 31
0.0
  0
LINE
  5
61
330
1F
100
AcDbEntity
  8
0
  6
Continuous
 62
     7
370
    15
100
AcDbLine
 10
213.6225184085
 20
305.5061060885
 30
0.0
 11
174.9254395845
 21
305.5061060885
 31
0.0
  0
LINE
  5
62
330
1F
100
AcDbEntity
  8
0
  6
Continuous
 62
     7
370
    15
100
AcDbLine
 10
174.8832599851
 20
297.7061081627
 30
0.0
 11
213.6646980079
 21
297.7061081627
 31
0.0
  0
LINE
  5
63
330
1F
100
AcDbEntity
  8
0
  6
Continuous
 62
     7
370
    15
100
AcDbLine
 10
174.9735349449
 20
287.7061027983
 30
0.0
 11
213.5744230481
 21
287.7061027983
 31
0.0
  0
LINE
  5
64
330
1F
100
AcDbEntity
  8
0
  6
Continuous
 62
     7
370
    15
100
AcDbLine
 10
216.0455198618
 20
286.0814217427
 30
0.0
 11
235.8982903542
 21
286.0814217427
 31
0.0
  0
SPLINE
  5
65
330
1F
100
AcDbEntity
  8
0
  6
Continuous
 62
     7
370
    15
100
AcDbSpline
210
0.0
220
0.0
230
1.0
 70
     8
 71
     3
 72
     8
 73
     4
 74
     0
 42
0.00000001
 43
0.00000001
 12
1.0
 22
0.0
 32
0.0
 13
1.0
 23
0.0
 33
0.0
 40
0.0
 40
0.0
 40
0.0
 40
0.0
 40
1.0
 40
1.0
 40
1.0
 40
1.0
 10
211.8239077712836
 20
285.545525594697
 30
0.0
 10
213.233512692109
 20
285.7091960138638
 30
0.0
 10
214.6405962085472
 20
285.8885802700672
 30
0.0
 10
216.0455200535766
 20
286.0814239795592
 30
0.0
  0
SPLINE
  5
66
330
1F
100
AcDbEntity
  8
0
  6
Continuous
 62
     7
370
    15
100
AcDbSpline
210
0.0
220
0.0
230
1.0
 70
     8
 71
     3
 72
     8
 73
     4
 74
     0
 42
0.00000001
 43
0.00000001
 12
1.0
 22
0.0
 32
0.0
 13
1.0
 23
0.0
 33
0.0
 40
0.0
 40
0.0
 40
0.0
 40
0.0
 40
1.0
 40
1.0
 40
1.0
 40
1.0
 10
211.8239077712836
 20
285.545525594697
 30
0.0
 10
212.4351361292723
 20
286.264099289224
 30
0.0
 10
213.016235308049
 20
286.984432805945
 30
0.0
 10
213.574422633041
 20
287.7061045864303
 30
0.0
  0
SPLINE
  5
67
330
1F
100
AcDbEntity
  8
0
  6
Continuous
 62
     7
370
    15
100
AcDbSpline
210
0.0
220
0.0
230
1.0
 70
     8
 71
     3
 72
    14
 73
    10
 74
     0
 42
0.00000001
 43
0.00000001
 12
1.0
 22
0.0
 32
0.0
 13
1.0
 23
0.0
 33
0.0
 40
0.0
 40
0.0
 40
0.0
 40
0.0
 40
0.25
 40
0.25
 40
0.5
 40
0.5
 40
0.75
 40
0.75
 40
1.0
 40
1.0
 40
1.0
 40
1.0
 10
235.8982891112155
 20
286.0814239795592
 30
0.0
 10
236.2773349724449
 20
286.2013080076778
 30
0.0
 10
236.6828332826532
 20
286.3276473079839
 30
0.0
 10
237.5406799285181
 20
286.5902331235811
 30
0.0
 10
237.9861185979036
 20
286.7243725946335
 30
0.0
 10
238.9087373169482
 20
286.9974275592012
 30
0.0
 10
239.3859223328276
 20
287.136347428638
 30
0.0
 10
240.372426349108
 20
287.4186166751306
 30
0.0
 10
240.8834096933865
 20
287.5624124991954
 30
0.0
 10
241.4027541132672
 20
287.7061045864303
 30
0.0
  0
SPLINE
  5
68
330
1F
100
AcDbEntity
  8
0
  6
Continuous
 62
     7
370
    15
100
AcDbSpline
210
0.0
220
0.0
230
1.0
 70
     8
 71
     3
 72
     8
 73
     4
 74
     0
 42
0.00000001
 43
0.00000001
 12
1.0
 22
0.0
 32
0.0
 13
1.0
 23
0.0
 33
0.0
 40
0.0
 40
0.0
 40
0.0
 40
0.0
 40
1.0
 40
1.0
 40
1.0
 40
1.0
 10
176.7240502217151
 20
285.545525594697
 30
0.0
 10
176.1128218637264
 20
286.264099289224
 30
0.0
 10
175.5317226849496
 20
286.984432805945
 30
0.0
 10
174.9735353599576
 20
287.7061045864303
 30
0.0
  0
SPLINE
  5
69
330
1F
100
AcDbEntity
  8
0
  6
Continuous
 62
     7
370
    15
100
AcDbSpline
210
0.0
220
0.0
230
1.0
 70
     8
 71
     3
 72
     8
 73
     4
 74
     0
 42
0.00000001
 43
0.00000001
 12
1.0
 22
0.0
 32
0.0
 13
1.0
 23
0.0
 33
0.0
 40
0.0
 40
0.0
 40
0.0
 40
0.0
 40
1.0
 40
1.0
 40
1.0
 40
1.0
 10
176.724050221715
 20
285.545525594697
 30
0.0
 10
175.3144453008896
 20
285.7091960138638
 30
0.0
 10
173.9073617844515
 20
285.8885802700672
 30
0.0
 10
172.5024379394221
 20
286.0814239795592
 30
0.0
  0
LINE
  5
6A
330
1F
100
AcDbEntity
  8
0
  6
Continuous
 62
     7
370
    15
100
AcDbLine
 10
172.5024381312
 20
286.0814217427
 30
0.0
 11
152.6496676388
 21
286.0814217427
 31
0.0
  0
SPLINE
  5
6B
330
1F
100
AcDbEntity
  8
0
  6
Continuous
 62
     7
370
    15
100
AcDbSpline
210
0.0
220
0.0
230
1.0
 70
     8
 71
     3
 72
    14
 73
    10
 74
     0
 42
0.00000001
 43
0.00000001
 12
1.0
 22
0.0
 32
0.0
 13
1.0
 23
0.0
 33
0.0
 40
0.0
 40
0.0
 40
0.0
 40
0.0
 40
0.25
 40
0.25
 40
0.5
 40
0.5
 40
0.75
 40
0.75
 40
1.0
 40
1.0
 40
1.0
 40
1.0
 10
152.6496688817831
 20
286.0814239795592
 30
0.0
 10
152.2706230205538
 20
286.2013080076778
 30
0.0
 10
151.8651247103454
 20
286.3276473079839
 30
0.0
 10
151.0072780644805
 20
286.5902331235811
 30
0.0
 10
150.5618393950951
 20
286.7243725946335
 30
0.0
 10
149.6392206760504
 20
286.9974275592012
 30
0.0
 10
149.162035660171
 20
287.136347428638
 30
0.0
 10
148.1755316438906
 20
287.4186166751306
 30
0.0
 10
147.6645482996122
 20
287.5624124991954
 30
0.0
 10
147.1452038797315
 20
287.7061045864303
 30
0.0
  0
LINE
  5
6C
330
1F
100
AcDbEntity
  8
0
  6
Continuous
 62
     7
370
    15
100
AcDbLine
 10
211.8239072742
 20
285.5455238322
 30
0.0
 11
176.7240507188
 21
285.5455238322
 31
0.0
  0
LINE
  5
6D
330
1F
100
AcDbEntity
  8
0
  6
Continuous
 62
     7
370
    15
100
AcDbLine
 10
156.1987479808
 20
309.5996860364
 30
0.0
 11
232.3492100122
 21
309.5996860364
 31
0.0
  0
LINE
  5
6E
330
1F
100
AcDbEntity
  8
0
  6
Continuous
 62
     7
370
    15
100
AcDbLine
 10
232.6909383418
 20
305.5061060885
 30
0.0
 11
232.3492100122
 21
309.5996860364
 31
0.0
  0
LINE
  5
6F
330
1F
100
AcDbEntity
  8
0
  6
Continuous
 62
     7
370
    15
100
AcDbLine
 10
155.8570196512
 20
305.5061060885
 30
0.0
 11
156.1987479808
 21
309.5996860364
 31
0.0
  0
SPLINE
  5
70
330
1F
100
AcDbEntity
  8
0
  6
Continuous
 62
     7
370
    15
100
AcDbSpline
210
0.0
220
0.0
230
1.0
 70
     8
 71
     3
 72
    10
 73
     6
 74
     0
 42
0.00000001
 43
0.00000001
 12
1.0
 22
0.0
 32
0.0
 13
1.0
 23
0.0
 33
0.0
 40
0.0
 40
0.0
 40
0.0
 40
0.0
 40
0.5
 40
0.5
 40
1.0
 40
1.0
 40
1.0
 40
1.0
 10
156.1987481602579
 20
309.5996892758388
 30
0.0
 10
158.4551688365122
 20
310.8461580691144
 30
0.0
 10
160.7153051398421
 20
312.0856542581677
 30
0.0
 10
165.2485168196133
 20
314.5403656645911
 30
0.0
 10
167.5213860284726
 20
315.7559677681914
 30
0.0
 10
169.8065391415573
 20
316.9485183650812
 30
0.0
  0
LINE
  5
71
330
1F
100
AcDbEntity
  8
0
  6
Continuous
 62
     7
370
    15
100
AcDbLine
 10
218.7414193185
 20
316.9485215047
 30
0.0
 11
169.8065386745
 21
316.9485215047
 31
0.0
  0
SPLINE
  5
72
330
1F
100
AcDbEntity
  8
0
  6
Continuous
 62
     7
370
    15
100
AcDbSpline
210
0.0
220
0.0
230
1.0
 70
     8
 71
     3
 72
    10
 73
     6
 74
     0
 42
0.00000001
 43
0.00000001
 12
1.0
 22
0.0
 32
0.0
 13
1.0
 23
0.0
 33
0.0
 40
0.0
 40
0.0
 40
0.0
 40
0.0
 40
0.5
 40
0.5
 40
1.0
 40
1.0
 40
1.0
 40
1.0
 10
232.3492098327407
 20
309.5996892758388
 30
0.0
 10
230.0927891564864
 20
310.8461580691144
 30
0.0
 10
227.8326528531565
 20
312.0856542581677
 30
0.0
 10
223.2994411733854
 20
314.5403656645911
 30
0.0
 10
221.026571964526
 20
315.7559677681914
 30
0.0
 10
218.7414188514414
 20
316.9485183650812
 30
0.0
  0
SPLINE
  5
73
330
1F
100
AcDbEntity
  8
0
  6
Continuous
 62
     7
370
    15
100
AcDbSpline
210
0.0
220
0.0
230
1.0
 70
     8
 71
     3
 72
    14
 73
    10
 74
     0
 42
0.00000001
 43
0.00000001
 12
1.0
 22
0.0
 32
0.0
 13
1.0
 23
0.0
 33
0.0
 40
0.0
 40
0.0
 40
0.0
 40
0.0
 40
0.4999999999999999
 40
0.4999999999999999
 40
0.75
 40
0.75
 40
0.875
 40
0.875
 40
1.0
 40
1.0
 40
1.0
 40
1.0
 10
246.9149951478769
 20
207.7061045864303
 30
0.0
 10
245.5569412907006
 20
205.3538863063862
 30
0.0
 10
244.4029501149662
 20
202.9484331868954
 30
0.0
 10
243.1691211415892
 20
199.2105574997692
 30
0.0
 10
242.8415838599891
 20
197.942753519748
 30
0.0
 10
242.5051832081221
 20
196.0006366468112
 30
0.0
 10
242.4188904170251
 20
195.3465231492834
 30
0.0
 10
242.3028671000487
 20
194.0235404767746
 30
0.0
 10
242.2739789964993
 20
193.3629806048997
 30
0.0
 10
242.2739789964993
 20
192.7061045864304
 30
0.0
  0
LINE
  5
74
330
1F
100
AcDbEntity
  8
0
  6
Continuous
 62
     7
370
    15
100
AcDbLine
 10
242.2739794137
 20
222.7061042512
 30
0.0
 11
242.2739794137
 21
192.7061049217
 31
0.0
  0
SPLINE
  5
75
330
1F
100
AcDbEntity
  8
0
  6
Continuous
 62
     7
370
    15
100
AcDbSpline
210
0.0
220
0.0
230
1.0
 70
     8
 71
     3
 72
    14
 73
    10
 74
     0
 42
0.00000001
 43
0.00000001
 12
1.0
 22
0.0
 32
0.0
 13
1.0
 23
0.0
 33
0.0
 40
0.0
 40
0.0
 40
0.0
 40
0.0
 40
0.2500000000000002
 40
0.2500000000000002
 40
0.5000000000000004
 40
0.5000000000000004
 40
0.7500000000000002
 40
0.7500000000000002
 40
1.0
 40
1.0
 40
1.0
 40
1.0
 10
242.2739789964993
 20
222.7061045864304
 30
0.0
 10
242.2739789964993
 20
221.4015538643269
 30
0.0
 10
242.3879612029854
 20
220.1079806196915
 30
0.0
 10
242.8259322321048
 20
217.541059593394
 30
0.0
 10
243.149713227898
 20
216.2676917962004
 30
0.0
 10
243.9798619949839
 20
213.7385408957386
 30
0.0
 10
244.4797203669591
 20
212.5010625459639
 30
0.0
 10
245.6079935170708
 20
210.0726987441713
 30
0.0
 10
246.236754701556
 20
208.8808514992063
 30
0.0
 10
246.9149951478769
 20
207.7061045864303
 30
0.0
  0
LINE
  5
76
330
1F
100
AcDbEntity
  8
0
  6
Continuous
 62
     7
370
    15
100
AcDbLine
 10
246.9149944963
 20
207.7061045864
 30
0.0
 11
269.2739819767
 21
207.7061045864
 31
0.0
  0
LINE
  5
77
330
1F
100
AcDbEntity
  8
0
  6
Continuous
 62
     7
370
    15
100
AcDbLine
 10
269.2739819767
 20
177.706105257
 30
0.0
 11
269.2739819767
 21
207.7061045864
 31
0.0
  0
LINE
  5
78
330
1F
100
AcDbEntity
  8
0
  6
Continuous
 62
     7
370
    15
100
AcDbLine
 10
246.9149944963
 20
177.706105257
 30
0.0
 11
269.2739819767
 21
177.706105257
 31
0.0
  0
SPLINE
  5
79
330
1F
100
AcDbEntity
  8
0
  6
Continuous
 62
     7
370
    15
100
AcDbSpline
210
0.0
220
0.0
230
1.0
 70
     8
 71
     3
 72
    14
 73
    10
 74
     0
 42
0.00000001
 43
0.00000001
 12
1.0
 22
0.0
 32
0.0
 13
1.0
 23
0.0
 33
0.0
 40
0.0
 40
0.0
 40
0.0
 40
0.0
 40
0.25
 40
0.25
 40
0.5
 40
0.5
 40
0.75
 40
0.75
 40
1.0
 40
1.0
 40
1.0
 40
1.0
 10
242.2739789964993
 20
192.7061045864304
 30
0.0
 10
242.2739789964993
 20
191.4015538643269
 30
0.0
 10
242.3879612029854
 20
190.1079806196915
 30
0.0
 10
242.8259322321048
 20
187.541059593394
 30
0.0
 10
243.1497132278981
 20
186.2676917962004
 30
0.0
 10
243.9798619949838
 20
183.7385408957386
 30
0.0
 10
244.4797203669591
 20
182.501062545964
 30
0.0
 10
245.6079935170708
 20
180.0726987441713
 30
0.0
 10
246.236754701556
 20
178.8808514992063
 30
0.0
 10
246.9149951478769
 20
177.7061045864303
 30
0.0
  0
LINE
  5
7A
330
1F
100
AcDbEntity
  8
0
  6
Continuous
 62
     7
370
    15
100
AcDbLine
 10
146.2739785793
 20
222.7061042512
 30
0.0
 11
146.2739785793
 21
192.7061049217
 31
0.0
  0
SPLINE
  5
7B
330
1F
100
AcDbEntity
  8
0
  6
Continuous
 62
     7
370
    15
100
AcDbSpline
210
0.0
220
0.0
230
1.0
 70
     8
 71
     3
 72
    14
 73
    10
 74
     0
 42
0.00000001
 43
0.00000001
 12
1.0
 22
0.0
 32
0.0
 13
1.0
 23
0.0
 33
0.0
 40
0.0
 40
0.0
 40
0.0
 40
0.0
 40
0.4999999999999999
 40
0.4999999999999999
 40
0.75
 40
0.75
 40
0.875
 40
0.875
 40
1.0
 40
1.0
 40
1.0
 40
1.0
 10
141.6329628451217
 20
207.7061045864303
 30
0.0
 10
142.991016702298
 20
205.3538863063862
 30
0.0
 10
144.1450078780324
 20
202.9484331868954
 30
0.0
 10
145.3788368514095
 20
199.2105574997692
 30
0.0
 10
145.7063741330095
 20
197.942753519748
 30
0.0
 10
146.0427747848765
 20
196.0006366468112
 30
0.0
 10
146.1290675759735
 20
195.3465231492834
 30
0.0
 10
146.2450908929499
 20
194.0235404767746
 30
0.0
 10
146.2739789964993
 20
193.3629806048997
 30
0.0
 10
146.2739789964993
 20
192.7061045864304
 30
0.0
  0
SPLINE
  5
7C
330
1F
100
AcDbEntity
  8
0
  6
Continuous
 62
     7
370
    15
100
AcDbSpline
210
0.0
220
0.0
230
1.0
 70
     8
 71
     3
 72
    14
 73
    10
 74
     0
 42
0.00000001
 43
0.00000001
 12
1.0
 22
0.0
 32
0.0
 13
1.0
 23
0.0
 33
0.0
 40
0.0
 40
0.0
 40
0.0
 40
0.0
 40
0.2500000000000002
 40
0.2500000000000002
 40
0.5000000000000004
 40
0.5000000000000004
 40
0.7500000000000002
 40
0.7500000000000002
 40
1.0
 40
1.0
 40
1.0
 40
1.0
 10
146.2739789964993
 20
222.7061045864304
 30
0.0
 10
146.2739789964993
 20
221.4015538643269
 30
0.0
 10
146.1599967900132
 20
220.1079806196915
 30
0.0
 10
145.7220257608938
 20
217.541059593394
 30
0.0
 10
145.3982447651006
 20
216.2676917962004
 30
0.0
 10
144.5680959980148
 20
213.7385408957386
 30
0.0
 10
144.0682376260395
 20
212.5010625459639
 30
0.0
 10
142.9399644759279
 20
210.0726987441713
 30
0.0
 10
142.3112032914426
 20
208.8808514992063
 30
0.0
 10
141.6329628451217
 20
207.7061045864303
 30
0.0
  0
SPLINE
  5
7D
330
1F
100
AcDbEntity
  8
0
  6
Continuous
 62
     7
370
    15
100
AcDbSpline
210
0.0
220
0.0
230
1.0
 70
     8
 71
     3
 72
    14
 73
    10
 74
     0
 42
0.00000001
 43
0.00000001
 12
1.0
 22
0.0
 32
0.0
 13
1.0
 23
0.0
 33
0.0
 40
0.0
 40
0.0
 40
0.0
 40
0.0
 40
0.25
 40
0.25
 40
0.5
 40
0.5
 40
0.75
 40
0.75
 40
1.0
 40
1.0
 40
1.0
 40
1.0
 10
146.2739789964993
 20
192.7061045864304
 30
0.0
 10
146.2739789964993
 20
191.4015538643269
 30
0.0
 10
146.1599967900132
 20
190.1079806196915
 30
0.0
 10
145.7220257608938
 20
187.541059593394
 30
0.0
 10
145.3982447651005
 20
186.2676917962004
 30
0.0
 10
144.5680959980148
 20
183.7385408957386
 30
0.0
 10
144.0682376260395
 20
182.501062545964
 30
0.0
 10
142.9399644759279
 20
180.0726987441713
 30
0.0
 10
142.3112032914426
 20
178.8808514992063
 30
0.0
 10
141.6329628451217
 20
177.7061045864303
 30
0.0
  0
LINE
  5
7E
330
1F
100
AcDbEntity
  8
0
  6
Continuous
 62
     7
370
    15
100
AcDbLine
 10
141.6329634967
 20
177.706105257
 30
0.0
 11
119.2739760163
 21
177.706105257
 31
0.0
  0
LINE
  5
7F
330
1F
100
AcDbEntity
  8
0
  6
Continuous
 62
     7
370
    15
100
AcDbLine
 10
119.2739760163
 20
177.706105257
 30
0.0
 11
119.2739760163
 21
207.7061045864
 31
0.0
  0
LINE
  5
80
330
1F
100
AcDbEntity
  8
0
  6
Continuous
 62
     7
370
    15
100
AcDbLine
 10
141.6329634967
 20
207.7061045864
 30
0.0
 11
119.2739760163
 21
207.7061045864
 31
0.0
  0
LINE
  5
81
330
1F
100
AcDbEntity
  8
0
  6
Continuous
 62
     7
370
    15
100
AcDbLine
 10
185.3516731071
 20
270.7626480559
 30
0.0
 11
186.8886706079
 21
270.7626480559
 31
0.0
  0
ARC
  5
82
330
1F
100
AcDbEntity
  8
0
  6
Continuous
 62
     7
370
    15
100
AcDbCircle
 10
185.3516735151
 20
270.8526459755
 30
0.0
 40
0.0900000000000129
100
AcDbArc
 50
157.5
 51
270.0
  0
LINE
  5
83
330
1F
100
AcDbEntity
  8
0
  6
Continuous
 62
     7
370
    15
100
AcDbLine
 10
186.9216990317
 20
274.8782072166
 30
0.0
 11
185.2685246276
 21
270.887087653
 31
0.0
  0
ARC
  5
84
330
1F
100
AcDbEntity
  8
0
  6
Continuous
 62
     7
370
    15
100
AcDbCircle
 10
186.8385499823
 20
274.9126459755
 30
0.0
 40
0.0900000000000392
100
AcDbArc
 50
337.5
 51
90.0
  0
ARC
  5
85
330
1F
100
AcDbEntity
  8
0
  6
Continuous
 62
     7
370
    15
100
AcDbCircle
 10
189.8859427329
 20
276.5126459755
 30
0.0
 40
0.0900000000000129
100
AcDbArc
 50
22.5
 51
90.0
  0
ARC
  5
86
330
1F
100
AcDbEntity
  8
0
  6
Continuous
 62
     7
370
    15
100
AcDbCircle
 10
186.8886704396
 20
270.8526459755
 30
0.0
 40
0.0900000000000175
100
AcDbArc
 50
270.0
 51
337.5
  0
LINE
  5
87
330
1F
100
AcDbEntity
  8
0
  6
Continuous
 62
     7
370
    15
100
AcDbLine
 10
188.1687404247
 20
273.3826447228
 30
0.0
 11
189.4133245232
 21
273.3826447228
 31
0.0
  0
ARC
  5
88
330
1F
100
AcDbEntity
  8
0
  6
Continuous
 62
     7
370
    15
100
AcDbCircle
 10
189.4133244421
 20
273.4726459755
 30
0.0
 40
0.0900000000000318
100
AcDbArc
 50
270.0
 51
22.5
  0
LINE
  5
89
330
1F
100
AcDbEntity
  8
0
  6
Continuous
 62
     7
370
    15
100
AcDbLine
 10
189.4964734683
 20
273.5070843199
 30
0.0
 11
188.8741818847
 21
275.0094342926
 31
0.0
  0
ARC
  5
8A
330
1F
100
AcDbEntity
  8
0
  6
Continuous
 62
     7
370
    15
100
AcDbCircle
 10
188.7910325055
 20
274.9749916084
 30
0.0
 40
0.0899999999999912
100
AcDbArc
 50
22.5
 51
157.5
  0
LINE
  5
8B
330
1F
100
AcDbEntity
  8
0
  6
Continuous
 62
     7
370
    15
100
AcDbLine
 10
188.7078835288
 20
275.0094342926
 30
0.0
 11
188.0855914796
 21
273.5070843199
 31
0.0
  0
ARC
  5
8C
330
1F
100
AcDbEntity
  8
0
  6
Continuous
 62
     7
370
    15
100
AcDbCircle
 10
188.168740569
 20
273.4726459755
 30
0.0
 40
0.0900000000000318
100
AcDbArc
 50
157.5
 51
270.0
  0
LINE
  5
8D
330
1F
100
AcDbEntity
  8
0
  6
Continuous
 62
     7
370
    15
100
AcDbLine
 10
186.971819553
 20
270.8182070354
 30
0.0
 11
187.4477025712
 21
271.9670865634
 31
0.0
  0
ARC
  5
8E
330
1F
100
AcDbEntity
  8
0
  6
Continuous
 62
     7
370
    15
100
AcDbCircle
 10
187.530851683
 20
271.9326459755
 30
0.0
 40
0.0899999999999912
100
AcDbArc
 50
90.0
 51
157.5
  0
LINE
  5
8F
330
1F
100
AcDbEntity
  8
0
  6
Continuous
 62
     7
370
    15
100
AcDbLine
 10
187.5308515164
 20
272.0226455429
 30
0.0
 11
190.0512134316
 21
272.0226455429
 31
0.0
  0
ARC
  5
90
330
1F
100
AcDbEntity
  8
0
  6
Continuous
 62
     7
370
    15
100
AcDbCircle
 10
190.0512133281
 20
271.9326459755
 30
0.0
 40
0.089999999999975
100
AcDbArc
 50
22.5
 51
90.0
  0
LINE
  5
91
330
1F
100
AcDbEntity
  8
0
  6
Continuous
 62
     7
370
    15
100
AcDbLine
 10
190.1343623767
 20
271.9670865634
 30
0.0
 11
190.6102453949
 21
270.8182070354
 31
0.0
  0
ARC
  5
92
330
1F
100
AcDbEntity
  8
0
  6
Continuous
 62
     7
370
    15
100
AcDbCircle
 10
190.6933945715
 20
270.8526459755
 30
0.0
 40
0.0899999999999912
100
AcDbArc
 50
202.5
 51
270.0
  0
LINE
  5
93
330
1F
100
AcDbEntity
  8
0
  6
Continuous
 62
     7
370
    15
100
AcDbLine
 10
190.6933945729
 20
270.7626480559
 30
0.0
 11
192.230391608
 21
270.7626480559
 31
0.0
  0
ARC
  5
94
330
1F
100
AcDbEntity
  8
0
  6
Continuous
 62
     7
370
    15
100
AcDbCircle
 10
192.2303914959
 20
270.8526459755
 30
0.0
 40
0.0900000000000347
100
AcDbArc
 50
270.0
 51
22.5000000001
  0
LINE
  5
95
330
1F
100
AcDbEntity
  8
0
  6
Continuous
 62
     7
370
    15
100
AcDbLine
 10
192.3135405532
 20
270.887087653
 30
0.0
 11
189.9690917353
 21
276.5470851162
 31
0.0
  0
LINE
  5
96
330
1F
100
AcDbEntity
  8
0
  6
Continuous
 62
     7
370
    15
100
AcDbLine
 10
189.8859427901
 20
276.6026440957
 30
0.0
 11
185.6069793584
 21
276.6026440957
 31
0.0
  0
ARC
  5
97
330
1F
100
AcDbEntity
  8
0
  6
Continuous
 62
     7
370
    15
100
AcDbCircle
 10
185.6069789965
 20
276.5126459755
 30
0.0
 40
0.0900000000000034
100
AcDbArc
 50
90.0
 51
180.0
  0
LINE
  5
98
330
1F
100
AcDbEntity
  8
0
  6
Continuous
 62
     7
370
    15
100
AcDbLine
 10
185.5169791388
 20
276.5126485327
 30
0.0
 11
185.5169791388
 21
275.0926423767
 31
0.0
  0
ARC
  5
99
330
1F
100
AcDbEntity
  8
0
  6
Continuous
 62
     7
370
    15
100
AcDbCircle
 10
185.6069789965
 20
275.0926459755
 30
0.0
 40
0.0900000000000318
100
AcDbArc
 50
180.0
 51
270.0
  0
LINE
  5
9A
330
1F
100
AcDbEntity
  8
0
  6
Continuous
 62
     7
370
    15
100
AcDbLine
 10
185.6069793584
 20
275.0026468137
 30
0.0
 11
186.8385500865
 21
275.0026468137
 31
0.0
  0
ARC
  5
9B
330
1F
100
AcDbEntity
  8
0
  6
Continuous
 62
     7
370
    15
100
AcDbCircle
 10
191.7568429191
 20
279.3126459755
 30
0.0
 40
0.0900000000000318
100
AcDbArc
 50
22.5000000001
 51
90.0
  0
LINE
  5
9C
330
1F
100
AcDbEntity
  8
0
  6
Continuous
 62
     7
370
    15
100
AcDbLine
 10
194.1908298404
 20
273.6716601947
 30
0.0
 11
191.8399921278
 21
279.3470878103
 31
0.0
  0
ARC
  5
9D
330
1F
100
AcDbEntity
  8
0
  6
Continuous
 62
     7
370
    15
100
AcDbCircle
 10
194.2739789965
 20
273.7061045864
 30
0.0
 40
0.0899999999999695
100
AcDbArc
 50
202.5
 51
337.5
  0
LINE
  5
9E
330
1F
100
AcDbEntity
  8
0
  6
Continuous
 62
     7
370
    15
100
AcDbLine
 10
196.7079658652
 20
279.3470878103
 30
0.0
 11
194.3571281526
 21
273.6716601947
 31
0.0
  0
ARC
  5
9F
330
1F
100
AcDbEntity
  8
0
  6
Continuous
 62
     7
370
    15
100
AcDbCircle
 10
196.7911150739
 20
279.3126459755
 30
0.0
 40
0.0900000000000347
100
AcDbArc
 50
90.0
 51
157.4999999999
  0
LINE
  5
A0
330
1F
100
AcDbEntity
  8
0
  6
Continuous
 62
     7
370
    15
100
AcDbLine
 10
203.4269790756
 20
279.4026467899
 30
0.0
 11
196.7911150432
 21
279.4026467899
 31
0.0
  0
ARC
  5
A1
330
1F
100
AcDbEntity
  8
0
  6
Continuous
 62
     7
370
    15
100
AcDbCircle
 10
203.4269789965
 20
279.3126459755
 30
0.0
 40
0.0900000000000318
100
AcDbArc
 50
0.0
 51
90.0
  0
LINE
  5
A2
330
1F
100
AcDbEntity
  8
0
  6
Continuous
 62
     7
370
    15
100
AcDbLine
 10
203.5169792952
 20
277.8926450709
 30
0.0
 11
203.5169792952
 21
279.3126437762
 31
0.0
  0
ARC
  5
A3
330
1F
100
AcDbEntity
  8
0
  6
Continuous
 62
     7
370
    15
100
AcDbCircle
 10
203.4269789965
 20
277.8926459755
 30
0.0
 40
0.0900000000000034
100
AcDbArc
 50
270.0
 51
0.0
  0
LINE
  5
A4
330
1F
100
AcDbEntity
  8
0
  6
Continuous
 62
     7
370
    15
100
AcDbLine
 10
197.8602009485
 20
277.8026495078
 30
0.0
 11
203.4269790756
 21
277.8026495078
 31
0.0
  0
ARC
  5
A5
330
1F
100
AcDbEntity
  8
0
  6
Continuous
 62
     7
370
    15
100
AcDbCircle
 10
197.8602008946
 20
277.7126459755
 30
0.0
 40
0.0899999999999912
100
AcDbArc
 50
90.0
 51
157.5
  0
LINE
  5
A6
330
1F
100
AcDbEntity
  8
0
  6
Continuous
 62
     7
370
    15
100
AcDbLine
 10
194.9070144337
 20
270.8182070354
 30
0.0
 11
197.7770517705
 21
277.7470905283
 31
0.0
  0
ARC
  5
A7
330
1F
100
AcDbEntity
  8
0
  6
Continuous
 62
     7
370
    15
100
AcDbCircle
 10
194.8238652607
 20
270.8526459755
 30
0.0
 40
0.0899999999999957
100
AcDbArc
 50
270.0
 51
337.5000000001
  0
LINE
  5
A8
330
1F
100
AcDbEntity
  8
0
  6
Continuous
 62
     7
370
    15
100
AcDbLine
 10
193.7240927372
 20
270.7626480559
 30
0.0
 11
194.8238652557
 21
270.7626480559
 31
0.0
  0
ARC
  5
A9
330
1F
100
AcDbEntity
  8
0
  6
Continuous
 62
     7
370
    15
100
AcDbCircle
 10
193.7240927323
 20
270.8526459755
 30
0.0
 40
0.0899999999999912
100
AcDbArc
 50
202.5
 51
270.0
  0
LINE
  5
AA
330
1F
100
AcDbEntity
  8
0
  6
Continuous
 62
     7
370
    15
100
AcDbLine
 10
190.7709062225
 20
277.7470905283
 30
0.0
 11
193.6409435593
 21
270.8182070354
 31
0.0
  0
ARC
  5
AB
330
1F
100
AcDbEntity
  8
0
  6
Continuous
 62
     7
370
    15
100
AcDbCircle
 10
190.6877570984
 20
277.7126459755
 30
0.0
 40
0.089999999999975
100
AcDbArc
 50
22.5
 51
90.0
  0
LINE
  5
AC
330
1F
100
AcDbEntity
  8
0
  6
Continuous
 62
     7
370
    15
100
AcDbLine
 10
185.6069793584
 20
277.8026495078
 30
0.0
 11
190.6877570445
 21
277.8026495078
 31
0.0
  0
ARC
  5
AD
330
1F
100
AcDbEntity
  8
0
  6
Continuous
 62
     7
370
    15
100
AcDbCircle
 10
185.6069789965
 20
277.8926459755
 30
0.0
 40
0.0900000000000034
100
AcDbArc
 50
180.0
 51
270.0
  0
LINE
  5
AE
330
1F
100
AcDbEntity
  8
0
  6
Continuous
 62
     7
370
    15
100
AcDbLine
 10
185.5169791388
 20
279.3126437762
 30
0.0
 11
185.5169791388
 21
277.8926450709
 31
0.0
  0
ARC
  5
AF
330
1F
100
AcDbEntity
  8
0
  6
Continuous
 62
     7
370
    15
100
AcDbCircle
 10
185.6069789965
 20
279.3126459755
 30
0.0
 40
0.0900000000000318
100
AcDbArc
 50
90.0
 51
180.0
  0
LINE
  5
B0
330
1F
100
AcDbEntity
  8
0
  6
Continuous
 62
     7
370
    15
100
AcDbLine
 10
191.7568429498
 20
279.4026467899
 30
0.0
 11
185.6069793584
 21
279.4026467899
 31
0.0
  0
LINE
  5
B1
330
1F
100
AcDbEntity
  8
0
  6
Continuous
 62
     7
370
    15
100
AcDbLine
 10
196.317566385
 20
270.7626480559
 30
0.0
 11
197.8545634201
 21
270.7626480559
 31
0.0
  0
ARC
  5
B2
330
1F
100
AcDbEntity
  8
0
  6
Continuous
 62
     7
370
    15
100
AcDbCircle
 10
201.1199337343
 20
270.8526459755
 30
0.0
 40
0.0899999999999888
100
AcDbArc
 50
212.5
 51
270.0
  0
LINE
  5
B3
330
1F
100
AcDbEntity
  8
0
  6
Continuous
 62
     7
370
    15
100
AcDbLine
 10
199.2510236459
 20
273.6187461713
 30
0.0
 11
201.044028684
 21
270.8042893508
 31
0.0
  0
ARC
  5
B4
330
1F
100
AcDbEntity
  8
0
  6
Continuous
 62
     7
370
    15
100
AcDbCircle
 10
199.1751186232
 20
273.5703855861
 30
0.0
 40
0.0899999999999953
100
AcDbArc
 50
32.5
 51
157.5
  0
LINE
  5
B5
330
1F
100
AcDbEntity
  8
0
  6
Continuous
 62
     7
370
    15
100
AcDbLine
 10
197.9377125981
 20
270.8182070354
 30
0.0
 11
199.0919695827
 21
273.6048284867
 31
0.0
  0
ARC
  5
B6
330
1F
100
AcDbEntity
  8
0
  6
Continuous
 62
     7
370
    15
100
AcDbCircle
 10
197.8545634215
 20
270.8526459755
 30
0.0
 40
0.089999999999975
100
AcDbArc
 50
270.0
 51
337.5
  0
ARC
  5
B7
330
1F
100
AcDbEntity
  8
0
  6
Continuous
 62
     7
370
    15
100
AcDbCircle
 10
196.3175664971
 20
270.8526459755
 30
0.0
 40
0.0900000000000129
100
AcDbArc
 50
157.5
 51
270.0
  0
LINE
  5
B8
330
1F
100
AcDbEntity
  8
0
  6
Continuous
 62
     7
370
    15
100
AcDbLine
 10
198.5788662577
 20
276.5470851162
 30
0.0
 11
196.2344174398
 21
270.887087653
 31
0.0
  0
ARC
  5
B9
330
1F
100
AcDbEntity
  8
0
  6
Continuous
 62
     7
370
    15
100
AcDbCircle
 10
198.6620152601
 20
276.5126459755
 30
0.0
 40
0.0899999999999867
100
AcDbArc
 50
90.0
 51
157.5
  0
LINE
  5
BA
330
1F
100
AcDbEntity
  8
0
  6
Continuous
 62
     7
370
    15
100
AcDbLine
 10
203.0081977727
 20
275.0026468137
 30
0.0
 11
203.4269790756
 21
275.0026468137
 31
0.0
  0
ARC
  5
BB
330
1F
100
AcDbEntity
  8
0
  6
Continuous
 62
     7
370
    15
100
AcDbCircle
 10
203.0081974125
 20
274.9126459755
 30
0.0
 40
0.0900000000000004
100
AcDbArc
 50
90.0
 51
155.6299254055
  0
ARC
  5
BC
330
1F
100
AcDbEntity
  8
0
  6
Continuous
 62
     7
370
    15
100
AcDbCircle
 10
199.6469789965
 20
276.4352459755
 30
0.0
 40
3.6
100
AcDbArc
 50
298.1331998573
 51
335.6299254055
  0
ARC
  5
BD
330
1F
100
AcDbEntity
  8
0
  6
Continuous
 62
     7
370
    15
100
AcDbCircle
 10
201.3868986736
 20
273.1812054845
 30
0.0
 40
0.0899999999999888
100
AcDbArc
 50
118.1331998573
 51
212.5
  0
LINE
  5
BE
330
1F
100
AcDbEntity
  8
0
  6
Continuous
 62
     7
370
    15
100
AcDbLine
 10
202.7328354897
 20
270.9010053375
 30
0.0
 11
201.3109932313
 21
273.1328491071
 31
0.0
  0
ARC
  5
BF
330
1F
100
AcDbEntity
  8
0
  6
Continuous
 62
     7
370
    15
100
AcDbCircle
 10
202.6569306588
 20
270.8526459755
 30
0.0
 40
0.0900000000000259
100
AcDbArc
 50
270.0
 51
32.5
  0
LINE
  5
C0
330
1F
100
AcDbEntity
  8
0
  6
Continuous
 62
     7
370
    15
100
AcDbLine
 10
201.1199338021
 20
270.7626480559
 30
0.0
 11
202.6569308373
 21
270.7626480559
 31
0.0
  0
LINE
  5
C1
330
1F
100
AcDbEntity
  8
0
  6
Continuous
 62
     7
370
    15
100
AcDbLine
 10
203.5169792952
 20
275.0926423767
 30
0.0
 11
203.5169792952
 21
276.5126485327
 31
0.0
  0
LINE
  5
C2
330
1F
100
AcDbEntity
  8
0
  6
Continuous
 62
     7
370
    15
100
AcDbLine
 10
203.4269790756
 20
276.6026440957
 30
0.0
 11
201.7155313524
 21
276.6026440957
 31
0.0
  0
LINE
  5
C3
330
1F
100
AcDbEntity
  8
0
  6
Continuous
 62
     7
370
    15
100
AcDbLine
 10
200.199012238
 20
276.6026440957
 30
0.0
 11
198.6620152029
 21
276.6026440957
 31
0.0
  0
ARC
  5
C4
330
1F
100
AcDbEntity
  8
0
  6
Continuous
 62
     7
370
    15
100
AcDbCircle
 10
200.1990121845
 20
276.5126459755
 30
0.0
 40
0.089999999999975
100
AcDbArc
 50
337.5
 51
90.0
  0
LINE
  5
C5
330
1F
100
AcDbEntity
  8
0
  6
Continuous
 62
     7
370
    15
100
AcDbLine
 10
199.4962702165
 20
274.5808917978
 30
0.0
 11
200.2821611831
 21
276.4782044986
 31
0.0
  0
ARC
  5
C6
330
1F
100
AcDbEntity
  8
0
  6
Continuous
 62
     7
370
    15
100
AcDbCircle
 10
199.5794193361
 20
274.5464538503
 30
0.0
 40
0.0899999999999867
100
AcDbArc
 50
157.5
 51
267.9514771269
  0
ARC
  5
C7
330
1F
100
AcDbEntity
  8
0
  6
Continuous
 62
     7
370
    15
100
AcDbCircle
 10
199.6469789965
 20
276.4352459755
 30
0.0
 40
1.979999999999996
100
AcDbArc
 50
267.9514771269
 51
2.1428634539
  0
ARC
  5
C8
330
1F
100
AcDbEntity
  8
0
  6
Continuous
 62
     7
370
    15
100
AcDbCircle
 10
201.7155314469
 20
276.5126459755
 30
0.0
 40
0.0899999999999797
100
AcDbArc
 50
90.0
 51
182.1428634539
  0
ARC
  5
C9
330
1F
100
AcDbEntity
  8
0
  6
Continuous
 62
     7
370
    15
100
AcDbCircle
 10
203.4269789965
 20
275.0926459755
 30
0.0
 40
0.0900000000000318
100
AcDbArc
 50
270.0
 51
0.0
  0
ARC
  5
CA
330
1F
100
AcDbEntity
  8
0
  6
Continuous
 62
     7
370
    15
100
AcDbCircle
 10
203.4269789965
 20
276.5126459755
 30
0.0
 40
0.0900000000000034
100
AcDbArc
 50
0.0
 51
90.0
  0
SPLINE
  5
CB
330
1F
100
AcDbEntity
  8
0
  6
Continuous
 62
     7
370
    15
100
AcDbSpline
210
0.0
220
0.0
230
1.0
 70
     8
 71
     3
 72
     8
 73
     4
 74
     0
 42
0.00000001
 43
0.00000001
 12
1.0
 22
0.0
 32
0.0
 13
1.0
 23
0.0
 33
0.0
 40
0.0
 40
0.0
 40
0.0
 40
0.0
 40
1.0
 40
1.0
 40
1.0
 40
1.0
 10
152.6496688817831
 20
286.0814239795592
 30
0.0
 10
152.5830829365017
 20
279.7229726948338
 30
0.0
 10
152.5188130709438
 20
273.3648957184674
 30
0.0
 10
152.4568599943645
 20
267.0073622588186
 30
0.0
  0
LINE
  5
CC
330
1F
100
AcDbEntity
  8
0
  6
Continuous
 62
     7
370
    15
100
AcDbLine
 10
172.5024381312
 20
234.8939195225
 30
0.0
 11
172.5024381312
 21
286.0814217427
 31
0.0
  0
ELLIPSE
  5
CD
330
1F
100
AcDbEntity
  8
0
  6
Continuous
 62
     7
370
    15
100
AcDbEllipse
 10
194.2739789965
 20
134.6109945824
 30
0.0
 11
0.0
 21
116.7677903268213
 31
0.0
210
0.0
220
0.0
230
1.0
 40
0.3639702343
 41
0.5378276706675867
 42
0.8738014663177985
  0
SPLINE
  5
CE
330
1F
100
AcDbEntity
  8
0
  6
Continuous
 62
     7
370
    15
100
AcDbSpline
210
0.0
220
0.0
230
1.0
 70
     8
 71
     3
 72
    10
 73
     6
 74
     0
 42
0.00000001
 43
0.00000001
 12
1.0
 22
0.0
 32
0.0
 13
1.0
 23
0.0
 33
0.0
 40
0.0
 40
0.0
 40
0.0
 40
0.0
 40
0.5000000000000001
 40
0.5000000000000001
 40
1.0
 40
1.0
 40
1.0
 40
1.0
 10
160.2024061212455
 20
221.3332939034
 30
0.0
 10
160.6140259137577
 20
219.4333507568868
 30
0.0
 10
160.9540414460814
 20
217.5036061156719
 30
0.0
 10
161.4587033556175
 20
213.5824318539466
 30
0.0
 10
161.6232130715558
 20
211.5909690948486
 30
0.0
 10
161.6860544669154
 20
209.5661453447132
 30
0.0
  0
SPLINE
  5
CF
330
1F
100
AcDbEntity
  8
0
  6
Continuous
 62
     7
370
    15
100
AcDbSpline
210
0.0
220
0.0
230
1.0
 70
     8
 71
     3
 72
    12
 73
     8
 74
     0
 42
0.00000001
 43
0.00000001
 12
1.0
 22
0.0
 32
0.0
 13
1.0
 23
0.0
 33
0.0
 40
0.0
 40
0.0
 40
0.0
 40
0.0
 40
0.4999999999999998
 40
0.4999999999999998
 40
0.7499999999999999
 40
0.7499999999999999
 40
1.0
 40
1.0
 40
1.0
 40
1.0
 10
157.3739789964993
 20
229.045270455789
 30
0.0
 10
157.9676667415549
 20
228.0186568605496
 30
0.0
 10
158.5136280813782
 20
226.8424851478195
 30
0.0
 10
159.234527698822
 20
224.8849700937485
 30
0.0
 10
159.4583595815821
 20
224.1989008423717
 30
0.0
 10
159.8614903243321
 20
222.7945923572932
 30
0.0
 10
160.0421961511045
 20
222.0727866107717
 30
0.0
 10
160.2024061212455
 20
221.3332939034
 30
0.0
  0
SPLINE
  5
D0
330
1F
100
AcDbEntity
  8
0
  6
Continuous
 62
     7
370
    15
100
AcDbSpline
210
0.0
220
0.0
230
1.0
 70
     8
 71
     3
 72
    20
 73
    16
 74
     0
 42
0.00000001
 43
0.00000001
 12
1.0
 22
0.0
 32
0.0
 13
1.0
 23
0.0
 33
0.0
 40
0.0
 40
0.0
 40
0.0
 40
0.0
 40
0.1249999999999998
 40
0.1249999999999998
 40
0.1874999999999997
 40
0.1874999999999997
 40
0.2499999999999996
 40
0.2499999999999996
 40
0.4999999999999998
 40
0.4999999999999998
 40
0.6249999999999999
 40
0.6249999999999999
 40
0.75
 40
0.75
 40
1.0
 40
1.0
 40
1.0
 40
1.0
 10
151.9183418274046
 20
237.5012384173095
 30
0.0
 10
151.9884773223679
 20
237.4015364460346
 30
0.0
 10
152.0838680009827
 20
237.2657162848428
 30
0.0
 10
152.264267600179
 20
237.0074637031821
 30
0.0
 10
152.3308223207052
 20
236.91199396448
 30
0.0
 10
152.4752798249528
 20
236.7041533977918
 30
0.0
 10
152.5530565149567
 20
236.5919648914083
 30
0.0
 10
152.9682740101651
 20
235.9909434578653
 30
0.0
 10
153.3843624757736
 20
235.3828979837351
 30
0.0
 10
154.1126364270253
 20
234.2910058532945
 30
0.0
 10
154.3739830881816
 20
233.895063134757
 30
0.0
 10
154.9204162982839
 20
233.0547687209477
 30
0.0
 10
155.2057804709586
 20
232.6100489572555
 30
0.0
 10
156.0915335806347
 20
231.2045805947131
 30
0.0
 10
156.7216850344452
 20
230.1732267848767
 30
0.0
 10
157.3739789964993
 20
229.045270455789
 30
0.0
  0
LINE
  5
D1
330
1F
100
AcDbEntity
  8
0
  6
Continuous
 62
     7
370
    15
100
AcDbLine
 10
151.9183409991
 20
267.0544754663
 30
0.0
 11
151.9183409991
 21
237.5012390265
 31
0.0
  0
SPLINE
  5
D2
330
1F
100
AcDbEntity
  8
0
  6
Continuous
 62
     7
370
    15
100
AcDbSpline
210
0.0
220
0.0
230
1.0
 70
     8
 71
     3
 72
    20
 73
    16
 74
     0
 42
0.00000001
 43
0.00000001
 12
1.0
 22
0.0
 32
0.0
 13
1.0
 23
0.0
 33
0.0
 40
0.0
 40
0.0
 40
0.0
 40
0.0
 40
0.1249999999999998
 40
0.1249999999999998
 40
0.1874999999999997
 40
0.1874999999999997
 40
0.2499999999999996
 40
0.2499999999999996
 40
0.4999999999999998
 40
0.4999999999999998
 40
0.6249999999999999
 40
0.6249999999999999
 40
0.75
 40
0.75
 40
1.0
 40
1.0
 40
1.0
 40
1.0
 10
236.6296161655941
 20
237.5012384173095
 30
0.0
 10
236.5594806706308
 20
237.4015364460346
 30
0.0
 10
236.464089992016
 20
237.2657162848428
 30
0.0
 10
236.2836903928197
 20
237.0074637031821
 30
0.0
 10
236.2171356722934
 20
236.91199396448
 30
0.0
 10
236.0726781680458
 20
236.7041533977918
 30
0.0
 10
235.994901478042
 20
236.5919648914083
 30
0.0
 10
235.5796839828336
 20
235.9909434578653
 30
0.0
 10
235.163595517225
 20
235.3828979837351
 30
0.0
 10
234.4353215659733
 20
234.2910058532945
 30
0.0
 10
234.1739749048171
 20
233.895063134757
 30
0.0
 10
233.6275416947147
 20
233.0547687209477
 30
0.0
 10
233.34217752204
 20
232.6100489572555
 30
0.0
 10
232.4564244123639
 20
231.2045805947131
 30
0.0
 10
231.8262729585534
 20
230.1732267848767
 30
0.0
 10
231.1739789964993
 20
229.045270455789
 30
0.0
  0
SPLINE
  5
D3
330
1F
100
AcDbEntity
  8
0
  6
Continuous
 62
     7
370
    15
100
AcDbSpline
210
0.0
220
0.0
230
1.0
 70
     8
 71
     3
 72
    12
 73
     8
 74
     0
 42
0.00000001
 43
0.00000001
 12
1.0
 22
0.0
 32
0.0
 13
1.0
 23
0.0
 33
0.0
 40
0.0
 40
0.0
 40
0.0
 40
0.0
 40
0.4999999999999998
 40
0.4999999999999998
 40
0.7499999999999999
 40
0.7499999999999999
 40
1.0
 40
1.0
 40
1.0
 40
1.0
 10
231.1739789964993
 20
229.045270455789
 30
0.0
 10
230.5802912514437
 20
228.0186568605496
 30
0.0
 10
230.0343299116205
 20
226.8424851478195
 30
0.0
 10
229.3134302941766
 20
224.8849700937485
 30
0.0
 10
229.0895984114165
 20
224.1989008423717
 30
0.0
 10
228.6864676686666
 20
222.7945923572932
 30
0.0
 10
228.5057618418942
 20
222.0727866107717
 30
0.0
 10
228.3455518717531
 20
221.3332939034
 30
0.0
  0
SPLINE
  5
D4
330
1F
100
AcDbEntity
  8
0
  6
Continuous
 62
     7
370
    15
100
AcDbSpline
210
0.0
220
0.0
230
1.0
 70
     8
 71
     3
 72
    10
 73
     6
 74
     0
 42
0.00000001
 43
0.00000001
 12
1.0
 22
0.0
 32
0.0
 13
1.0
 23
0.0
 33
0.0
 40
0.0
 40
0.0
 40
0.0
 40
0.0
 40
0.5000000000000001
 40
0.5000000000000001
 40
1.0
 40
1.0
 40
1.0
 40
1.0
 10
228.3455518717531
 20
221.3332939034
 30
0.0
 10
227.9339320792409
 20
219.4333507568868
 30
0.0
 10
227.5939165469172
 20
217.5036061156719
 30
0.0
 10
227.0892546373811
 20
213.5824318539466
 30
0.0
 10
226.9247449214428
 20
211.5909690948486
 30
0.0
 10
226.8619035260832
 20
209.5661453447132
 30
0.0
  0
ELLIPSE
  5
D5
330
1F
100
AcDbEntity
  8
0
  6
Continuous
 62
     7
370
    15
100
AcDbEllipse
 10
194.2739789965
 20
134.6109945824
 30
0.0
 11
0.0
 21
116.7677903268213
 31
0.0
210
0.0
220
0.0
230
1.0
 40
0.3639702343
 41
5.409383840861807
 42
5.745357636512029
  0
LINE
  5
D6
330
1F
100
AcDbEntity
  8
0
  6
Continuous
 62
     7
370
    15
100
AcDbLine
 10
216.0455198618
 20
234.8939195225
 30
0.0
 11
216.0455198618
 21
286.0814217427
 31
0.0
  0
SPLINE
  5
D7
330
1F
100
AcDbEntity
  8
0
  6
Continuous
 62
     7
370
    15
100
AcDbSpline
210
0.0
220
0.0
230
1.0
 70
     8
 71
     3
 72
     8
 73
     4
 74
     0
 42
0.00000001
 43
0.00000001
 12
1.0
 22
0.0
 32
0.0
 13
1.0
 23
0.0
 33
0.0
 40
0.0
 40
0.0
 40
0.0
 40
0.0
 40
1.0
 40
1.0
 40
1.0
 40
1.0
 10
235.8982891112155
 20
286.0814239795592
 30
0.0
 10
235.964875056497
 20
279.7229726948338
 30
0.0
 10
236.0291449220549
 20
273.3648957184674
 30
0.0
 10
236.0910979986341
 20
267.0073622588186
 30
0.0
  0
LINE
  5
D8
330
1F
100
AcDbEntity
  8
0
  6
Continuous
 62
     7
370
    15
100
AcDbLine
 10
236.6296169939
 20
267.0544754663
 30
0.0
 11
236.6296169939
 21
237.5012390265
 31
0.0
  0
LINE
  5
D9
330
1F
100
AcDbEntity
  8
0
  6
Continuous
 62
     7
370
    15
100
AcDbLine
 10
172.5024381312
 20
234.8939195225
 30
0.0
 11
216.0455198618
 21
234.8939195225
 31
0.0
  0
SPLINE
  5
DA
330
1F
100
AcDbEntity
  8
0
  6
Continuous
 62
     7
370
    15
100
AcDbSpline
210
0.0
220
0.0
230
1.0
 70
     8
 71
     3
 72
     8
 73
     4
 74
     0
 42
0.00000001
 43
0.00000001
 12
1.0
 22
0.0
 32
0.0
 13
1.0
 23
0.0
 33
0.0
 40
0.0
 40
0.0
 40
0.0
 40
0.0
 40
1.0
 40
1.0
 40
1.0
 40
1.0
 10
226.8619035260832
 20
209.5661453447132
 30
0.0
 10
226.4209154316461
 20
208.5433247274382
 30
0.0
 10
226.0221290536856
 20
207.4905359890246
 30
0.0
 10
225.6886976222608
 20
206.4314697103916
 30
0.0
  0
SPLINE
  5
DB
330
1F
100
AcDbEntity
  8
0
  6
Continuous
 62
     7
370
    15
100
AcDbSpline
210
0.0
220
0.0
230
1.0
 70
     8
 71
     3
 72
    10
 73
     6
 74
     0
 42
0.00000001
 43
0.00000001
 12
1.0
 22
0.0
 32
0.0
 13
1.0
 23
0.0
 33
0.0
 40
0.0
 40
0.0
 40
0.0
 40
0.0
 40
0.5
 40
0.5
 40
1.0
 40
1.0
 40
1.0
 40
1.0
 10
222.8602704975146
 20
199.1556010032886
 30
0.0
 10
223.3705211687032
 20
200.3542994770192
 30
0.0
 10
223.881334140617
 20
201.5539332011393
 30
0.0
 10
224.8448019192849
 20
203.9721381398993
 30
0.0
 10
225.2985197664081
 20
205.1921618022046
 30
0.0
 10
225.6886976222608
 20
206.4314697103916
 30
0.0
  0
SPLINE
  5
DC
330
1F
100
AcDbEntity
  8
0
  6
Continuous
 62
     7
370
    15
100
AcDbSpline
210
0.0
220
0.0
230
1.0
 70
     8
 71
     3
 72
    10
 73
     6
 74
     0
 42
0.00000001
 43
0.00000001
 12
1.0
 22
0.0
 32
0.0
 13
1.0
 23
0.0
 33
0.0
 40
0.0
 40
0.0
 40
0.0
 40
0.0
 40
0.5
 40
0.5
 40
1.0
 40
1.0
 40
1.0
 40
1.0
 10
165.6876874954841
 20
199.1556010032886
 30
0.0
 10
165.1774368242955
 20
200.3542994770192
 30
0.0
 10
164.6666238523816
 20
201.5539332011393
 30
0.0
 10
163.7031560737137
 20
203.9721381398993
 30
0.0
 10
163.2494382265905
 20
205.1921618022046
 30
0.0
 10
162.8592603707379
 20
206.4314697103916
 30
0.0
  0
SPLINE
  5
DD
330
1F
100
AcDbEntity
  8
0
  6
Continuous
 62
     7
370
    15
100
AcDbSpline
210
0.0
220
0.0
230
1.0
 70
     8
 71
     3
 72
     8
 73
     4
 74
     0
 42
0.00000001
 43
0.00000001
 12
1.0
 22
0.0
 32
0.0
 13
1.0
 23
0.0
 33
0.0
 40
0.0
 40
0.0
 40
0.0
 40
0.0
 40
1.0
 40
1.0
 40
1.0
 40
1.0
 10
161.6860544669154
 20
209.5661453447132
 30
0.0
 10
162.1270425613525
 20
208.5433247274382
 30
0.0
 10
162.525828939313
 20
207.4905359890246
 30
0.0
 10
162.8592603707379
 20
206.4314697103916
 30
0.0
  0
LINE
  5
DE
330
1F
100
AcDbEntity
  8
0
  6
Continuous
 62
     7
370
    15
100
AcDbLine
 10
119.2739760163
 20
207.7061045864
 30
0.0
 11
119.2739760163
 21
237.7061039159
 31
0.0
  0
LINE
  5
DF
330
1F
100
AcDbEntity
  8
0
  6
Continuous
 62
     7
370
    15
100
AcDbLine
 10
141.6329634967
 20
237.7061039159
 30
0.0
 11
119.2739760163
 21
237.7061039159
 31
0.0
  0
SPLINE
  5
E0
330
1F
100
AcDbEntity
  8
0
  6
Continuous
 62
     7
370
    15
100
AcDbSpline
210
0.0
220
0.0
230
1.0
 70
     8
 71
     3
 72
    14
 73
    10
 74
     0
 42
0.00000001
 43
0.00000001
 12
1.0
 22
0.0
 32
0.0
 13
1.0
 23
0.0
 33
0.0
 40
0.0
 40
0.0
 40
0.0
 40
0.0
 40
0.5000000000000001
 40
0.5000000000000001
 40
0.75
 40
0.75
 40
0.8750000000000001
 40
0.8750000000000001
 40
1.0
 40
1.0
 40
1.0
 40
1.0
 10
141.6329628451217
 20
237.7061045864303
 30
0.0
 10
142.991016702298
 20
235.3538863063862
 30
0.0
 10
144.1450078780324
 20
232.9484331868953
 30
0.0
 10
145.3788368514095
 20
229.2105574997692
 30
0.0
 10
145.7063741330095
 20
227.942753519748
 30
0.0
 10
146.0427747848765
 20
226.0006366468112
 30
0.0
 10
146.1290675759735
 20
225.3465231492834
 30
0.0
 10
146.2450908929499
 20
224.0235404767746
 30
0.0
 10
146.2739789964993
 20
223.3629806048997
 30
0.0
 10
146.2739789964993
 20
222.7061045864304
 30
0.0
  0
LINE
  5
E1
330
1F
100
AcDbEntity
  8
0
  6
Continuous
 62
     7
370
    15
100
AcDbLine
 10
246.9149944963
 20
237.7061039159
 30
0.0
 11
269.2739819767
 21
237.7061039159
 31
0.0
  0
SPLINE
  5
E2
330
1F
100
AcDbEntity
  8
0
  6
Continuous
 62
     7
370
    15
100
AcDbSpline
210
0.0
220
0.0
230
1.0
 70
     8
 71
     3
 72
    14
 73
    10
 74
     0
 42
0.00000001
 43
0.00000001
 12
1.0
 22
0.0
 32
0.0
 13
1.0
 23
0.0
 33
0.0
 40
0.0
 40
0.0
 40
0.0
 40
0.0
 40
0.5000000000000001
 40
0.5000000000000001
 40
0.75
 40
0.75
 40
0.8750000000000001
 40
0.8750000000000001
 40
1.0
 40
1.0
 40
1.0
 40
1.0
 10
246.9149951478769
 20
237.7061045864303
 30
0.0
 10
245.5569412907006
 20
235.3538863063862
 30
0.0
 10
244.4029501149662
 20
232.9484331868953
 30
0.0
 10
243.1691211415892
 20
229.2105574997692
 30
0.0
 10
242.8415838599891
 20
227.942753519748
 30
0.0
 10
242.5051832081221
 20
226.0006366468112
 30
0.0
 10
242.4188904170251
 20
225.3465231492834
 30
0.0
 10
242.3028671000487
 20
224.0235404767746
 30
0.0
 10
242.2739789964993
 20
223.3629806048997
 30
0.0
 10
242.2739789964993
 20
222.7061045864304
 30
0.0
  0
LINE
  5
E3
330
1F
100
AcDbEntity
  8
0
  6
Continuous
 62
     7
370
    15
100
AcDbLine
 10
269.2739819767
 20
207.7061045864
 30
0.0
 11
269.2739819767
 21
237.7061039159
 31
0.0
  0
LINE
  5
E4
330
1F
100
AcDbEntity
  8
0
  6
Continuous
 62
     7
370
    15
100
AcDbLine
 10
242.2739794137
 20
237.5012390265
 30
0.0
 11
242.2739794137
 21
222.7061042512
 31
0.0
  0
LINE
  5
E5
330
1F
100
AcDbEntity
  8
0
  6
Continuous
 62
     7
370
    15
100
AcDbLine
 10
242.2739794137
 20
192.7061049217
 30
0.0
 11
242.2739794137
 21
177.8564821878
 31
0.0
  0
LINE
  5
E6
330
1F
100
AcDbEntity
  8
0
  6
Continuous
 62
     7
370
    15
100
AcDbLine
 10
231.1739777806
 20
177.8564821878
 30
0.0
 11
242.2739794137
 21
177.8564821878
 31
0.0
  0
LINE
  5
E7
330
1F
100
AcDbEntity
  8
0
  6
Continuous
 62
     7
370
    15
100
AcDbLine
 10
242.2739794137
 20
237.5012390265
 30
0.0
 11
236.6296169939
 21
237.5012390265
 31
0.0
  0
SPLINE
  5
E8
330
1F
100
AcDbEntity
  8
0
  6
Continuous
 62
     7
370
    15
100
AcDbSpline
210
0.0
220
0.0
230
1.0
 70
     8
 71
     3
 72
    12
 73
     8
 74
     0
 42
0.00000001
 43
0.00000001
 12
1.0
 22
0.0
 32
0.0
 13
1.0
 23
0.0
 33
0.0
 40
0.0
 40
0.0
 40
0.0
 40
0.0
 40
0.4999999999999993
 40
0.4999999999999993
 40
0.7499999999999997
 40
0.7499999999999997
 40
1.0
 40
1.0
 40
1.0
 40
1.0
 10
228.3455518717531
 20
179.0341982932171
 30
0.0
 10
228.7171462100221
 20
178.6605754098551
 30
0.0
 10
229.1642184922614
 20
178.361654138112
 30
0.0
 10
229.8856886126128
 20
178.0617236462959
 30
0.0
 10
230.1375338191965
 20
177.9847867625604
 30
0.0
 10
230.6537327495706
 20
177.8818655219766
 30
0.0
 10
230.9131933698009
 20
177.8564814732318
 30
0.0
 10
231.1739789964993
 20
177.8564814732318
 30
0.0
  0
LINE
  5
E9
330
1F
100
AcDbEntity
  8
0
  6
Continuous
 62
     7
370
    15
100
AcDbLine
 10
157.3739802124
 20
177.8564821878
 30
0.0
 11
146.2739785793
 21
177.8564821878
 31
0.0
  0
LINE
  5
EA
330
1F
100
AcDbEntity
  8
0
  6
Continuous
 62
     7
370
    15
100
AcDbLine
 10
146.2739785793
 20
192.7061049217
 30
0.0
 11
146.2739785793
 21
177.8564821878
 31
0.0
  0
LINE
  5
EB
330
1F
100
AcDbEntity
  8
0
  6
Continuous
 62
     7
370
    15
100
AcDbLine
 10
146.2739785793
 20
237.5012390265
 30
0.0
 11
146.2739785793
 21
222.7061042512
 31
0.0
  0
LINE
  5
EC
330
1F
100
AcDbEntity
  8
0
  6
Continuous
 62
     7
370
    15
100
AcDbLine
 10
146.2739785793
 20
237.5012390265
 30
0.0
 11
151.9183409991
 21
237.5012390265
 31
0.0
  0
SPLINE
  5
ED
330
1F
100
AcDbEntity
  8
0
  6
Continuous
 62
     7
370
    15
100
AcDbSpline
210
0.0
220
0.0
230
1.0
 70
     8
 71
     3
 72
    12
 73
     8
 74
     0
 42
0.00000001
 43
0.00000001
 12
1.0
 22
0.0
 32
0.0
 13
1.0
 23
0.0
 33
0.0
 40
0.0
 40
0.0
 40
0.0
 40
0.0
 40
0.4999999999999993
 40
0.4999999999999993
 40
0.7499999999999997
 40
0.7499999999999997
 40
1.0
 40
1.0
 40
1.0
 40
1.0
 10
160.2024061212455
 20
179.0341982932171
 30
0.0
 10
159.8308117829765
 20
178.6605754098551
 30
0.0
 10
159.3837395007372
 20
178.361654138112
 30
0.0
 10
158.6622693803858
 20
178.0617236462959
 30
0.0
 10
158.4104241738021
 20
177.9847867625604
 30
0.0
 10
157.8942252434281
 20
177.8818655219766
 30
0.0
 10
157.6347646231978
 20
177.8564814732318
 30
0.0
 10
157.3739789964993
 20
177.8564814732318
 30
0.0
  0
SPLINE
  5
EE
330
1F
100
AcDbEntity
  8
0
  6
Continuous
 62
     7
370
    15
100
AcDbSpline
210
0.0
220
0.0
230
1.0
 70
    24
 71
     3
 72
    12
 73
     8
 74
     0
 42
0.00000001
 43
0.00000001
 12
1.0
 22
0.0
 32
0.0
 13
1.0
 23
0.0
 33
0.0
 40
0.0
 40
0.0
 40
0.0
 40
0.0
 40
0.25
 40
0.25
 40
0.5
 40
0.5
 40
1.0
 40
1.0
 40
1.0
 40
1.0
 10
246.9149951478769
 20
237.7061045864303
 30
0.0
 10
246.372513856421
 20
237.7061045864303
 30
0.0
 10
245.8584770428276
 20
237.7061045864304
 30
0.0
 10
244.903830800964
 20
237.7061045864303
 30
0.0
 10
244.4681040184798
 20
237.7061045864303
 30
0.0
 10
243.3179864191708
 20
237.7061045864304
 30
0.0
 10
242.7578690037139
 20
237.7061045864303
 30
0.0
 10
242.4774556175772
 20
237.7061045864303
 30
0.0
  0
LWPOLYLINE
  5
EF
330
1F
100
AcDbEntity
  8
0
  6
Continuous
 62
     7
370
    15
100
AcDbPolyline
 90
        3
 70
   128
 43
0.0
 10
242.4774547698
 20
237.7061039159
 10
242.4436254086
 20
237.6720454493
 10
242.2739794137
 20
237.5012390265
  0
SPLINE
  5
F0
330
1F
100
AcDbEntity
  8
0
  6
Continuous
 62
     7
370
    15
100
AcDbSpline
210
0.0
220
0.0
230
1.0
 70
    24
 71
     3
 72
    12
 73
     8
 74
     0
 42
0.00000001
 43
0.00000001
 12
1.0
 22
0.0
 32
0.0
 13
1.0
 23
0.0
 33
0.0
 40
0.0
 40
0.0
 40
0.0
 40
0.0
 40
0.25
 40
0.25
 40
0.5
 40
0.5
 40
1.0
 40
1.0
 40
1.0
 40
1.0
 10
141.6329628451217
 20
237.7061045864303
 30
0.0
 10
142.1754441365777
 20
237.7061045864303
 30
0.0
 10
142.689480950171
 20
237.7061045864304
 30
0.0
 10
143.6441271920346
 20
237.7061045864303
 30
0.0
 10
144.0798539745188
 20
237.7061045864303
 30
0.0
 10
145.2299715738279
 20
237.7061045864304
 30
0.0
 10
145.7900889892847
 20
237.7061045864303
 30
0.0
 10
146.0705023754214
 20
237.7061045864303
 30
0.0
  0
LWPOLYLINE
  5
F1
330
1F
100
AcDbEntity
  8
0
  6
Continuous
 62
     7
370
    15
100
AcDbPolyline
 90
        3
 70
   128
 43
0.0
 10
146.0705032232
 20
237.7061039159
 10
146.1043325844
 20
237.6720454493
 10
146.2739785793
 20
237.5012390265
  0
SPLINE
  5
F2
330
1F
100
AcDbEntity
  8
0
  6
Continuous
 62
     7
370
    15
100
AcDbSpline
210
0.0
220
0.0
230
1.0
 70
     8
 71
     3
 72
     8
 73
     4
 74
     0
 42
0.00000001
 43
0.00000001
 12
1.0
 22
0.0
 32
0.0
 13
1.0
 23
0.0
 33
0.0
 40
0.0
 40
0.0
 40
0.0
 40
0.0
 40
1.0
 40
1.0
 40
1.0
 40
1.0
 10
162.8592603707379
 20
181.7070425501814
 30
0.0
 10
161.9739154916587
 20
180.8158231673342
 30
0.0
 10
161.0882716840195
 20
179.9248998237532
 30
0.0
 10
160.2024061212455
 20
179.0341982932171
 30
0.0
  0
SPLINE
  5
F3
330
1F
100
AcDbEntity
  8
0
  6
Continuous
 62
     7
370
    15
100
AcDbSpline
210
0.0
220
0.0
230
1.0
 70
     8
 71
     3
 72
     8
 73
     4
 74
     0
 42
0.00000001
 43
0.00000001
 12
1.0
 22
0.0
 32
0.0
 13
1.0
 23
0.0
 33
0.0
 40
0.0
 40
0.0
 40
0.0
 40
0.0
 40
1.0
 40
1.0
 40
1.0
 40
1.0
 10
225.6886976222608
 20
181.7070425501814
 30
0.0
 10
226.5740425013399
 20
180.8158231673342
 30
0.0
 10
227.4596863089791
 20
179.9248998237532
 30
0.0
 10
228.3455518717531
 20
179.0341982932171
 30
0.0
  0
ELLIPSE
  5
F4
330
1F
100
AcDbEntity
  8
0
  6
Continuous
 62
     7
370
    15
100
AcDbEllipse
 10
194.2739789965
 20
775.0618457992
 30
0.0
 11
0.0
 21
1040.635515843946
 31
0.0
210
0.0
220
0.0
230
1.0
 40
0.0261859216
 41
2.019425605463995
 42
2.026645099380264
  0
ELLIPSE
  5
F5
330
1F
100
AcDbEntity
  8
0
  6
Continuous
 62
     7
370
    15
100
AcDbEllipse
 10
194.2739789965
 20
775.0618457992
 30
0.0
 11
0.0
 21
1040.635515843946
 31
0.0
210
0.0
220
0.0
230
1.0
 40
0.0261859216
 41
4.256540207799427
 42
4.263759701715692
  0
LINE
  5
F6
330
1F
100
AcDbEntity
  8
0
  6
Continuous
 62
     7
370
    15
100
AcDbLine
 10
173.6879465761
 20
337.3673666218
 30
0.0
 11
169.1879467698
 21
337.3673666218
 31
0.0
  0
SPLINE
  5
F7
330
1F
100
AcDbEntity
  8
0
  6
Continuous
 62
     7
370
    15
100
AcDbSpline
210
0.0
220
0.0
230
1.0
 70
     8
 71
     3
 72
    19
 73
    15
 74
     0
 42
0.00000001
 43
0.00000001
 12
1.0
 22
0.0
 32
0.0
 13
1.0
 23
0.0
 33
0.0
 40
0.0
 40
0.0
 40
0.0
 40
0.0
 40
0.029668682901909
 40
0.1039788965755261
 40
0.1902923177766979
 40
0.2766058261096652
 40
0.3654618490299294
 40
0.4543164414554053
 40
0.5400153557256862
 40
0.6257121643786162
 40
0.7139686018496287
 40
0.8022257407894564
 40
0.900633527872663
 40
1.0
 40
1.0
 40
1.0
 40
1.0
 10
175.8901668371995
 20
338.7071598270614
 30
0.0
 10
175.8645363617774
 20
338.7076607177457
 30
0.0
 10
175.7747100435044
 20
338.7094161735179
 30
0.0
 10
175.6105181572741
 20
338.6949287986457
 30
0.0
 10
175.3990824135163
 20
338.6611960985351
 30
0.0
 10
175.1786105077663
 20
338.6028665696019
 30
0.0
 10
174.9611182238745
 20
338.5225960222366
 30
0.0
 10
174.7508886442563
 20
338.4212115826886
 30
0.0
 10
174.5513843533807
 20
338.3009091124716
 30
0.0
 10
174.3617206478619
 20
338.1621099442947
 30
0.0
 10
174.1812192120521
 20
338.0035125575481
 30
0.0
 10
174.0055218459398
 20
337.8186543400748
 30
0.0
 10
173.8374112589239
 20
337.6086098077952
 30
0.0
 10
173.7379288796821
 20
337.4480404634817
 30
0.0
 10
173.6879465761025
 20
337.3673666218002
 30
0.0
  0
SPLINE
  5
F8
330
1F
100
AcDbEntity
  8
0
  6
Continuous
 62
     7
370
    15
100
AcDbSpline
210
0.0
220
0.0
230
1.0
 70
     8
 71
     3
 72
    19
 73
    15
 74
     0
 42
0.00000001
 43
0.00000001
 12
1.0
 22
0.0
 32
0.0
 13
1.0
 23
0.0
 33
0.0
 40
0.0
 40
0.0
 40
0.0
 40
0.0
 40
0.0840265713187921
 40
0.1680507530988703
 40
0.2545395320739933
 40
0.3410282067213696
 40
0.4250751163419333
 40
0.5091245690007654
 40
0.5955593041595991
 40
0.6819987938471094
 40
0.7669764087524232
 40
0.8519558155046457
 40
0.9393445157907561
 40
1.0
 40
1.0
 40
1.0
 40
1.0
 10
214.8600114168961
 20
337.3673666218002
 30
0.0
 10
214.8180033766164
 20
337.4357896574465
 30
0.0
 10
214.7339884906771
 20
337.5726337829319
 30
0.0
 10
214.5883030338
 20
337.7634413097557
 30
0.0
 10
214.4286180415779
 20
337.941930391829
 30
0.0
 10
214.256061322622
 20
338.1038445778244
 30
0.0
 10
214.0741296674548
 20
338.2470608558291
 30
0.0
 10
213.8826702853798
 20
338.3725399555987
 30
0.0
 10
213.6808851808494
 20
338.4800614673341
 30
0.0
 10
213.4712758972971
 20
338.5680066613322
 30
0.0
 10
213.2572476466872
 20
338.6352035223286
 30
0.0
 10
213.0383818927741
 20
338.6813435271464
 30
0.0
 10
212.8378273074521
 20
338.7065875032157
 30
0.0
 10
212.7098676076215
 20
338.7066763788206
 30
0.0
 10
212.6574409785111
 20
338.7067127922256
 30
0.0
  0
LINE
  5
F9
330
1F
100
AcDbEntity
  8
0
  6
Continuous
 62
     7
370
    15
100
AcDbLine
 10
219.3600112232
 20
337.3673666218
 30
0.0
 11
214.8600114169
 21
337.3673666218
 31
0.0
  0
SPLINE
  5
FA
330
1F
100
AcDbEntity
  8
0
  6
Continuous
 62
     7
370
    15
100
AcDbSpline
210
0.0
220
0.0
230
1.0
 70
     8
 71
     3
 72
    12
 73
     8
 74
     0
 42
0.00000001
 43
0.00000001
 12
1.0
 22
0.0
 32
0.0
 13
1.0
 23
0.0
 33
0.0
 40
0.0
 40
0.0
 40
0.0
 40
0.0
 40
0.5000000000000009
 40
0.5000000000000009
 40
0.7500000000000004
 40
0.7500000000000004
 40
1.0
 40
1.0
 40
1.0
 40
1.0
 10
165.6876874954841
 20
182.8867572944486
 30
0.0
 10
165.1662027758489
 20
182.8867572944486
 30
0.0
 10
164.6344681353805
 20
182.7800264982012
 30
0.0
 10
163.9109313976518
 20
182.477079637829
 30
0.0
 10
163.681793623085
 20
182.3535100917075
 30
0.0
 10
163.2475780531738
 20
182.0612383060457
 30
0.0
 10
163.0428888380119
 20
181.8918894422167
 30
0.0
 10
162.8592603707378
 20
181.7070425501814
 30
0.0
  0
SPLINE
  5
FB
330
1F
100
AcDbEntity
  8
0
  6
Continuous
 62
     7
370
    15
100
AcDbSpline
210
0.0
220
0.0
230
1.0
 70
     8
 71
     3
 72
    12
 73
     8
 74
     0
 42
0.00000001
 43
0.00000001
 12
1.0
 22
0.0
 32
0.0
 13
1.0
 23
0.0
 33
0.0
 40
0.0
 40
0.0
 40
0.0
 40
0.0
 40
0.5000000000000009
 40
0.5000000000000009
 40
0.7500000000000004
 40
0.7500000000000004
 40
1.0
 40
1.0
 40
1.0
 40
1.0
 10
222.8602704975146
 20
182.8867572944486
 30
0.0
 10
223.3817552171498
 20
182.8867572944486
 30
0.0
 10
223.9134898576181
 20
182.7800264982012
 30
0.0
 10
224.6370265953468
 20
182.477079637829
 30
0.0
 10
224.8661643699137
 20
182.3535100917075
 30
0.0
 10
225.3003799398249
 20
182.0612383060457
 30
0.0
 10
225.5050691549867
 20
181.8918894422167
 30
0.0
 10
225.6886976222608
 20
181.7070425501814
 30
0.0
  0
SPLINE
  5
FC
330
1F
100
AcDbEntity
  8
0
  6
Continuous
 62
     7
370
    15
100
AcDbSpline
210
0.0
220
0.0
230
1.0
 70
    24
 71
     3
 72
    18
 73
    14
 74
     0
 42
0.00000001
 43
0.00000001
 12
1.0
 22
0.0
 32
0.0
 13
1.0
 23
0.0
 33
0.0
 40
0.0
 40
0.0
 40
0.0
 40
0.0
 40
0.1249999999999999
 40
0.1249999999999999
 40
0.2499999999999997
 40
0.2499999999999997
 40
0.4999999999999999
 40
0.4999999999999999
 40
0.75
 40
0.75
 40
0.875
 40
0.875
 40
1.0
 40
1.0
 40
1.0
 40
1.0
 10
141.6329628451217
 20
177.7061045864303
 30
0.0
 10
141.9688565086531
 20
177.7061045864303
 30
0.0
 10
142.2937946545717
 20
177.7061045864303
 30
0.0
 10
142.9180643123257
 20
177.7061045864303
 30
0.0
 10
143.2181453479866
 20
177.7061045864303
 30
0.0
 10
144.067181006018
 20
177.7061045864303
 30
0.0
 10
144.5641017998616
 20
177.7061045864303
 30
0.0
 10
145.3865021408527
 20
177.7061045864303
 30
0.0
 10
145.711833368057
 20
177.7061045864303
 30
0.0
 10
146.044867387891
 20
177.7061045864303
 30
0.0
 10
146.1300518399887
 20
177.7061045864303
 30
0.0
 10
146.2447041397109
 20
177.7061045864303
 30
0.0
 10
146.2739789964993
 20
177.7061045864303
 30
0.0
 10
146.2739789964993
 20
177.7061045864303
 30
0.0
  0
SPLINE
  5
FD
330
1F
100
AcDbEntity
  8
0
  6
Continuous
 62
     7
370
    15
100
AcDbSpline
210
0.0
220
0.0
230
1.0
 70
    24
 71
     3
 72
    18
 73
    14
 74
     0
 42
0.00000001
 43
0.00000001
 12
1.0
 22
0.0
 32
0.0
 13
1.0
 23
0.0
 33
0.0
 40
0.0
 40
0.0
 40
0.0
 40
0.0
 40
0.1249999999999999
 40
0.1249999999999999
 40
0.2499999999999997
 40
0.2499999999999997
 40
0.4999999999999999
 40
0.4999999999999999
 40
0.75
 40
0.75
 40
0.875
 40
0.875
 40
1.0
 40
1.0
 40
1.0
 40
1.0
 10
246.9149951478769
 20
177.7061045864303
 30
0.0
 10
246.5791014843455
 20
177.7061045864303
 30
0.0
 10
246.2541633384269
 20
177.7061045864303
 30
0.0
 10
245.6298936806729
 20
177.7061045864303
 30
0.0
 10
245.329812645012
 20
177.7061045864303
 30
0.0
 10
244.4807769869807
 20
177.7061045864303
 30
0.0
 10
243.983856193137
 20
177.7061045864303
 30
0.0
 10
243.1614558521459
 20
177.7061045864303
 30
0.0
 10
242.8361246249416
 20
177.7061045864303
 30
0.0
 10
242.5030906051076
 20
177.7061045864303
 30
0.0
 10
242.41790615301
 20
177.7061045864303
 30
0.0
 10
242.3032538532877
 20
177.7061045864303
 30
0.0
 10
242.2739789964993
 20
177.7061045864303
 30
0.0
 10
242.2739789964993
 20
177.7061045864303
 30
0.0
  0
SPLINE
  5
FE
330
1F
100
AcDbEntity
  8
0
  6
Continuous
 62
     7
370
    15
100
AcDbSpline
210
0.0
220
0.0
230
1.0
 70
     8
 71
     3
 72
    23
 73
    19
 74
     0
 42
0.00000001
 43
0.00000001
 12
1.0
 22
0.0
 32
0.0
 13
1.0
 23
0.0
 33
0.0
 40
0.0
 40
0.0
 40
0.0
 40
0.0
 40
0.0063156696763015
 40
0.0886540838490614
 40
0.1521934853810691
 40
0.2157326086845794
 40
0.2811231035500888
 40
0.3465126260894996
 40
0.4099404277939148
 40
0.473368872961436
 40
0.538692734107569
 40
0.6040140050712033
 40
0.6665299571088414
 40
0.7290434790667503
 40
0.7934546612485155
 40
0.8578651326144174
 40
0.928590528296082
 40
1.0
 40
1.0
 40
1.0
 40
1.0
 10
212.2787577690919
 20
338.7090522745331
 30
0.0
 10
212.271345293967
 20
338.709107162564
 30
0.0
 10
212.1672951734043
 20
338.7098776347938
 30
0.0
 10
211.9896961523923
 20
338.7411893420555
 30
0.0
 10
211.7491333705574
 20
338.7987616200512
 30
0.0
 10
211.5327684485232
 20
338.8752095200456
 30
0.0
 10
211.3207113324714
 20
338.9728029598667
 30
0.0
 10
211.1167620106501
 20
339.0910484604046
 30
0.0
 10
210.9242560133936
 20
339.2274759862595
 30
0.0
 10
210.7423383425032
 20
339.3819350843784
 30
0.0
 10
210.5708985616776
 20
339.5555773488229
 30
0.0
 10
210.413881606292
 20
339.7448388633688
 30
0.0
 10
210.2736813442952
 20
339.9460551110285
 30
0.0
 10
210.1492233823626
 20
340.1591305068083
 30
0.0
 10
210.0400238144611
 20
340.3861095607523
 30
0.0
 10
209.9449303377364
 20
340.6334972689515
 30
0.0
 10
209.8658182337387
 20
340.8987914289816
 30
0.0
 10
209.8314883192702
 20
341.0874364346621
 30
0.0
 10
209.8142407494028
 20
341.1822128990372
 30
0.0
  0
SPLINE
  5
FF
330
1F
100
AcDbEntity
  8
0
  6
Continuous
 62
     7
370
    15
100
AcDbSpline
210
0.0
220
0.0
230
1.0
 70
     8
 71
     3
 72
    23
 73
    19
 74
     0
 42
0.00000001
 43
0.00000001
 12
1.0
 22
0.0
 32
0.0
 13
1.0
 23
0.0
 33
0.0
 40
0.0
 40
0.0
 40
0.0
 40
0.0
 40
0.0610067478984391
 40
0.1220148569910881
 40
0.1848200872935452
 40
0.247622955456054
 40
0.3086330775102249
 40
0.3696430473264253
 40
0.4323756838082362
 40
0.495109922584666
 40
0.557018906563519
 40
0.6189292009597075
 40
0.6825682850011178
 40
0.7462077366706543
 40
0.8093499966568751
 40
0.8724916454637797
 40
0.9374284522063655
 40
1.0
 40
1.0
 40
1.0
 40
1.0
 10
178.7337172435959
 20
341.1822128990372
 30
0.0
 10
178.7193262748256
 20
341.1014927648765
 30
0.0
 10
178.6905440161911
 20
340.940050695512
 30
0.0
 10
178.6246938768677
 20
340.7019291379196
 30
0.0
 10
178.5419949022543
 20
340.4685157812901
 30
0.0
 10
178.4420296511834
 20
340.2441854757528
 30
0.0
 10
178.3272552868101
 20
340.0324374697182
 30
0.0
 10
178.1978834829532
 20
339.8323338452755
 30
0.0
 10
178.0531642730885
 20
339.6436316643583
 30
0.0
 10
177.8945941986396
 20
339.4686480004284
 30
0.0
 10
177.724726689979
 20
339.3102015018067
 30
0.0
 10
177.5433928529642
 20
339.1675443013916
 30
0.0
 10
177.3506686038858
 20
339.0415615043464
 30
0.0
 10
177.1482499092673
 20
338.9338120164803
 30
0.0
 10
176.9393338552002
 20
338.845968291307
 30
0.0
 10
176.7234074973561
 20
338.7781690941673
 30
0.0
 10
176.5040305597382
 20
338.7299143192056
 30
0.0
 10
176.3553530987846
 20
338.7159197571511
 30
0.0
 10
176.2823933394988
 20
338.7090522745331
 30
0.0
  0
LINE
  5
100
330
1F
100
AcDbEntity
  8
0
  6
Continuous
 62
     7
370
    15
100
AcDbLine
 10
222.8602697732
 20
182.886756579
 30
0.0
 11
165.6876882198
 21
182.886756579
 31
0.0
  0
LINE
  5
101
330
1F
100
AcDbEntity
  8
0
  6
Continuous
 62
     7
370
    15
100
AcDbLine
 10
205.3210647436
 20
369.7061050633
 30
0.0
 11
183.2268932494
 21
369.7061050633
 31
0.0
  0
SPLINE
  5
102
330
1F
100
AcDbEntity
  8
0
  6
Continuous
 62
     7
370
    15
100
AcDbSpline
210
0.0
220
0.0
230
1.0
 70
     8
 71
     3
 72
     8
 73
     4
 74
     0
 42
0.00000001
 43
0.00000001
 12
1.0
 22
0.0
 32
0.0
 13
1.0
 23
0.0
 33
0.0
 40
0.0
 40
0.0
 40
0.0
 40
0.0
 40
1.0
 40
1.0
 40
1.0
 40
1.0
 10
209.8142409900333
 20
341.1822094507255
 30
0.0
 10
208.3275499435912
 20
350.6924920271482
 30
0.0
 10
206.8335447968409
 20
360.201238416021
 30
0.0
 10
205.3210651434715
 20
369.7061045864303
 30
0.0
  0
SPLINE
  5
103
330
1F
100
AcDbEntity
  8
0
  6
Continuous
 62
     7
370
    15
100
AcDbSpline
210
0.0
220
0.0
230
1.0
 70
     8
 71
     3
 72
     8
 73
     4
 74
     0
 42
0.00000001
 43
0.00000001
 12
1.0
 22
0.0
 32
0.0
 13
1.0
 23
0.0
 33
0.0
 40
0.0
 40
0.0
 40
0.0
 40
0.0
 40
1.0
 40
1.0
 40
1.0
 40
1.0
 10
183.2268928495271
 20
369.7061045864303
 30
0.0
 10
181.7144131961576
 20
360.2012384160209
 30
0.0
 10
180.2204080494073
 20
350.6924920271482
 30
0.0
 10
178.7337170029652
 20
341.1822094507255
 30
0.0
  0
SPLINE
  5
104
330
1F
100
AcDbEntity
  8
0
  6
Continuous
 62
     7
370
    15
100
AcDbSpline
210
0.0
220
0.0
230
1.0
 70
     8
 71
     3
 72
     8
 73
     4
 74
     0
 42
0.00000001
 43
0.00000001
 12
1.0
 22
0.0
 32
0.0
 13
1.0
 23
0.0
 33
0.0
 40
0.0
 40
0.0
 40
0.0
 40
0.0
 40
0.0042774229446187
 40
0.0042774229446187
 40
0.0042774229446187
 40
0.0042774229446187
 10
176.3284504072639
 20
369.7061045864303
 30
0.0
 10
175.4473816437558
 20
368.7071628655857
 30
0.0
 10
174.5673154867964
 20
367.7070414620819
 30
0.0
 10
173.6879466134428
 20
366.7061045863903
 30
0.0
  0
LINE
  5
105
330
1F
100
AcDbEntity
  8
0
  6
Continuous
 62
     7
370
    15
100
AcDbLine
 10
176.3284509661
 20
369.7061050633
 30
0.0
 11
183.2268932494
 21
369.7061050633
 31
0.0
  0
LINE
  5
106
330
1F
100
AcDbEntity
  8
0
  6
Continuous
 62
     7
370
    15
100
AcDbLine
 10
173.6879465761
 20
337.3673666218
 30
0.0
 11
173.6879465761
 21
357.7061105469
 31
0.0
  0
LINE
  5
107
330
1F
100
AcDbEntity
  8
0
  6
Continuous
 62
     7
370
    15
100
AcDbLine
 10
176.5489937397
 20
357.7061105469
 30
0.0
 11
173.6879465761
 21
357.7061105469
 31
0.0
  0
LINE
  5
108
330
1F
100
AcDbEntity
  8
0
  6
Continuous
 62
     7
370
    15
100
AcDbLine
 10
176.5489937397
 20
363.7061078051
 30
0.0
 11
176.5489937397
 21
357.7061105469
 31
0.0
  0
LINE
  5
109
330
1F
100
AcDbEntity
  8
0
  6
Continuous
 62
     7
370
    15
100
AcDbLine
 10
173.6879465761
 20
363.7061078051
 30
0.0
 11
176.5489937397
 21
363.7061078051
 31
0.0
  0
LINE
  5
10A
330
1F
100
AcDbEntity
  8
0
  6
Continuous
 62
     7
370
    15
100
AcDbLine
 10
173.6879465761
 20
363.7061078051
 30
0.0
 11
173.6879465761
 21
366.7060989836
 31
0.0
  0
LINE
  5
10B
330
1F
100
AcDbEntity
  8
0
  6
Continuous
 62
     7
370
    15
100
AcDbLine
 10
214.8600114169
 20
357.7061105469
 30
0.0
 11
211.9989642533
 21
357.7061105469
 31
0.0
  0
LINE
  5
10C
330
1F
100
AcDbEntity
  8
0
  6
Continuous
 62
     7
370
    15
100
AcDbLine
 10
214.8600114169
 20
337.3673666218
 30
0.0
 11
214.8600114169
 21
357.7061105469
 31
0.0
  0
LINE
  5
10D
330
1F
100
AcDbEntity
  8
0
  6
Continuous
 62
     7
370
    15
100
AcDbLine
 10
205.3210647436
 20
369.7061050633
 30
0.0
 11
212.2195070269
 21
369.7061050633
 31
0.0
  0
SPLINE
  5
10E
330
1F
100
AcDbEntity
  8
0
  6
Continuous
 62
     7
370
    15
100
AcDbSpline
210
0.0
220
0.0
230
1.0
 70
     8
 71
     3
 72
     8
 73
     4
 74
     0
 42
0.00000001
 43
0.00000001
 12
1.0
 22
0.0
 32
0.0
 13
1.0
 23
0.0
 33
0.0
 40
0.0
 40
0.0
 40
0.0
 40
0.0
 40
0.0042774229446188
 40
0.0042774229446188
 40
0.0042774229446188
 40
0.0042774229446188
 10
214.8600113795557
 20
366.7061045863903
 30
0.0
 10
213.9806425062021
 20
367.7070414620819
 30
0.0
 10
213.1005763492427
 20
368.7071628655857
 30
0.0
 10
212.2195075857346
 20
369.7061045864303
 30
0.0
  0
LINE
  5
10F
330
1F
100
AcDbEntity
  8
0
  6
Continuous
 62
     7
370
    15
100
AcDbLine
 10
214.8600114169
 20
363.7061078051
 30
0.0
 11
214.8600114169
 21
366.7060989836
 31
0.0
  0
LINE
  5
110
330
1F
100
AcDbEntity
  8
0
  6
Continuous
 62
     7
370
    15
100
AcDbLine
 10
211.9989642533
 20
363.7061078051
 30
0.0
 11
214.8600114169
 21
363.7061078051
 31
0.0
  0
LINE
  5
111
330
1F
100
AcDbEntity
  8
0
  6
Continuous
 62
     7
370
    15
100
AcDbLine
 10
211.9989642533
 20
357.7061105469
 30
0.0
 11
211.9989642533
 21
363.7061078051
 31
0.0
  0
LINE
  5
112
330
1F
100
AcDbEntity
  8
0
  6
Continuous
 62
     7
370
    15
100
AcDbLine
 10
219.3600112232
 20
357.7061105469
 30
0.0
 11
214.8600114169
 21
357.7061105469
 31
0.0
  0
LINE
  5
113
330
1F
100
AcDbEntity
  8
0
  6
Continuous
 62
     7
370
    15
100
AcDbLine
 10
219.3600112232
 20
337.3673666218
 30
0.0
 11
219.3600112232
 21
357.7061105469
 31
0.0
  0
LINE
  5
114
330
1F
100
AcDbEntity
  8
0
  6
Continuous
 62
     7
370
    15
100
AcDbLine
 10
212.2195070269
 20
369.7061050633
 30
0.0
 11
216.7195068332
 21
369.7061050633
 31
0.0
  0
SPLINE
  5
115
330
1F
100
AcDbEntity
  8
0
  6
Continuous
 62
     7
370
    15
100
AcDbSpline
210
0.0
220
0.0
230
1.0
 70
     8
 71
     3
 72
     8
 73
     4
 74
     0
 42
0.00000001
 43
0.00000001
 12
1.0
 22
0.0
 32
0.0
 13
1.0
 23
0.0
 33
0.0
 40
0.0
 40
0.0
 40
0.0
 40
0.0
 40
0.0042774229446188
 40
0.0042774229446188
 40
0.0042774229446188
 40
0.0042774229446188
 10
216.7195075857346
 20
369.7061045864303
 30
0.0
 10
217.6005763492427
 20
368.7071628655857
 30
0.0
 10
218.4806425062021
 20
367.7070414620819
 30
0.0
 10
219.3600113795557
 20
366.7061045863903
 30
0.0
  0
LINE
  5
116
330
1F
100
AcDbEntity
  8
0
  6
Continuous
 62
     7
370
    15
100
AcDbLine
 10
219.3600112232
 20
366.7060989836
 30
0.0
 11
214.8600114169
 21
366.7060989836
 31
0.0
  0
LINE
  5
117
330
1F
100
AcDbEntity
  8
0
  6
Continuous
 62
     7
370
    15
100
AcDbLine
 10
219.3600112232
 20
363.7061078051
 30
0.0
 11
219.3600112232
 21
366.7060989836
 31
0.0
  0
LINE
  5
118
330
1F
100
AcDbEntity
  8
0
  6
Continuous
 62
     7
370
    15
100
AcDbLine
 10
214.8600114169
 20
363.7061078051
 30
0.0
 11
219.3600112232
 21
363.7061078051
 31
0.0
  0
LINE
  5
119
330
1F
100
AcDbEntity
  8
0
  6
Continuous
 62
     7
370
    15
100
AcDbLine
 10
169.1879467698
 20
337.3673666218
 30
0.0
 11
169.1879467698
 21
357.7061105469
 31
0.0
  0
LINE
  5
11A
330
1F
100
AcDbEntity
  8
0
  6
Continuous
 62
     7
370
    15
100
AcDbLine
 10
173.6879465761
 20
357.7061105469
 30
0.0
 11
169.1879467698
 21
357.7061105469
 31
0.0
  0
LINE
  5
11B
330
1F
100
AcDbEntity
  8
0
  6
Continuous
 62
     7
370
    15
100
AcDbLine
 10
173.6879465761
 20
366.7060989836
 30
0.0
 11
169.1879467698
 21
366.7060989836
 31
0.0
  0
LINE
  5
11C
330
1F
100
AcDbEntity
  8
0
  6
Continuous
 62
     7
370
    15
100
AcDbLine
 10
169.1879467698
 20
363.7061078051
 30
0.0
 11
169.1879467698
 21
366.7060989836
 31
0.0
  0
LINE
  5
11D
330
1F
100
AcDbEntity
  8
0
  6
Continuous
 62
     7
370
    15
100
AcDbLine
 10
169.1879467698
 20
363.7061078051
 30
0.0
 11
173.6879465761
 21
363.7061078051
 31
0.0
  0
LINE
  5
11E
330
1F
100
AcDbEntity
  8
0
  6
Continuous
 62
     7
370
    15
100
AcDbLine
 10
171.8284511598
 20
369.7061050633
 30
0.0
 11
176.3284509661
 21
369.7061050633
 31
0.0
  0
SPLINE
  5
11F
330
1F
100
AcDbEntity
  8
0
  6
Continuous
 62
     7
370
    15
100
AcDbSpline
210
0.0
220
0.0
230
1.0
 70
     8
 71
     3
 72
     8
 73
     4
 74
     0
 42
0.00000001
 43
0.00000001
 12
1.0
 22
0.0
 32
0.0
 13
1.0
 23
0.0
 33
0.0
 40
0.0
 40
0.0
 40
0.0
 40
0.0
 40
0.0042774229446187
 40
0.0042774229446187
 40
0.0042774229446187
 40
0.0042774229446187
 10
169.1879466134429
 20
366.7061045863903
 30
0.0
 10
170.0673154867964
 20
367.7070414620819
 30
0.0
 10
170.9473816437559
 20
368.7071628655857
 30
0.0
 10
171.8284504072639
 20
369.7061045864303
 30
0.0
  0
LINE
  5
120
330
1F
100
AcDbEntity
  8
0
  6
Continuous
 62
     7
370
    15
100
AcDbLine
 10
216.4989640596
 20
363.7061078051
 30
0.0
 11
216.4989640596
 21
357.7061105469
 31
0.0
  0
LINE
  5
121
330
1F
100
AcDbEntity
  8
0
  6
Continuous
 62
     7
370
    15
100
AcDbLine
 10
172.0489939334
 20
357.7061105469
 30
0.0
 11
172.0489939334
 21
363.7061078051
 31
0.0
  0
LINE
  5
122
330
1F
100
AcDbEntity
  8
0
  6
Continuous
 62
     7
370
    15
100
AcDbLine
 10
144.2739782514
 20
297.7061081627
 30
0.0
 11
146.8951856377
 21
297.7061081627
 31
0.0
  0
LINE
  5
123
330
1F
100
AcDbEntity
  8
0
  6
Continuous
 62
     7
370
    15
100
AcDbLine
 10
144.2739782514
 20
323.7061012486
 30
0.0
 11
169.7205720129
 21
323.7061012486
 31
0.0
  0
LINE
  5
124
330
1F
100
AcDbEntity
  8
0
  6
Continuous
 62
     7
370
    15
100
AcDbLine
 10
244.2739797416
 20
323.7061012486
 30
0.0
 11
218.8273859801
 21
323.7061012486
 31
0.0
  0
LINE
  5
125
330
1F
100
AcDbEntity
  8
0
  6
Continuous
 62
     7
370
    15
100
AcDbLine
 10
244.2739797416
 20
297.7061081627
 30
0.0
 11
241.6527723553
 21
297.7061081627
 31
0.0
  0
LINE
  5
126
330
1F
100
AcDbEntity
  8
0
  6
Continuous
 62
     7
370
    15
100
AcDbLine
 10
256.0931449416
 20
323.7061012486
 30
0.0
 11
244.2739797416
 21
323.7061012486
 31
0.0
  0
LINE
  5
127
330
1F
100
AcDbEntity
  8
0
  6
Continuous
 62
     7
370
    15
100
AcDbLine
 10
256.7739789965
 20
297.7061081627
 30
0.0
 11
244.2739797416
 21
297.7061081627
 31
0.0
  0
LWPOLYLINE
  5
128
330
1F
100
AcDbEntity
  8
0
  6
Continuous
 62
     7
370
    15
100
AcDbPolyline
 90
       69
 70
   128
 43
0.0
 10
255.5078124287
 20
268.7061052719
 10
255.500861037
 20
268.7054980496
 10
255.4800254884
 20
268.7036726573
 10
255.4453206839
 20
268.7006365457
 10
255.3967987778
 20
268.6963934401
 10
255.3345156493
 20
268.6909433404
 10
255.2585495295
 20
268.6842974225
 10
255.1689935508
 20
268.676463137
 10
255.0659594717
 20
268.6674479345
 10
254.9495776775
 20
268.6572667161
 10
254.8199934544
 20
268.6459269324
 10
254.6773595395
 20
268.6334509352
 10
254.5218621971
 20
268.619846175
 10
254.3536914172
 20
268.6051312783
 10
254.1730558159
 20
268.5893285969
 10
253.9801789107
 20
268.5724530318
 10
253.7752991202
 20
268.5545306602
 10
253.5586734893
 20
268.5355763832
 10
253.3305702391
 20
268.5156200031
 10
253.0912762167
 20
268.4946838716
 10
252.841081995
 20
268.4727940658
 10
252.5803004982
 20
268.449980388
 10
252.3092558267
 20
268.4262689152
 10
252.0282869818
 20
268.4016857246
 10
251.7377441408
 20
268.3762680689
 10
251.4379812064
 20
268.3500420252
 10
251.1293744328
 20
268.3230411211
 10
250.8123075249
 20
268.2953026095
 10
250.4871753635
 20
268.2668562928
 10
250.1543765547
 20
268.2377394238
 10
249.8143320563
 20
268.2079892555
 10
249.4674591007
 20
268.1776430407
 10
249.1141860964
 20
268.1467343071
 10
248.7549600782
 20
268.1153077582
 10
248.3902169051
 20
268.0833969215
 10
248.020418513
 20
268.0510427752
 10
247.6460193875
 20
268.0182862976
 10
247.2674851897
 20
267.9851684669
 10
246.8852890315
 20
267.9517302612
 10
246.4999002995
 20
267.9180126587
 10
246.1118032815
 20
267.8840603629
 10
245.7214710893
 20
267.8499106267
 10
245.3293991866
 20
267.8156081536
 10
244.9360681357
 20
267.7811976472
 10
244.541969675
 20
267.7467163602
 10
244.1475880923
 20
267.7122127214
 10
243.7534188511
 20
267.6777277091
 10
243.3599499645
 20
267.6433060268
 10
242.9676694455
 20
267.6089849272
 10
242.5770615818
 20
267.574809114
 10
242.1886143865
 20
267.5408270159
 10
241.8028121474
 20
267.5070721605
 10
241.4201317015
 20
267.4735929766
 10
241.041049886
 20
267.4404267171
 10
240.6660323622
 20
267.4076180855
 10
240.295552242
 20
267.3752043346
 10
239.9300640108
 20
267.3432264426
 10
239.5700221541
 20
267.3117291132
 10
239.2158774319
 20
267.2807458738
 10
238.8680657031
 20
267.2503139773
 10
238.5270228269
 20
267.2204781273
 10
238.1931697609
 20
267.1912681261
 10
237.8669200125
 20
267.1627249518
 10
237.5486833634
 20
267.1348858574
 10
237.2388509693
 20
267.1077769199
 10
236.937806535
 20
267.0814391175
 10
236.6459263148
 20
267.0559022525
 10
236.3635753872
 20
267.0311998525
 10
236.0910964789
 20
267.0073617199
  0
LINE
  5
129
330
1F
100
AcDbEntity
  8
0
  6
Continuous
 62
     7
370
    15
100
AcDbLine
 10
131.7739789965
 20
297.7061081627
 30
0.0
 11
144.2739782514
 21
297.7061081627
 31
0.0
  0
LWPOLYLINE
  5
12A
330
1F
100
AcDbEntity
  8
0
  6
Continuous
 62
     7
370
    15
100
AcDbPolyline
 90
       69
 70
   128
 43
0.0
 10
133.0401455643
 20
268.7061052719
 10
133.047096956
 20
268.7054980496
 10
133.0679325046
 20
268.7036726573
 10
133.1026373091
 20
268.7006365457
 10
133.1511592152
 20
268.6963934401
 10
133.2134423437
 20
268.6909433404
 10
133.2894084635
 20
268.6842974225
 10
133.3789644422
 20
268.676463137
 10
133.4819985213
 20
268.6674479345
 10
133.5983803155
 20
268.6572667161
 10
133.7279645386
 20
268.6459269324
 10
133.8705984535
 20
268.6334509352
 10
134.0260957959
 20
268.619846175
 10
134.1942665758
 20
268.6051312783
 10
134.3749021771
 20
268.5893285969
 10
134.5677790823
 20
268.5724530318
 10
134.7726588728
 20
268.5545306602
 10
134.9892845037
 20
268.5355763832
 10
135.2173877539
 20
268.5156200031
 10
135.4566817763
 20
268.4946838716
 10
135.706875998
 20
268.4727940658
 10
135.9676574948
 20
268.449980388
 10
136.2387021663
 20
268.4262689152
 10
136.5196710112
 20
268.4016857246
 10
136.8102138522
 20
268.3762680689
 10
137.1099767866
 20
268.3500420252
 10
137.4185835602
 20
268.3230411211
 10
137.7356504681
 20
268.2953026095
 10
138.0607826295
 20
268.2668562928
 10
138.3935814383
 20
268.2377394238
 10
138.7336259367
 20
268.2079892555
 10
139.0804988923
 20
268.1776430407
 10
139.4337718966
 20
268.1467343071
 10
139.7929979148
 20
268.1153077582
 10
140.1577410879
 20
268.0833969215
 10
140.52753948
 20
268.0510427752
 10
140.9019386055
 20
268.0182862976
 10
141.2804728033
 20
267.9851684669
 10
141.6626689615
 20
267.9517302612
 10
142.0480576935
 20
267.9180126587
 10
142.4361547115
 20
267.8840603629
 10
142.8264869037
 20
267.8499106267
 10
143.2185588064
 20
267.8156081536
 10
143.6118898573
 20
267.7811976472
 10
144.005988318
 20
267.7467163602
 10
144.4003699007
 20
267.7122127214
 10
144.7945391419
 20
267.6777277091
 10
145.1880080285
 20
267.6433060268
 10
145.5802885475
 20
267.6089849272
 10
145.9708964112
 20
267.574809114
 10
146.3593436065
 20
267.5408270159
 10
146.7451458456
 20
267.5070721605
 10
147.1278262915
 20
267.4735929766
 10
147.506908107
 20
267.4404267171
 10
147.8819256308
 20
267.4076180855
 10
148.252405751
 20
267.3752043346
 10
148.6178939822
 20
267.3432264426
 10
148.9779358389
 20
267.3117291132
 10
149.3320805611
 20
267.2807458738
 10
149.6798922899
 20
267.2503139773
 10
150.0209351661
 20
267.2204781273
 10
150.3547882321
 20
267.1912681261
 10
150.6810379805
 20
267.1627249518
 10
150.9992746296
 20
267.1348858574
 10
151.3091070237
 20
267.1077769199
 10
151.610151458
 20
267.0814391175
 10
151.9020316782
 20
267.0559022525
 10
152.1843826058
 20
267.0311998525
 10
152.4568615141
 20
267.0073617199
  0
LINE
  5
12B
330
1F
100
AcDbEntity
  8
0
  6
Continuous
 62
     7
370
    15
100
AcDbLine
 10
132.4548130514
 20
323.7061012486
 30
0.0
 11
144.2739782514
 21
323.7061012486
 31
0.0
  0
ELLIPSE
  5
12C
330
1F
100
AcDbEntity
  8
0
  6
Continuous
 62
     7
370
    15
100
AcDbEllipse
 10
194.2739789965
 20
551.5642627093
 30
0.0
 11
0.0
 21
206.1338899358803
 31
0.0
210
0.0
220
0.0
230
1.0
 40
0.0436609429
 41
2.356194490192347
 42
2.592744264804696
  0
ELLIPSE
  5
12D
330
1F
100
AcDbEntity
  8
0
  6
Continuous
 62
     7
370
    15
100
AcDbEllipse
 10
194.2739789965
 20
382.7418172142
 30
0.0
 11
9.0
 21
0.0
 31
0.0
210
0.0
220
0.0
230
1.0
 40
0.916331174
 41
4.163540591599609
 42
5.261237369169796
  0
ELLIPSE
  5
12E
330
1F
100
AcDbEntity
  8
0
  6
Continuous
 62
     7
370
    15
100
AcDbEllipse
 10
194.2739789965
 20
551.5642627093
 30
0.0
 11
0.0
 21
206.1338899358803
 31
0.0
210
0.0
220
0.0
230
1.0
 40
0.0436609429
 41
3.690441042375116
 42
3.9269908169874
  0
LWPOLYLINE
  5
12F
330
1F
100
AcDbEntity
  8
0
  6
Continuous
 62
     7
370
    15
100
AcDbPolyline
 90
       10
 70
   128
 43
0.0
 10
200.6379399108
 20
405.8055985668
 10
200.8029888975
 20
402.0253527859
 10
200.9635274889
 20
398.3484167555
 10
201.1194448578
 20
394.7773087719
 10
201.2706339019
 20
391.314517329
 10
201.4169898475
 20
387.9624117115
 10
201.5584116461
 20
384.7233314017
 10
201.6948015089
 20
381.5994817713
 10
201.8260649065
 20
378.5930532911
 10
201.9521119664
 20
375.7061023215
  0
LWPOLYLINE
  5
130
330
1F
100
AcDbEntity
  8
0
  6
Continuous
 62
     7
370
    15
100
AcDbPolyline
 90
       17
 70
   128
 43
0.0
 10
203.2739786091
 20
374.4948316315
 10
203.2686840402
 20
374.49968941
 10
203.252806853
 20
374.5142329434
 10
203.2263647424
 20
374.5384622315
 10
203.1893893736
 20
374.572347472
 10
203.1419245186
 20
374.6158439615
 10
203.0840260568
 20
374.6688920954
 10
203.0157610434
 20
374.7314471701
 10
202.9372114348
 20
374.8034197787
 10
202.8484685006
 20
374.8847503164
 10
202.7496374803
 20
374.975304673
 10
202.6408329266
 20
375.0750083426
 10
202.5221852245
 20
375.1837272146
 10
202.3938322099
 20
375.3013420799
 10
202.2559256884
 20
375.4277039269
 10
202.10862771
 20
375.562678645
 10
201.9521119664
 20
375.7061023215
  0
LWPOLYLINE
  5
131
330
1F
100
AcDbEntity
  8
0
  6
Continuous
 62
     7
370
    15
100
AcDbPolyline
 90
       17
 70
   128
 43
0.0
 10
186.5958460266
 20
375.7061023215
 10
186.439330283
 20
375.562678645
 10
186.2920323046
 20
375.4277039269
 10
186.1541257831
 20
375.3013420799
 10
186.0257727685
 20
375.1837272146
 10
185.9071250664
 20
375.0750083426
 10
185.7983205127
 20
374.975304673
 10
185.6994894924
 20
374.8847503164
 10
185.6107465582
 20
374.8034197787
 10
185.5321969496
 20
374.7314471701
 10
185.4639319362
 20
374.6688920954
 10
185.4060334744
 20
374.6158439615
 10
185.3585686194
 20
374.572347472
 10
185.3215932506
 20
374.5384622315
 10
185.29515114
 20
374.5142329434
 10
185.2792739528
 20
374.49968941
 10
185.2739793839
 20
374.4948316315
  0
LWPOLYLINE
  5
132
330
1F
100
AcDbEntity
  8
0
  6
Continuous
 62
     7
370
    15
100
AcDbPolyline
 90
       10
 70
   128
 43
0.0
 10
186.5958460266
 20
375.7061023215
 10
186.7218930865
 20
378.5930532911
 10
186.8531564841
 20
381.5994817713
 10
186.9895463469
 20
384.7233314017
 10
187.1309681455
 20
387.9624117115
 10
187.2773240911
 20
391.314517329
 10
187.4285131352
 20
394.7773087719
 10
187.5844305041
 20
398.3484167555
 10
187.7449690955
 20
402.0253527859
 10
187.9100180822
 20
405.8055985668
  0
LINE
  5
133
330
1F
100
AcDbEntity
  8
0
  6
Continuous
 62
     7
370
    15
100
AcDbLine
 10
189.5786328832
 20
375.7061023215
 30
0.0
 11
198.9693251098
 21
375.7061023215
 31
0.0
  0
LINE
  5
134
330
1F
100
AcDbEntity
  8
0
  6
Continuous
 62
     7
370
    15
100
AcDbLine
 10
187.9100180822
 20
405.8055985668
 30
0.0
 11
188.1239791992
 21
410.7060987452
 31
0.0
  0
LINE
  5
135
330
1F
100
AcDbEntity
  8
0
  6
Continuous
 62
     7
370
    15
100
AcDbLine
 10
188.1239791992
 20
410.7060987452
 30
0.0
 11
200.4239787938
 21
410.7060987452
 31
0.0
  0
LINE
  5
136
330
1F
100
AcDbEntity
  8
0
  6
Continuous
 62
     7
370
    15
100
AcDbLine
 10
200.6379399108
 20
405.8055985668
 30
0.0
 11
200.4239787938
 21
410.7060987452
 31
0.0
  0
LINE
  5
137
330
1F
100
AcDbEntity
  8
0
  6
Continuous
 62
     7
370
    15
100
AcDbLine
 10
146.2739785793
 20
177.706105257
 30
0.0
 11
146.2739785793
 21
177.8564821878
 31
0.0
  0
LINE
  5
138
330
1F
100
AcDbEntity
  8
0
  6
Continuous
 62
     7
370
    15
100
AcDbLine
 10
242.2739794137
 20
177.706105257
 30
0.0
 11
242.2739794137
 21
177.8564821878
 31
0.0
  0
LINE
  5
139
330
1F
100
AcDbEntity
  8
0
  6
Continuous
 62
     7
370
    15
100
AcDbLine
 10
242.2739794137
 20
177.706105257
 30
0.0
 11
146.2739785793
 21
177.706105257
 31
0.0
  0
LINE
  5
13A
330
1F
100
AcDbEntity
  8
0
  6
Continuous
 62
     8
370
     0
100
AcDbLine
 10
165.6876882198
 20
199.1556012952
 30
0.0
 11
222.8602697732
 21
199.1556012952
 31
0.0
  0
LINE
  5
13B
330
1F
100
AcDbEntity
  8
0
  6
Continuous
 62
     8
370
     0
100
AcDbLine
 10
231.1739777806
 20
229.0452696332
 30
0.0
 11
231.1739777806
 21
177.8564821878
 31
0.0
  0
LINE
  5
13C
330
1F
100
AcDbEntity
  8
0
  6
Continuous
 62
     8
370
     0
100
AcDbLine
 10
228.3455511215
 20
221.333293798
 30
0.0
 11
228.3455511215
 21
179.0341991881
 31
0.0
  0
LINE
  5
13D
330
1F
100
AcDbEntity
  8
0
  6
Continuous
 62
     8
370
     0
100
AcDbLine
 10
157.3739802124
 20
229.0452696332
 30
0.0
 11
157.3739802124
 21
177.8564821878
 31
0.0
  0
LINE
  5
13E
330
1F
100
AcDbEntity
  8
0
  6
Continuous
 62
     8
370
     0
100
AcDbLine
 10
160.2024068715
 20
221.333293798
 30
0.0
 11
160.2024068715
 21
179.0341991881
 31
0.0
  0
LINE
  5
13F
330
1F
100
AcDbEntity
  8
0
  6
Continuous
 62
     8
370
     0
100
AcDbLine
 10
162.8592615607
 20
206.4314697353
 30
0.0
 11
162.8592615607
 21
181.7070428231
 31
0.0
  0
LINE
  5
140
330
1F
100
AcDbEntity
  8
0
  6
Continuous
 62
     8
370
     0
100
AcDbLine
 10
225.6886964323
 20
206.4314697353
 30
0.0
 11
225.6886964323
 21
181.7070428231
 31
0.0
  0
LINE
  5
141
330
1F
100
AcDbEntity
  8
0
  6
Continuous
 62
     8
370
     0
100
AcDbLine
 10
194.2739789965
 20
335.709061096
 30
0.0
 11
167.0239796522
 21
335.709061096
 31
0.0
  0
LINE
  5
142
330
1F
100
AcDbEntity
  8
0
  6
Continuous
 62
     8
370
     0
100
AcDbLine
 10
221.5239783408
 20
335.709061096
 30
0.0
 11
194.2739789965
 21
335.709061096
 31
0.0
  0
LINE
  5
143
330
1F
100
AcDbEntity
  8
0
  6
Continuous
 62
     8
370
     0
100
AcDbLine
 10
165.6876882198
 20
199.1556012952
 30
0.0
 11
165.6876882198
 21
182.886756579
 31
0.0
  0
LINE
  5
144
330
1F
100
AcDbEntity
  8
0
  6
Continuous
 62
     8
370
     0
100
AcDbLine
 10
222.8602697732
 20
199.1556012952
 30
0.0
 11
222.8602697732
 21
182.886756579
 31
0.0
  0
LINE
  5
145
330
1F
100
AcDbEntity
  8
0
  6
Continuous
 62
     8
370
     0
100
AcDbLine
 10
209.8142407494
 20
341.182212899
 30
0.0
 11
178.7337172436
 21
341.182212899
 31
0.0
  0
LINE
  5
146
330
1F
100
AcDbEntity
  8
0
  6
Continuous
 62
     8
370
     0
100
AcDbLine
 10
144.2739782514
 20
323.7061012486
 30
0.0
 11
144.2739782514
 21
297.7061081627
 31
0.0
  0
LINE
  5
147
330
1F
100
AcDbEntity
  8
0
  6
Continuous
 62
     8
370
     0
100
AcDbLine
 10
244.2739797416
 20
323.7061012486
 30
0.0
 11
244.2739797416
 21
297.7061081627
 31
0.0
  0
LINE
  5
148
330
1F
100
AcDbEntity
  8
0
  6
Continuous
 62
     8
370
     0
100
AcDbLine
 10
250.6543216886
 20
237.7061039159
 30
0.0
 11
251.9943905654
 21
268.3987203935
 31
0.0
  0
LINE
  5
149
330
1F
100
AcDbEntity
  8
0
  6
Continuous
 62
     8
370
     0
100
AcDbLine
 10
137.8936363044
 20
237.7061039159
 30
0.0
 11
136.5535674276
 21
268.3987203935
 31
0.0
  0
LINE
  5
14A
330
1F
100
AcDbEntity
  8
FORMAT
  6
CENTERX2
370
     0
100
AcDbLine
 10
112.3713363629
 20
207.7061045864
 30
0.0
 11
274.3684641414
 21
207.7061045864
 31
0.0
  0
LINE
  5
14B
330
1F
100
AcDbEntity
  8
FORMAT
  6
CENTERX2
370
     0
100
AcDbLine
 10
194.2739789965
 20
414.360056719
 30
0.0
 11
194.2739789965
 21
173.9299304232
 31
0.0
  0
LINE
  5
14C
330
1F
100
AcDbEntity
  8
0
  6
Continuous
 62
     7
370
    15
100
AcDbLine
 10
421.7179694753
 20
297.7061081627
 30
0.0
 11
423.0270485934
 21
267.7232731083
 31
0.0
  0
LINE
  5
14D
330
1F
100
AcDbEntity
  8
0
  6
Continuous
 62
     7
370
    15
100
AcDbLine
 10
445.4088907298
 20
267.7232731083
 30
0.0
 11
446.7179698479
 21
297.7061081627
 31
0.0
  0
LINE
  5
14E
330
1F
100
AcDbEntity
  8
0
  6
Continuous
 62
     7
370
    15
100
AcDbLine
 10
394.2394245025
 20
309.5996860364
 30
0.0
 11
393.8812825438
 21
305.5061060885
 31
0.0
  0
LINE
  5
14F
330
1F
100
AcDbEntity
  8
0
  6
Continuous
 62
     7
370
    15
100
AcDbLine
 10
474.5546567794
 20
305.5061060885
 30
0.0
 11
474.1965148207
 21
309.5996860364
 31
0.0
  0
LINE
  5
150
330
1F
100
AcDbEntity
  8
0
  6
Continuous
 62
     7
370
    15
100
AcDbLine
 10
406.9679703173
 20
316.9485215047
 30
0.0
 11
394.2394245025
 21
309.5996860364
 31
0.0
  0
LINE
  5
151
330
1F
100
AcDbEntity
  8
0
  6
Continuous
 62
     7
370
    15
100
AcDbLine
 10
474.1965148207
 20
309.5996860364
 30
0.0
 11
461.467969006
 21
316.9485215047
 31
0.0
  0
ARC
  5
152
330
1F
100
AcDbEntity
  8
0
  6
Continuous
 62
     7
370
    15
100
AcDbCircle
 10
458.4679696616
 20
335.7090551891
 30
0.0
 40
3.0
100
AcDbArc
 50
0.0
 51
90.0
  0
ARC
  5
153
330
1F
100
AcDbEntity
  8
0
  6
Continuous
 62
     7
370
    15
100
AcDbCircle
 10
409.9679696616
 20
335.7090551891
 30
0.0
 40
3.000000000000025
100
AcDbArc
 50
146.4426902381
 51
180.0
  0
LINE
  5
154
330
1F
100
AcDbEntity
  8
0
  6
Continuous
 62
     7
370
    15
100
AcDbLine
 10
442.2345736604
 20
338.7090522745
 30
0.0
 11
410.3892955538
 21
338.7090522745
 31
0.0
  0
LINE
  5
155
330
1F
100
AcDbEntity
  8
0
  6
Continuous
 62
     7
370
    15
100
AcDbLine
 10
458.4679703769
 20
338.7090522745
 30
0.0
 11
451.2994743493
 21
338.7090522745
 31
0.0
  0
LINE
  5
156
330
1F
100
AcDbEntity
  8
0
  6
Continuous
 62
     7
370
    15
100
AcDbLine
 10
461.467969006
 20
316.9485215047
 30
0.0
 11
461.467969006
 21
335.709061096
 31
0.0
  0
LINE
  5
157
330
1F
100
AcDbEntity
  8
0
  6
Continuous
 62
     7
370
    15
100
AcDbLine
 10
406.9679703173
 20
335.709061096
 30
0.0
 11
406.9679703173
 21
316.9485215047
 31
0.0
  0
ARC
  5
158
330
1F
100
AcDbEntity
  8
0
  6
Continuous
 62
     7
370
    15
100
AcDbCircle
 10
458.201925228
 20
341.7031539837
 30
0.0
 40
2.999999999999999
100
AcDbArc
 50
190.0
 51
266.4056647256
  0
LINE
  5
159
330
1F
100
AcDbEntity
  8
0
  6
Continuous
 62
     7
370
    15
100
AcDbLine
 10
455.2475016173
 20
341.182212899
 30
0.0
 11
451.2759323772
 21
363.7061078051
 31
0.0
  0
LINE
  5
15A
330
1F
100
AcDbEntity
  8
0
  6
Continuous
 62
     7
370
    15
100
AcDbLine
 10
450.4533603397
 20
368.3711398342
 30
0.0
 11
450.2179704216
 21
369.7061050633
 31
0.0
  0
LINE
  5
15B
330
1F
100
AcDbEntity
  8
0
  6
Continuous
 62
     7
370
    15
100
AcDbLine
 10
443.2179692742
 20
369.7061050633
 30
0.0
 11
443.2179692742
 21
374.4948316315
 31
0.0
  0
LINE
  5
15C
330
1F
100
AcDbEntity
  8
0
  6
Continuous
 62
     7
370
    15
100
AcDbLine
 10
425.217970049
 20
374.4948316315
 30
0.0
 11
425.217970049
 21
369.7061050633
 31
0.0
  0
LINE
  5
15D
330
1F
100
AcDbEntity
  8
0
  6
Continuous
 62
     7
370
    15
100
AcDbLine
 10
410.4679699596
 20
369.7061050633
 30
0.0
 11
407.4679694679
 21
366.7060989836
 31
0.0
  0
LINE
  5
15E
330
1F
100
AcDbEntity
  8
0
  6
Continuous
 62
     7
370
    15
100
AcDbLine
 10
410.7179704663
 20
363.7061078051
 30
0.0
 11
410.7179704663
 21
357.7061105469
 31
0.0
  0
LINE
  5
15F
330
1F
100
AcDbEntity
  8
0
  6
Continuous
 62
     7
370
    15
100
AcDbLine
 10
407.4679694679
 20
366.7060989836
 30
0.0
 11
407.4679694679
 21
363.7061078051
 31
0.0
  0
LINE
  5
160
330
1F
100
AcDbEntity
  8
0
  6
Continuous
 62
     7
370
    15
100
AcDbLine
 10
407.4679694679
 20
357.7061105469
 30
0.0
 11
407.4679694679
 21
337.3673666218
 31
0.0
  0
ARC
  5
161
330
1F
100
AcDbEntity
  8
0
  6
Continuous
 62
     7
370
    15
100
AcDbCircle
 10
402.7179696616
 20
214.2061045864
 30
0.0
 40
2.500000000002956
100
AcDbArc
 50
90.0
 51
180.0
  0
ARC
  5
162
330
1F
100
AcDbEntity
  8
0
  6
Continuous
 62
     7
370
    15
100
AcDbCircle
 10
402.7179696616
 20
201.2061045864
 30
0.0
 40
2.500000000002956
100
AcDbArc
 50
180.0
 51
270.0
  0
LINE
  5
163
330
1F
100
AcDbEntity
  8
0
  6
Continuous
 62
     7
370
    15
100
AcDbLine
 10
402.717969155
 20
198.7061049739
 30
0.0
 11
404.7731056419
 21
198.7061049739
 31
0.0
  0
LINE
  5
164
330
1F
100
AcDbEntity
  8
0
  6
Continuous
 62
     7
370
    15
100
AcDbLine
 10
404.337792432
 20
216.706104199
 30
0.0
 11
402.717969155
 21
216.706104199
 31
0.0
  0
LINE
  5
165
330
1F
100
AcDbEntity
  8
0
  6
Continuous
 62
     7
370
    15
100
AcDbLine
 10
451.538477799
 20
237.7061039159
 30
0.0
 11
416.8974615243
 21
237.7061039159
 31
0.0
  0
LINE
  5
166
330
1F
100
AcDbEntity
  8
0
  6
Continuous
 62
     7
370
    15
100
AcDbLine
 10
468.8589859363
 20
207.7061045864
 30
0.0
 11
451.538477799
 21
237.7061039159
 31
0.0
  0
LINE
  5
167
330
1F
100
AcDbEntity
  8
0
  6
Continuous
 62
     7
370
    15
100
AcDbLine
 10
451.538477799
 20
177.706105257
 30
0.0
 11
468.8589859363
 21
207.7061045864
 31
0.0
  0
LINE
  5
168
330
1F
100
AcDbEntity
  8
0
  6
Continuous
 62
     7
370
    15
100
AcDbLine
 10
416.8974615243
 20
177.706105257
 30
0.0
 11
451.538477799
 21
177.706105257
 31
0.0
  0
CIRCLE
  5
169
330
1F
100
AcDbEntity
  8
0
  6
Continuous
 62
     7
370
    15
100
AcDbCircle
 10
434.2179696616
 20
207.7061045864
 30
0.0
 40
20.49999999999994
  0
LINE
  5
16A
330
1F
100
AcDbEntity
  8
0
  6
Continuous
 62
     7
370
    15
100
AcDbLine
 10
399.5769533869
 20
207.7061045864
 30
0.0
 11
416.8974615243
 21
237.7061039159
 31
0.0
  0
LINE
  5
16B
330
1F
100
AcDbEntity
  8
0
  6
Continuous
 62
     7
370
    15
100
AcDbLine
 10
416.8974615243
 20
177.706105257
 30
0.0
 11
399.5769533869
 21
207.7061045864
 31
0.0
  0
LINE
  5
16C
330
1F
100
AcDbEntity
  8
0
  6
Continuous
 62
     7
370
    15
100
AcDbLine
 10
421.7179694753
 20
297.7061081627
 30
0.0
 11
446.7179698479
 21
297.7061081627
 31
0.0
  0
ELLIPSE
  5
16D
330
1F
100
AcDbEntity
  8
0
  6
Continuous
 62
     7
370
    15
100
AcDbEllipse
 10
434.2179696616
 20
267.7270115574
 30
0.0
 11
11.19100288506769
 21
0.0
 31
0.0
210
0.0
220
0.0
230
1.0
 40
0.0874893018
 41
5.45749464259079
 42
7.853981633974483
  0
ELLIPSE
  5
16E
330
1F
100
AcDbEntity
  8
0
  6
Continuous
 62
     7
370
    15
100
AcDbEllipse
 10
434.2179696616
 20
267.7270115574
 30
0.0
 11
11.19100288506769
 21
0.0
 31
0.0
210
0.0
220
0.0
230
1.0
 40
0.0874893018
 41
1.570796326794897
 42
3.967283318178767
  0
LINE
  5
16F
330
1F
100
AcDbEntity
  8
0
  6
Continuous
 62
     7
370
    15
100
AcDbLine
 10
422.3988035303
 20
323.7061012486
 30
0.0
 11
421.7179694753
 21
297.7061081627
 31
0.0
  0
LINE
  5
170
330
1F
100
AcDbEntity
  8
0
  6
Continuous
 62
     7
370
    15
100
AcDbLine
 10
422.3988035303
 20
323.7061012486
 30
0.0
 11
446.0371357929
 21
323.7061012486
 31
0.0
  0
LINE
  5
171
330
1F
100
AcDbEntity
  8
0
  6
Continuous
 62
     7
370
    15
100
AcDbLine
 10
446.0371357929
 20
323.7061012486
 30
0.0
 11
446.7179698479
 21
297.7061081627
 31
0.0
  0
SPLINE
  5
172
330
1F
100
AcDbEntity
  8
0
  6
Continuous
 62
     7
370
    15
100
AcDbSpline
210
0.0
220
0.0
230
1.0
 70
     8
 71
     3
 72
    14
 73
    10
 74
     0
 42
0.00000001
 43
0.00000001
 12
1.0
 22
0.0
 32
0.0
 13
1.0
 23
0.0
 33
0.0
 40
0.0
 40
0.0
 40
0.0
 40
0.0
 40
0.25
 40
0.25
 40
0.5
 40
0.5
 40
0.75
 40
0.75
 40
1.0
 40
1.0
 40
1.0
 40
1.0
 10
430.7179696616101
 20
268.3987201053085
 30
0.0
 10
430.7179696616101
 20
268.4388949268851
 30
0.0
 10
430.8084664815836
 20
268.4789104646276
 30
0.0
 10
431.1567626807027
 20
268.5530368035776
 30
0.0
 10
431.4151467545911
 20
268.5871597162911
 30
0.0
 10
432.0613619264327
 20
268.6441357130657
 30
0.0
 10
432.4493928421615
 20
268.6670340646509
 30
0.0
 10
433.2990249864474
 20
268.6980601485892
 30
0.0
 10
433.758566857758
 20
268.7061045864304
 30
0.0
 10
434.2179696616101
 20
268.7061045864304
 30
0.0
  0
ELLIPSE
  5
173
330
1F
100
AcDbEntity
  8
0
  6
Continuous
 62
     7
370
    15
100
AcDbEllipse
 10
434.2179696616
 20
263.3488384048
 30
0.0
 11
42.5
 21
0.0
 31
0.0
210
0.0
220
0.0
230
1.0
 40
0.0874886635
 41
1.653242639583611
 42
1.750301215198292
  0
LINE
  5
174
330
1F
100
AcDbEntity
  8
0
  6
Continuous
 62
     7
370
    15
100
AcDbLine
 10
437.7179697696
 20
237.7061039159
 30
0.0
 11
437.7179697696
 21
268.3987203935
 31
0.0
  0
LINE
  5
175
330
1F
100
AcDbEntity
  8
0
  6
Continuous
 62
     7
370
    15
100
AcDbLine
 10
430.7179695536
 20
237.7061039159
 30
0.0
 11
430.7179695536
 21
268.3987203935
 31
0.0
  0
SPLINE
  5
176
330
1F
100
AcDbEntity
  8
0
  6
Continuous
 62
     7
370
    15
100
AcDbSpline
210
0.0
220
0.0
230
1.0
 70
     8
 71
     3
 72
    14
 73
    10
 74
     0
 42
0.00000001
 43
0.00000001
 12
1.0
 22
0.0
 32
0.0
 13
1.0
 23
0.0
 33
0.0
 40
0.0
 40
0.0
 40
0.0
 40
0.0
 40
0.25
 40
0.25
 40
0.5
 40
0.5
 40
0.75
 40
0.75
 40
1.0
 40
1.0
 40
1.0
 40
1.0
 10
437.7179696616101
 20
268.3987201053085
 30
0.0
 10
437.7179696616101
 20
268.4388949268851
 30
0.0
 10
437.6274728416366
 20
268.4789104646276
 30
0.0
 10
437.2791766425175
 20
268.5530368035776
 30
0.0
 10
437.020792568629
 20
268.5871597162911
 30
0.0
 10
436.3745773967875
 20
268.6441357130657
 30
0.0
 10
435.9865464810587
 20
268.6670340646509
 30
0.0
 10
435.1369143367728
 20
268.6980601485892
 30
0.0
 10
434.6773724654622
 20
268.7061045864304
 30
0.0
 10
434.2179696616101
 20
268.7061045864304
 30
0.0
  0
ELLIPSE
  5
177
330
1F
100
AcDbEntity
  8
0
  6
Continuous
 62
     7
370
    15
100
AcDbEllipse
 10
434.2179696616
 20
263.3488384048
 30
0.0
 11
42.5
 21
0.0
 31
0.0
210
0.0
220
0.0
230
1.0
 40
0.0874886635
 41
1.391291438391499
 42
1.488350014006182
  0
LINE
  5
178
330
1F
100
AcDbEntity
  8
0
  6
Continuous
 62
     7
370
    15
100
AcDbLine
 10
422.1545790863
 20
287.7061027983
 30
0.0
 11
389.654579347
 21
287.7061027983
 31
0.0
  0
LINE
  5
179
330
1F
100
AcDbEntity
  8
0
  6
Continuous
 62
     7
370
    15
100
AcDbLine
 10
389.654579347
 20
287.7061027983
 30
0.0
 11
389.2179678735
 21
297.7061081627
 31
0.0
  0
LINE
  5
17A
330
1F
100
AcDbEntity
  8
0
  6
Continuous
 62
     7
370
    15
100
AcDbLine
 10
389.2179678735
 20
297.7061081627
 30
0.0
 11
421.7179694753
 21
297.7061081627
 31
0.0
  0
LINE
  5
17B
330
1F
100
AcDbEntity
  8
0
  6
Continuous
 62
     7
370
    15
100
AcDbLine
 10
479.2179714497
 20
297.7061081627
 30
0.0
 11
446.7179698479
 21
297.7061081627
 31
0.0
  0
LINE
  5
17C
330
1F
100
AcDbEntity
  8
0
  6
Continuous
 62
     7
370
    15
100
AcDbLine
 10
478.7813599762
 20
287.7061027983
 30
0.0
 11
479.2179714497
 21
297.7061081627
 31
0.0
  0
LINE
  5
17D
330
1F
100
AcDbEntity
  8
0
  6
Continuous
 62
     7
370
    15
100
AcDbLine
 10
446.281360237
 20
287.7061027983
 30
0.0
 11
478.7813599762
 21
287.7061027983
 31
0.0
  0
LINE
  5
17E
330
1F
100
AcDbEntity
  8
0
  6
Continuous
 62
     7
370
    15
100
AcDbLine
 10
389.2179678735
 20
297.7061081627
 30
0.0
 11
389.42221809
 21
305.5061060885
 31
0.0
  0
LINE
  5
17F
330
1F
100
AcDbEntity
  8
0
  6
Continuous
 62
     7
370
    15
100
AcDbLine
 10
389.42221809
 20
305.5061060885
 30
0.0
 11
421.9222196918
 21
305.5061060885
 31
0.0
  0
LINE
  5
180
330
1F
100
AcDbEntity
  8
0
  6
Continuous
 62
     7
370
    15
100
AcDbLine
 10
479.0137212333
 20
305.5061060885
 30
0.0
 11
446.5137196314
 21
305.5061060885
 31
0.0
  0
LINE
  5
181
330
1F
100
AcDbEntity
  8
0
  6
Continuous
 62
     7
370
    15
100
AcDbLine
 10
479.2179714497
 20
297.7061081627
 30
0.0
 11
479.0137212333
 21
305.5061060885
 31
0.0
  0
LINE
  5
182
330
1F
100
AcDbEntity
  8
0
  6
Continuous
 62
     7
370
    15
100
AcDbLine
 10
397.7179701981
 20
286.0814217427
 30
0.0
 11
422.2255142015
 21
286.0814217427
 31
0.0
  0
SPLINE
  5
183
330
1F
100
AcDbEntity
  8
0
  6
Continuous
 62
     7
370
    15
100
AcDbSpline
210
0.0
220
0.0
230
1.0
 70
    24
 71
     3
 72
     8
 73
     4
 74
     0
 42
0.00000001
 43
0.00000001
 12
1.0
 22
0.0
 32
0.0
 13
1.0
 23
0.0
 33
0.0
 40
0.0
 40
0.0
 40
0.0
 40
0.0
 40
1.0
 40
1.0
 40
1.0
 40
1.0
 10
397.7179696616101
 20
285.545525594697
 30
0.0
 10
395.0362161246526
 20
286.264099289224
 30
0.0
 10
392.3478948418554
 20
286.984432805945
 30
0.0
 10
389.6545790906952
 20
287.7061045864303
 30
0.0
  0
SPLINE
  5
184
330
1F
100
AcDbEntity
  8
0
  6
Continuous
 62
     7
370
    15
100
AcDbSpline
210
0.0
220
0.0
230
1.0
 70
    24
 71
     3
 72
     8
 73
     4
 74
     0
 42
0.00000001
 43
0.00000001
 12
1.0
 22
0.0
 32
0.0
 13
1.0
 23
0.0
 33
0.0
 40
0.0
 40
0.0
 40
0.0
 40
0.0
 40
1.0
 40
1.0
 40
1.0
 40
1.0
 10
470.7179696616101
 20
285.545525594697
 30
0.0
 10
473.3997231985675
 20
286.264099289224
 30
0.0
 10
476.0880444813648
 20
286.984432805945
 30
0.0
 10
478.7813602325249
 20
287.7061045864303
 30
0.0
  0
LINE
  5
185
330
1F
100
AcDbEntity
  8
0
  6
Continuous
 62
     7
370
    15
100
AcDbLine
 10
470.7179691252
 20
286.0814217427
 30
0.0
 11
446.2104251217
 21
286.0814217427
 31
0.0
  0
LWPOLYLINE
  5
186
330
1F
100
AcDbEntity
  8
0
  6
Continuous
 62
     7
370
    15
100
AcDbPolyline
 90
       11
 70
   128
 43
0.0
 10
404.5046221074
 20
216.247745412
 10
404.2987476643
 20
216.8133795211
 10
403.4654914942
 20
219.1027361849
 10
402.6563379523
 20
221.3258655691
 10
401.8719222006
 20
223.4810251692
 10
401.1128644999
 20
225.5665264973
 10
400.3797534462
 20
227.5807350823
 10
399.6731627342
 20
229.5220695385
 10
398.9936511573
 20
231.3890118101
 10
398.3417514321
 20
233.1800959954
 10
397.7179701981
 20
234.8939195225
  0
LINE
  5
187
330
1F
100
AcDbEntity
  8
0
  6
Continuous
 62
     7
370
    15
100
AcDbLine
 10
397.7179701981
 20
234.8939195225
 30
0.0
 11
397.7179701981
 21
286.0814217427
 31
0.0
  0
LINE
  5
188
330
1F
100
AcDbEntity
  8
0
  6
Continuous
 62
     7
370
    15
100
AcDbLine
 10
470.7179691252
 20
234.8939195225
 30
0.0
 11
470.7179691252
 21
286.0814217427
 31
0.0
  0
LWPOLYLINE
  5
189
330
1F
100
AcDbEntity
  8
0
  6
Continuous
 62
     7
370
    15
100
AcDbPolyline
 90
       11
 70
   128
 43
0.0
 10
463.9298289623
 20
216.2436559746
 10
464.1371916589
 20
216.8133795211
 10
464.970447829
 20
219.1027361849
 10
465.7796013709
 20
221.3258655691
 10
466.5640171226
 20
223.4810251692
 10
467.3230748233
 20
225.5665264973
 10
468.056185877
 20
227.5807350823
 10
468.7627765891
 20
229.5220695385
 10
469.4422881659
 20
231.3890118101
 10
470.0941878911
 20
233.1800959954
 10
470.7179691252
 20
234.8939195225
  0
LINE
  5
18A
330
1F
100
AcDbEntity
  8
0
  6
Continuous
 62
     7
370
    15
100
AcDbLine
 10
422.0294139888
 20
309.5996860364
 30
0.0
 11
394.2394245025
 21
309.5996860364
 31
0.0
  0
LINE
  5
18B
330
1F
100
AcDbEntity
  8
0
  6
Continuous
 62
     7
370
    15
100
AcDbLine
 10
446.4065253344
 20
309.5996860364
 30
0.0
 11
474.1965148207
 21
309.5996860364
 31
0.0
  0
LINE
  5
18C
330
1F
100
AcDbEntity
  8
0
  6
Continuous
 62
     7
370
    15
100
AcDbLine
 10
406.9679703173
 20
316.9485215047
 30
0.0
 11
422.2218503785
 21
316.9485215047
 31
0.0
  0
LINE
  5
18D
330
1F
100
AcDbEntity
  8
0
  6
Continuous
 62
     7
370
    15
100
AcDbLine
 10
461.467969006
 20
316.9485215047
 30
0.0
 11
446.2140889447
 21
316.9485215047
 31
0.0
  0
CIRCLE
  5
18E
330
1F
100
AcDbEntity
  8
0
  6
Continuous
 62
     7
370
    15
100
AcDbCircle
 10
434.2179696616
 20
207.7061045864
 30
0.0
 40
17.99408767962467
  0
SPLINE
  5
18F
330
1F
100
AcDbEntity
  8
0
  6
Continuous
 62
     7
370
    15
100
AcDbSpline
210
0.0
220
0.0
230
1.0
 70
     8
 71
     3
 72
    19
 73
    15
 74
     0
 42
0.00000001
 43
0.00000001
 12
1.0
 22
0.0
 32
0.0
 13
1.0
 23
0.0
 33
0.0
 40
0.0
 40
0.0
 40
0.0
 40
0.0
 40
0.0840031589373021
 40
0.1680047973281676
 40
0.2544697895838965
 40
0.3409347894239779
 40
0.4249585641120358
 40
0.5089850096592077
 40
0.5953963672297237
 40
0.6818120493737715
 40
0.7667664030987577
 40
0.8517223952213314
 40
0.9390873291160161
 40
0.9999999999999999
 40
0.9999999999999999
 40
0.9999999999999999
 40
0.9999999999999999
 10
443.5052450355458
 20
337.3673666218002
 30
0.0
 10
443.4809918600153
 20
337.4357898598753
 30
0.0
 10
443.4324859479626
 20
337.572635097492
 30
0.0
 10
443.3483741476413
 20
337.7634403579982
 30
0.0
 10
443.2561797124973
 20
337.9419306948838
 30
0.0
 10
443.1565536114429
 20
338.103844373223
 30
0.0
 10
443.051515540227
 20
338.2470609761826
 30
0.0
 10
442.9409779154263
 20
338.372540217491
 30
0.0
 10
442.8244744402559
 20
338.4800610643815
 30
0.0
 10
442.7034589446964
 20
338.5680070286799
 30
0.0
 10
442.579888300501
 20
338.6352025881634
 30
0.0
 10
442.4535268597791
 20
338.6813468000481
 30
0.0
 10
442.3376012398102
 20
338.7066064999797
 30
0.0
 10
442.263585984137
 20
338.7066924039161
 30
0.0
 10
442.2331804018783
 20
338.7067276933868
 30
0.0
  0
LINE
  5
190
330
1F
100
AcDbEntity
  8
0
  6
Continuous
 62
     7
370
    15
100
AcDbLine
 10
451.2994743493
 20
337.3673666218
 30
0.0
 11
443.5052450355
 21
337.3673666218
 31
0.0
  0
LINE
  5
191
330
1F
100
AcDbEntity
  8
0
  6
Continuous
 62
     7
370
    15
100
AcDbLine
 10
407.8491914627
 20
337.3673666218
 30
0.0
 11
407.4679694679
 21
337.3673666218
 31
0.0
  0
SPLINE
  5
192
330
1F
100
AcDbEntity
  8
0
  6
Continuous
 62
     7
370
    15
100
AcDbSpline
210
0.0
220
0.0
230
1.0
 70
     8
 71
     3
 72
    18
 73
    14
 74
     0
 42
0.00000001
 43
0.00000001
 12
1.0
 22
0.0
 32
0.0
 13
1.0
 23
0.0
 33
0.0
 40
0.0
 40
0.0
 40
0.0
 40
0.0
 40
0.0810757730334805
 40
0.2079485237278573
 40
0.2941502738949265
 40
0.3803517511869099
 40
0.4691052584861969
 40
0.5578565448703516
 40
0.643215752670233
 40
0.7285751037144874
 40
0.8164904876735385
 40
0.9044025002460991
 40
1.0
 40
1.0
 40
1.0
 40
1.0
 10
410.3930655476021
 20
338.7039113739212
 30
0.0
 10
410.3121063574457
 20
338.7042161327792
 30
0.0
 10
410.1044568532183
 20
338.7049977985253
 30
0.0
 10
409.8130331524162
 20
338.6600177455891
 30
0.0
 10
409.5228048874014
 20
338.5894614409864
 30
0.0
 10
409.27557899394
 20
338.5060068019281
 30
0.0
 10
409.0340350996868
 20
338.4009594248748
 30
0.0
 10
408.8031595316364
 20
338.2758424271465
 30
0.0
 10
408.5867576943958
 20
338.1332458774391
 30
0.0
 10
408.3835716957584
 20
337.9736545236658
 30
0.0
 10
408.1933711531544
 20
337.7951672801574
 30
0.0
 10
408.0110488063916
 20
337.5942205447618
 30
0.0
 10
407.9046295444941
 20
337.4450668117125
 30
0.0
 10
407.8491914626526
 20
337.3673666218002
 30
0.0
  0
LINE
  5
193
330
1F
100
AcDbEntity
  8
0
  6
Continuous
 62
     7
370
    15
100
AcDbLine
 10
443.5052450355
 20
357.7061105469
 30
0.0
 11
441.8534177896
 21
357.7061105469
 31
0.0
  0
LINE
  5
194
330
1F
100
AcDbEntity
  8
0
  6
Continuous
 62
     7
370
    15
100
AcDbLine
 10
443.5052450355
 20
337.3673666218
 30
0.0
 11
443.5052450355
 21
357.7061105469
 31
0.0
  0
SPLINE
  5
195
330
1F
100
AcDbEntity
  8
0
  6
Continuous
 62
     7
370
    15
100
AcDbSpline
210
0.0
220
0.0
230
1.0
 70
     8
 71
     3
 72
    20
 73
    16
 74
     0
 42
0.00000001
 43
0.00000001
 12
1.0
 22
0.0
 32
0.0
 13
1.0
 23
0.0
 33
0.0
 40
0.0
 40
0.0
 40
0.0
 40
0.0
 40
0.0308690930559203
 40
0.1164174617733316
 40
0.2022364585429698
 40
0.2877824071807918
 40
0.3734627985186574
 40
0.4594204753915637
 40
0.5450929569349933
 40
0.6297967706428378
 40
0.7147783560509724
 40
0.7994750141690742
 40
0.8662705563327857
 40
0.9332069809563011
 40
1.0
 40
1.0
 40
1.0
 40
1.0
 10
442.019381800698
 20
338.7090522745331
 30
0.0
 10
441.9984447839419
 20
338.7110781071946
 30
0.0
 10
441.919484435368
 20
338.7187181857676
 30
0.0
 10
441.7834873342049
 20
338.7626022481995
 30
0.0
 10
441.6145952714665
 20
338.8516316000959
 30
0.0
 10
441.4516514362437
 20
338.9788788658934
 30
0.0
 10
441.2970110561289
 20
339.1425738764146
 30
0.0
 10
441.1524562408798
 20
339.3400293938822
 30
0.0
 10
441.0204018125196
 20
339.56789208084
 30
0.0
 10
440.9030097792033
 20
339.8240749395264
 30
0.0
 10
440.8012462543592
 20
340.1040037101156
 30
0.0
 10
440.7219654430872
 20
340.3841245983373
 30
0.0
 10
440.663172804614
 20
340.656736655546
 30
0.0
 10
440.6199081099842
 20
340.915504637052
 30
0.0
 10
440.6013414147243
 20
341.093373724707
 30
0.0
 10
440.5920680221486
 20
341.1822128990372
 30
0.0
  0
SPLINE
  5
196
330
1F
100
AcDbEntity
  8
0
  6
Continuous
 62
     7
370
    15
100
AcDbSpline
210
0.0
220
0.0
230
1.0
 70
     8
 71
     3
 72
     8
 73
     4
 74
     0
 42
0.00000001
 43
0.00000001
 12
1.0
 22
0.0
 32
0.0
 13
1.0
 23
0.0
 33
0.0
 40
0.0
 40
0.0
 40
0.0
 40
0.0
 40
1.0
 40
1.0
 40
1.0
 40
1.0
 10
440.5920678955008
 20
341.1822094507255
 30
0.0
 10
439.7337264196357
 20
350.6924920271483
 30
0.0
 10
438.8711621459888
 20
360.2012384160209
 30
0.0
 10
437.997931610972
 20
369.7061045864303
 30
0.0
  0
LINE
  5
197
330
1F
100
AcDbEntity
  8
0
  6
Continuous
 62
     7
370
    15
100
AcDbLine
 10
437.997931622
 20
369.7061050633
 30
0.0
 11
441.9807491433
 21
369.7061050633
 31
0.0
  0
SPLINE
  5
198
330
1F
100
AcDbEntity
  8
0
  6
Continuous
 62
     7
370
    15
100
AcDbSpline
210
0.0
220
0.0
230
1.0
 70
     8
 71
     3
 72
     8
 73
     4
 74
     0
 42
0.00000001
 43
0.00000001
 12
1.0
 22
0.0
 32
0.0
 13
1.0
 23
0.0
 33
0.0
 40
0.0
 40
0.0
 40
0.0
 40
0.0
 40
0.0042774229446187
 40
0.0042774229446187
 40
0.0042774229446187
 40
0.0042774229446187
 10
443.5052447881606
 20
366.7061045863903
 30
0.0
 10
442.997540932413
 20
367.7070414620819
 30
0.0
 10
442.4894344997877
 20
368.7071628655857
 30
0.0
 10
441.9807492120018
 20
369.7061045864303
 30
0.0
  0
LINE
  5
199
330
1F
100
AcDbEntity
  8
0
  6
Continuous
 62
     7
370
    15
100
AcDbLine
 10
443.5052450355
 20
363.7061078051
 30
0.0
 11
443.5052450355
 21
366.7060989836
 31
0.0
  0
LINE
  5
19A
330
1F
100
AcDbEntity
  8
0
  6
Continuous
 62
     7
370
    15
100
AcDbLine
 10
441.8534177896
 20
363.7061078051
 30
0.0
 11
443.5052450355
 21
363.7061078051
 31
0.0
  0
LINE
  5
19B
330
1F
100
AcDbEntity
  8
0
  6
Continuous
 62
     7
370
    15
100
AcDbLine
 10
441.8534177896
 20
357.7061105469
 30
0.0
 11
441.8534177896
 21
363.7061078051
 31
0.0
  0
LINE
  5
19C
330
1F
100
AcDbEntity
  8
0
  6
Continuous
 62
     7
370
    15
100
AcDbLine
 10
441.9807491433
 20
369.7061050633
 30
0.0
 11
449.7749775257
 21
369.7061050633
 31
0.0
  0
SPLINE
  5
19D
330
1F
100
AcDbEntity
  8
0
  6
Continuous
 62
     7
370
    15
100
AcDbSpline
210
0.0
220
0.0
230
1.0
 70
     8
 71
     3
 72
     8
 73
     4
 74
     0
 42
0.00000001
 43
0.00000001
 12
1.0
 22
0.0
 32
0.0
 13
1.0
 23
0.0
 33
0.0
 40
0.0
 40
0.0
 40
0.0
 40
0.0
 40
0.0042774229446187
 40
0.0042774229446187
 40
0.0042774229446187
 40
0.0042774229446187
 10
449.7749778460618
 20
369.7061045864303
 30
0.0
 10
450.2836631338477
 20
368.7071628655857
 30
0.0
 10
450.7917695664729
 20
367.7070414620819
 30
0.0
 10
451.2994734222206
 20
366.7061045863903
 30
0.0
  0
LINE
  5
19E
330
1F
100
AcDbEntity
  8
0
  6
Continuous
 62
     7
370
    15
100
AcDbLine
 10
451.2994743493
 20
366.7060989836
 30
0.0
 11
443.5052450355
 21
366.7060989836
 31
0.0
  0
LINE
  5
19F
330
1F
100
AcDbEntity
  8
0
  6
Continuous
 62
     7
370
    15
100
AcDbLine
 10
451.2994743493
 20
337.3673666218
 30
0.0
 11
451.2994743493
 21
357.7061105469
 31
0.0
  0
LINE
  5
1A0
330
1F
100
AcDbEntity
  8
0
  6
Continuous
 62
     7
370
    15
100
AcDbLine
 10
451.2994743493
 20
357.7061105469
 30
0.0
 11
443.5052450355
 21
357.7061105469
 31
0.0
  0
LINE
  5
1A1
330
1F
100
AcDbEntity
  8
0
  6
Continuous
 62
     7
370
    15
100
AcDbLine
 10
451.2994743493
 20
363.7061078051
 30
0.0
 11
451.2994743493
 21
366.7060989836
 31
0.0
  0
LINE
  5
1A2
330
1F
100
AcDbEntity
  8
0
  6
Continuous
 62
     7
370
    15
100
AcDbLine
 10
443.5052450355
 20
363.7061078051
 30
0.0
 11
451.2994743493
 21
363.7061078051
 31
0.0
  0
SPLINE
  5
1A3
330
1F
100
AcDbEntity
  8
0
  6
Continuous
 62
     7
370
    15
100
AcDbSpline
210
0.0
220
0.0
230
1.0
 70
     8
 71
     3
 72
    23
 73
    19
 74
     0
 42
0.00000001
 43
0.00000001
 12
1.0
 22
0.0
 32
0.0
 13
1.0
 23
0.0
 33
0.0
 40
0.0
 40
0.0
 40
0.0
 40
0.0
 40
0.0585089994641437
 40
0.1299045184974862
 40
0.202005787913181
 40
0.2636900141224368
 40
0.3253715422146453
 40
0.3888751569033747
 40
0.4523755940519683
 40
0.5140471225407872
 40
0.5757202710847237
 40
0.6391309395477774
 40
0.7025399903636914
 40
0.7651538930363077
 40
0.8277676291797784
 40
0.8921556912877082
 40
0.9565438794111858
 40
1.0
 40
1.0
 40
1.0
 40
1.0
 10
413.6755454894471
 20
341.1822128990372
 30
0.0
 10
413.6595710925163
 20
341.1043473064944
 30
0.0
 10
413.6241039616376
 20
340.9314663411826
 30
0.0
 10
413.5391609456988
 20
340.6699885295765
 30
0.0
 10
413.4288642687028
 20
340.4137385111205
 30
0.0
 10
413.3014550205924
 20
340.1805279222764
 30
0.0
 10
413.1615282941543
 20
339.9685135205818
 30
0.0
 10
413.0025068085678
 20
339.7672288342229
 30
0.0
 10
412.8269397553176
 20
339.5802280783336
 30
0.0
 10
412.6381282796987
 20
339.410341748188
 30
0.0
 10
412.436166183044
 20
339.2565257275159
 30
0.0
 10
412.220085316058
 20
339.1187955529896
 30
0.0
 10
411.9921446916629
 20
338.9989562929168
 30
0.0
 10
411.7560287457272
 20
338.8989712064616
 30
0.0
 10
411.5112734257131
 20
338.8180302515401
 30
0.0
 10
411.2582241580265
 20
338.757930398946
 30
0.0
 10
411.0268614720802
 20
338.7208138507369
 30
0.0
 10
410.8806095285835
 20
338.712430404233
 30
0.0
 10
410.8216769602465
 20
338.7090522745331
 30
0.0
  0
LINE
  5
1A4
330
1F
100
AcDbEntity
  8
0
  6
Continuous
 62
     7
370
    15
100
AcDbLine
 10
449.647646172
 20
363.7061078051
 30
0.0
 11
449.647646172
 21
357.7061105469
 31
0.0
  0
SPLINE
  5
1A5
330
1F
100
AcDbEntity
  8
0
  6
Continuous
 62
     7
370
    15
100
AcDbSpline
210
0.0
220
0.0
230
1.0
 70
     8
 71
     3
 72
     8
 73
     4
 74
     0
 42
0.00000001
 43
0.00000001
 12
1.0
 22
0.0
 32
0.0
 13
1.0
 23
0.0
 33
0.0
 40
0.0
 40
0.0
 40
0.0
 40
0.0
 40
1.0
 40
1.0
 40
1.0
 40
1.0
 10
413.6755445597684
 20
341.1822094507255
 30
0.0
 10
415.3922281641605
 20
350.6924956428412
 30
0.0
 10
417.1173587823171
 20
360.2012532384162
 30
0.0
 10
418.863817128826
 20
369.7061045864303
 30
0.0
  0
LINE
  5
1A6
330
1F
100
AcDbEntity
  8
0
  6
Continuous
 62
     7
370
    15
100
AcDbLine
 10
437.997931622
 20
369.7061050633
 30
0.0
 11
418.8638168928
 21
369.7061050633
 31
0.0
  0
LINE
  5
1A7
330
1F
100
AcDbEntity
  8
0
  6
Continuous
 62
     7
370
    15
100
AcDbLine
 10
450.2179704216
 20
369.7061050633
 30
0.0
 11
449.7760392335
 21
369.7061050633
 31
0.0
  0
LINE
  5
1A8
330
1F
100
AcDbEntity
  8
0
  6
Continuous
 62
     7
370
    15
100
AcDbLine
 10
472.2179684397
 20
270.7626480559
 30
0.0
 11
470.7179691252
 21
270.7626480559
 31
0.0
  0
LINE
  5
1A9
330
1F
100
AcDbEntity
  8
0
  6
Continuous
 62
     7
370
    15
100
AcDbLine
 10
472.2179684397
 20
270.887087653
 30
0.0
 11
472.2179684397
 21
270.7626480559
 31
0.0
  0
LINE
  5
1AA
330
1F
100
AcDbEntity
  8
0
  6
Continuous
 62
     7
370
    15
100
AcDbLine
 10
472.2179684397
 20
274.8782072166
 30
0.0
 11
472.2179684397
 21
270.887087653
 31
0.0
  0
LWPOLYLINE
  5
1AB
330
1F
100
AcDbEntity
  8
0
  6
Continuous
 62
     7
370
    15
100
AcDbPolyline
 90
       10
 70
   128
 43
0.0
 10
440.5819305759
 20
405.8055985668
 10
440.7469795626
 20
402.0253527859
 10
440.907518154
 20
398.3484167555
 10
441.0634355229
 20
394.7773087719
 10
441.214624567
 20
391.314517329
 10
441.3609805126
 20
387.9624117115
 10
441.5024023112
 20
384.7233314017
 10
441.638792174
 20
381.5994817713
 10
441.7700555716
 20
378.5930532911
 10
441.8961026315
 20
375.7061023215
  0
LWPOLYLINE
  5
1AC
330
1F
100
AcDbEntity
  8
0
  6
Continuous
 62
     7
370
    15
100
AcDbPolyline
 90
       17
 70
   128
 43
0.0
 10
443.2179692742
 20
374.4948316315
 10
443.2126747053
 20
374.49968941
 10
443.1967975181
 20
374.5142329434
 10
443.1703554076
 20
374.5384622315
 10
443.1333800387
 20
374.572347472
 10
443.0859151837
 20
374.6158439615
 10
443.0280167219
 20
374.6688920954
 10
442.9597517085
 20
374.7314471701
 10
442.8812020999
 20
374.8034197787
 10
442.7924591657
 20
374.8847503164
 10
442.6936281454
 20
374.975304673
 10
442.5848235917
 20
375.0750083426
 10
442.4661758896
 20
375.1837272146
 10
442.337822875
 20
375.3013420799
 10
442.1999163535
 20
375.4277039269
 10
442.0526183751
 20
375.562678645
 10
441.8961026315
 20
375.7061023215
  0
LWPOLYLINE
  5
1AD
330
1F
100
AcDbEntity
  8
0
  6
Continuous
 62
     7
370
    15
100
AcDbPolyline
 90
       17
 70
   128
 43
0.0
 10
426.5398366917
 20
375.7061023215
 10
426.3833209481
 20
375.562678645
 10
426.2360229697
 20
375.4277039269
 10
426.0981164482
 20
375.3013420799
 10
425.9697634336
 20
375.1837272146
 10
425.8511157316
 20
375.0750083426
 10
425.7423111778
 20
374.975304673
 10
425.6434801575
 20
374.8847503164
 10
425.5547372233
 20
374.8034197787
 10
425.4761876148
 20
374.7314471701
 10
425.4079226014
 20
374.6688920954
 10
425.3500241395
 20
374.6158439615
 10
425.3025592845
 20
374.572347472
 10
425.2655839157
 20
374.5384622315
 10
425.2391418051
 20
374.5142329434
 10
425.2232646179
 20
374.49968941
 10
425.217970049
 20
374.4948316315
  0
LWPOLYLINE
  5
1AE
330
1F
100
AcDbEntity
  8
0
  6
Continuous
 62
     7
370
    15
100
AcDbPolyline
 90
       10
 70
   128
 43
0.0
 10
426.5398366917
 20
375.7061023215
 10
426.6658837516
 20
378.5930532911
 10
426.7971471493
 20
381.5994817713
 10
426.933537012
 20
384.7233314017
 10
427.0749588106
 20
387.9624117115
 10
427.2213147562
 20
391.314517329
 10
427.3725038003
 20
394.7773087719
 10
427.5284211692
 20
398.3484167555
 10
427.6889597606
 20
402.0253527859
 10
427.8540087473
 20
405.8055985668
  0
ELLIPSE
  5
1AF
330
1F
100
AcDbEntity
  8
0
  6
Continuous
 62
     7
370
    15
100
AcDbEllipse
 10
434.2179696616
 20
551.5642627093
 30
0.0
 11
0.0
 21
206.1338899358802
 31
0.0
210
0.0
220
0.0
230
1.0
 40
0.0436609429
 41
2.356194490192345
 42
2.592744264804702
  0
ELLIPSE
  5
1B0
330
1F
100
AcDbEntity
  8
0
  6
Continuous
 62
     7
370
    15
100
AcDbEllipse
 10
434.2179696616
 20
382.7418172142
 30
0.0
 11
9.0
 21
5.684341886080801E-14
 31
0.0
210
0.0
220
0.0
230
1.0
 40
0.916331174
 41
4.163540591599608
 42
5.261237369169786
  0
ELLIPSE
  5
1B1
330
1F
100
AcDbEntity
  8
0
  6
Continuous
 62
     7
370
    15
100
AcDbEllipse
 10
434.2179696616
 20
551.5642627093
 30
0.0
 11
0.0
 21
206.1338899358802
 31
0.0
210
0.0
220
0.0
230
1.0
 40
0.0436609429
 41
3.690441042375117
 42
3.926990816987401
  0
LINE
  5
1B2
330
1F
100
AcDbEntity
  8
0
  6
Continuous
 62
     7
370
    15
100
AcDbLine
 10
429.5226235483
 20
375.7061023215
 30
0.0
 11
438.9133157749
 21
375.7061023215
 31
0.0
  0
LINE
  5
1B3
330
1F
100
AcDbEntity
  8
0
  6
Continuous
 62
     7
370
    15
100
AcDbLine
 10
472.2179684397
 20
276.5126485327
 30
0.0
 11
472.2179684397
 21
275.0926423767
 31
0.0
  0
LINE
  5
1B4
330
1F
100
AcDbEntity
  8
0
  6
Continuous
 62
     7
370
    15
100
AcDbLine
 10
472.2179684397
 20
275.0026468137
 30
0.0
 11
470.7179691252
 21
275.0026468137
 31
0.0
  0
LINE
  5
1B5
330
1F
100
AcDbEntity
  8
0
  6
Continuous
 62
     7
370
    15
100
AcDbLine
 10
472.2179684397
 20
275.0926423767
 30
0.0
 11
472.2179684397
 21
275.0026468137
 31
0.0
  0
LINE
  5
1B6
330
1F
100
AcDbEntity
  8
0
  6
Continuous
 62
     7
370
    15
100
AcDbLine
 10
472.2179684397
 20
279.4026467899
 30
0.0
 11
470.7179691252
 21
279.4026467899
 31
0.0
  0
LINE
  5
1B7
330
1F
100
AcDbEntity
  8
0
  6
Continuous
 62
     7
370
    15
100
AcDbLine
 10
472.2179684397
 20
279.4026467899
 30
0.0
 11
472.2179684397
 21
279.3126437762
 31
0.0
  0
LINE
  5
1B8
330
1F
100
AcDbEntity
  8
0
  6
Continuous
 62
     7
370
    15
100
AcDbLine
 10
472.2179684397
 20
279.3126437762
 30
0.0
 11
472.2179684397
 21
277.8926450709
 31
0.0
  0
LINE
  5
1B9
330
1F
100
AcDbEntity
  8
0
  6
Continuous
 62
     7
370
    15
100
AcDbLine
 10
472.2179684397
 20
276.6026440957
 30
0.0
 11
470.7179691252
 21
276.6026440957
 31
0.0
  0
LINE
  5
1BA
330
1F
100
AcDbEntity
  8
0
  6
Continuous
 62
     7
370
    15
100
AcDbLine
 10
472.2179684397
 20
276.6026440957
 30
0.0
 11
472.2179684397
 21
276.5126485327
 31
0.0
  0
LINE
  5
1BB
330
1F
100
AcDbEntity
  8
0
  6
Continuous
 62
     7
370
    15
100
AcDbLine
 10
472.2179684397
 20
277.8026495078
 30
0.0
 11
470.7179691252
 21
277.8026495078
 31
0.0
  0
LINE
  5
1BC
330
1F
100
AcDbEntity
  8
0
  6
Continuous
 62
     7
370
    15
100
AcDbLine
 10
472.2179684397
 20
277.8926450709
 30
0.0
 11
472.2179684397
 21
277.8026495078
 31
0.0
  0
LINE
  5
1BD
330
1F
100
AcDbEntity
  8
0
  6
Continuous
 62
     7
370
    15
100
AcDbLine
 10
427.8540087473
 20
405.8055985668
 30
0.0
 11
428.0679698643
 21
410.7060987452
 31
0.0
  0
LINE
  5
1BE
330
1F
100
AcDbEntity
  8
0
  6
Continuous
 62
     7
370
    15
100
AcDbLine
 10
428.0679698643
 20
410.7060987452
 30
0.0
 11
440.367969459
 21
410.7060987452
 31
0.0
  0
LINE
  5
1BF
330
1F
100
AcDbEntity
  8
0
  6
Continuous
 62
     7
370
    15
100
AcDbLine
 10
440.5819305759
 20
405.8055985668
 30
0.0
 11
440.367969459
 21
410.7060987452
 31
0.0
  0
LINE
  5
1C0
330
1F
100
AcDbEntity
  8
0
  6
Continuous
 62
     7
370
    15
100
AcDbLine
 10
472.2179684397
 20
274.8782072166
 30
0.0
 11
472.2179684397
 21
275.0026468137
 31
0.0
  0
SPLINE
  5
1C1
330
1F
100
AcDbEntity
  8
0
  6
Continuous
 62
     7
370
    15
100
AcDbSpline
210
0.0
220
0.0
230
1.0
 70
     8
 71
     3
 72
     8
 73
     4
 74
     0
 42
0.00000001
 43
0.00000001
 12
1.0
 22
0.0
 32
0.0
 13
1.0
 23
0.0
 33
0.0
 40
0.0
 40
0.0
 40
0.0
 40
0.0
 40
0.0042774229445205
 40
0.0042774229445205
 40
0.0042774229445205
 40
0.0042774229445205
 10
410.8981819266845
 20
369.7061045864303
 30
0.0
 10
409.8808113511401
 20
368.7071628656046
 30
0.0
 10
408.8645984859169
 20
367.7070414621197
 30
0.0
 10
407.8491907744488
 20
366.7061045864472
 30
0.0
  0
LINE
  5
1C2
330
1F
100
AcDbEntity
  8
0
  6
Continuous
 62
     7
370
    15
100
AcDbLine
 10
407.8491914627
 20
366.7060989836
 30
0.0
 11
407.4679694679
 21
366.7060989836
 31
0.0
  0
LINE
  5
1C3
330
1F
100
AcDbEntity
  8
0
  6
Continuous
 62
     7
370
    15
100
AcDbLine
 10
410.4679699596
 20
369.7061050633
 30
0.0
 11
410.8981813845
 21
369.7061050633
 31
0.0
  0
LINE
  5
1C4
330
1F
100
AcDbEntity
  8
0
  6
Continuous
 62
     7
370
    15
100
AcDbLine
 10
407.8491914627
 20
337.3673666218
 30
0.0
 11
407.8491914627
 21
357.7061105469
 31
0.0
  0
LINE
  5
1C5
330
1F
100
AcDbEntity
  8
0
  6
Continuous
 62
     7
370
    15
100
AcDbLine
 10
411.1528440919
 20
357.7061105469
 30
0.0
 11
407.8491914627
 21
357.7061105469
 31
0.0
  0
LINE
  5
1C6
330
1F
100
AcDbEntity
  8
0
  6
Continuous
 62
     7
370
    15
100
AcDbLine
 10
411.1528440919
 20
363.7061078051
 30
0.0
 11
411.1528440919
 21
357.7061105469
 31
0.0
  0
LINE
  5
1C7
330
1F
100
AcDbEntity
  8
0
  6
Continuous
 62
     7
370
    15
100
AcDbLine
 10
407.8491914627
 20
363.7061078051
 30
0.0
 11
411.1528440919
 21
363.7061078051
 31
0.0
  0
LINE
  5
1C8
330
1F
100
AcDbEntity
  8
0
  6
Continuous
 62
     7
370
    15
100
AcDbLine
 10
407.8491914627
 20
363.7061078051
 30
0.0
 11
407.8491914627
 21
366.7060989836
 31
0.0
  0
LINE
  5
1C9
330
1F
100
AcDbEntity
  8
0
  6
Continuous
 62
     7
370
    15
100
AcDbLine
 10
410.8981813845
 20
369.7061050633
 30
0.0
 11
418.8638168928
 21
369.7061050633
 31
0.0
  0
LINE
  5
1CA
330
1F
100
AcDbEntity
  8
0
  6
Continuous
 62
     7
370
    15
100
AcDbLine
 10
407.4679694679
 20
363.7061078051
 30
0.0
 11
407.8491914627
 21
363.7061078051
 31
0.0
  0
LINE
  5
1CB
330
1F
100
AcDbEntity
  8
0
  6
Continuous
 62
     7
370
    15
100
AcDbLine
 10
407.8491914627
 20
357.7061105469
 30
0.0
 11
407.4679694679
 21
357.7061105469
 31
0.0
  0
LINE
  5
1CC
330
1F
100
AcDbEntity
  8
0
  6
Continuous
 62
     7
370
    15
100
AcDbLine
 10
472.2179684397
 20
277.7470905283
 30
0.0
 11
472.2179684397
 21
277.8026495078
 31
0.0
  0
LINE
  5
1CD
330
1F
100
AcDbEntity
  8
0
  6
Continuous
 62
     7
370
    15
100
AcDbLine
 10
472.2179684397
 20
277.7470905283
 30
0.0
 11
472.2179684397
 21
276.6026440957
 31
0.0
  0
LINE
  5
1CE
330
1F
100
AcDbEntity
  8
0
  6
Continuous
 62
     7
370
    15
100
AcDbLine
 10
400.2179678139
 20
201.2061044523
 30
0.0
 11
400.2179678139
 21
206.595831988
 31
0.0
  0
LINE
  5
1CF
330
1F
100
AcDbEntity
  8
0
  6
Continuous
 62
     7
370
    15
100
AcDbLine
 10
400.2179678139
 20
208.8163771849
 30
0.0
 11
400.2179678139
 21
214.2061047205
 31
0.0
  0
LINE
  5
1D0
330
1F
100
AcDbEntity
  8
0
  6
Continuous
 62
     8
370
     0
100
AcDbLine
 10
461.467969006
 20
335.709061096
 30
0.0
 11
406.9679703173
 21
335.709061096
 31
0.0
  0
LINE
  5
1D1
330
1F
100
AcDbEntity
  8
0
  6
Continuous
 62
     8
370
     0
100
AcDbLine
 10
440.5920680221
 20
341.182212899
 30
0.0
 11
413.6755454894
 21
341.182212899
 31
0.0
  0
LINE
  5
1D2
330
1F
100
AcDbEntity
  8
0
  6
Continuous
 62
     8
370
     0
100
AcDbLine
 10
455.2475016173
 20
341.182212899
 30
0.0
 11
451.2994743493
 21
341.182212899
 31
0.0
  0
LINE
  5
1D3
330
1F
100
AcDbEntity
  8
0
  6
Continuous
 62
     8
370
     0
100
AcDbLine
 10
472.2179684397
 20
270.887087653
 30
0.0
 11
470.7179691252
 21
270.887087653
 31
0.0
  0
LINE
  5
1D4
330
1F
100
AcDbEntity
  8
0
  6
Continuous
 62
     8
370
     0
100
AcDbLine
 10
472.2179684397
 20
274.8782072166
 30
0.0
 11
470.7179691252
 21
274.8782072166
 31
0.0
  0
LINE
  5
1D5
330
1F
100
AcDbEntity
  8
0
  6
Continuous
 62
     8
370
     0
100
AcDbLine
 10
472.2179684397
 20
275.0926423767
 30
0.0
 11
470.7179691252
 21
275.0926423767
 31
0.0
  0
LINE
  5
1D6
330
1F
100
AcDbEntity
  8
0
  6
Continuous
 62
     8
370
     0
100
AcDbLine
 10
472.2179684397
 20
276.5126485327
 30
0.0
 11
470.7179691252
 21
276.5126485327
 31
0.0
  0
LINE
  5
1D7
330
1F
100
AcDbEntity
  8
0
  6
Continuous
 62
     8
370
     0
100
AcDbLine
 10
472.2179684397
 20
279.3126437762
 30
0.0
 11
470.7179691252
 21
279.3126437762
 31
0.0
  0
LINE
  5
1D8
330
1F
100
AcDbEntity
  8
0
  6
Continuous
 62
     8
370
     0
100
AcDbLine
 10
472.2179684397
 20
277.8926450709
 30
0.0
 11
470.7179691252
 21
277.8926450709
 31
0.0
  0
LINE
  5
1D9
330
1F
100
AcDbEntity
  8
0
  6
Continuous
 62
     8
370
     0
100
AcDbLine
 10
472.2179684397
 20
277.7470905283
 30
0.0
 11
470.7179691252
 21
277.7470905283
 31
0.0
  0
LINE
  5
1DA
330
1F
100
AcDbEntity
  8
0
  6
Continuous
 62
     8
370
     0
100
AcDbLine
 10
402.717969155
 20
216.706104199
 30
0.0
 11
402.717969155
 21
213.1465041028
 31
0.0
  0
LINE
  5
1DB
330
1F
100
AcDbEntity
  8
0
  6
Continuous
 62
     8
370
     0
100
AcDbLine
 10
402.717969155
 20
202.2657050701
 30
0.0
 11
402.717969155
 21
198.7061049739
 31
0.0
  0
INSERT
  5
1E7
330
1F
100
AcDbEntity
  8
FORMAT
100
AcDbBlockReference
  2
SW_CENTERMARKSYMBOL_0
 10
434.2179696616
 20
207.7061045864
 30
0.0
  0
LINE
  5
1E8
330
1F
100
AcDbEntity
  8
0
  6
Continuous
 62
     7
370
    15
100
AcDbLine
 10
242.2739794137
 20
97.5032618732
 30
0.0
 11
233.0167187037
 21
97.5032618732
 31
0.0
  0
LINE
  5
1E9
330
1F
100
AcDbEntity
  8
0
  6
Continuous
 62
     7
370
    15
100
AcDbLine
 10
155.5312392893
 20
97.5032618732
 30
0.0
 11
146.2739785793
 21
97.5032618732
 31
0.0
  0
LINE
  5
1EA
330
1F
100
AcDbEntity
  8
0
  6
Continuous
 62
     7
370
    15
100
AcDbLine
 10
233.0167187037
 20
37.5032632143
 30
0.0
 11
242.2739794137
 21
37.5032632143
 31
0.0
  0
LINE
  5
1EB
330
1F
100
AcDbEntity
  8
0
  6
Continuous
 62
     7
370
    15
100
AcDbLine
 10
146.2739785793
 20
37.5032632143
 30
0.0
 11
155.5312392893
 21
37.5032632143
 31
0.0
  0
LINE
  5
1EC
330
1F
100
AcDbEntity
  8
0
  6
Continuous
 62
     7
370
    15
100
AcDbLine
 10
246.9149944963
 20
102.1442788184
 30
0.0
 11
242.2739794137
 21
97.5032618732
 31
0.0
  0
LINE
  5
1ED
330
1F
100
AcDbEntity
  8
0
  6
Continuous
 62
     7
370
    15
100
AcDbLine
 10
146.2739785793
 20
97.5032618732
 30
0.0
 11
141.6329634967
 21
102.1442788184
 31
0.0
  0
LINE
  5
1EE
330
1F
100
AcDbEntity
  8
0
  6
Continuous
 62
     7
370
    15
100
AcDbLine
 10
141.6329634967
 20
32.8622462691
 30
0.0
 11
146.2739785793
 21
37.5032632143
 31
0.0
  0
LINE
  5
1EF
330
1F
100
AcDbEntity
  8
0
  6
Continuous
 62
     7
370
    15
100
AcDbLine
 10
242.2739794137
 20
37.5032632143
 30
0.0
 11
246.9149944963
 21
32.8622462691
 31
0.0
  0
LINE
  5
1F0
330
1F
100
AcDbEntity
  8
0
  6
Continuous
 62
     7
370
    15
100
AcDbLine
 10
188.1239791992
 20
73.6532623411
 30
0.0
 11
188.1239791992
 21
61.3532627464
 31
0.0
  0
LINE
  5
1F1
330
1F
100
AcDbEntity
  8
0
  6
Continuous
 62
     7
370
    15
100
AcDbLine
 10
200.4239787938
 20
73.6532623411
 30
0.0
 11
188.1239791992
 21
73.6532623411
 31
0.0
  0
LINE
  5
1F2
330
1F
100
AcDbEntity
  8
0
  6
Continuous
 62
     7
370
    15
100
AcDbLine
 10
200.4239787938
 20
61.3532627464
 30
0.0
 11
200.4239787938
 21
73.6532623411
 31
0.0
  0
LINE
  5
1F3
330
1F
100
AcDbEntity
  8
0
  6
Continuous
 62
     7
370
    15
100
AcDbLine
 10
188.1239791992
 20
61.3532627464
 30
0.0
 11
200.4239787938
 21
61.3532627464
 31
0.0
  0
LINE
  5
1F4
330
1F
100
AcDbEntity
  8
0
  6
Continuous
 62
     7
370
    15
100
AcDbLine
 10
186.5958460266
 20
72.1986086571
 30
0.0
 11
186.5958460266
 21
62.8079164305
 31
0.0
  0
ARC
  5
1F5
330
1F
100
AcDbEntity
  8
0
  6
Continuous
 62
     7
370
    15
100
AcDbCircle
 10
194.2739789965
 20
67.5032625438
 30
0.0
 40
9.000000000000012
100
AcDbArc
 50
135.0
 51
148.5533037301
  0
LINE
  5
1F6
330
1F
100
AcDbEntity
  8
0
  6
Continuous
 62
     7
370
    15
100
AcDbLine
 10
187.9100180822
 20
73.8672234581
 30
0.0
 11
188.1239791992
 21
73.6532623411
 31
0.0
  0
LINE
  5
1F7
330
1F
100
AcDbEntity
  8
0
  6
Continuous
 62
     7
370
    15
100
AcDbLine
 10
187.9100180822
 20
61.1393016294
 30
0.0
 11
188.1239791992
 21
61.3532627464
 31
0.0
  0
ARC
  5
1F8
330
1F
100
AcDbEntity
  8
0
  6
Continuous
 62
     7
370
    15
100
AcDbCircle
 10
194.2739789965
 20
67.5032625438
 30
0.0
 40
9.000000000000018
100
AcDbArc
 50
211.4466962699
 51
225.0
  0
LINE
  5
1F9
330
1F
100
AcDbEntity
  8
0
  6
Continuous
 62
     7
370
    15
100
AcDbLine
 10
198.9693251098
 20
75.1813955136
 30
0.0
 11
189.5786328832
 21
75.1813955136
 31
0.0
  0
ARC
  5
1FA
330
1F
100
AcDbEntity
  8
0
  6
Continuous
 62
     7
370
    15
100
AcDbCircle
 10
194.2739789965
 20
67.5032625438
 30
0.0
 40
9.000000000000005
100
AcDbArc
 50
45.0
 51
58.5533037301
  0
LINE
  5
1FB
330
1F
100
AcDbEntity
  8
0
  6
Continuous
 62
     7
370
    15
100
AcDbLine
 10
200.6379399108
 20
73.8672234581
 30
0.0
 11
200.4239787938
 21
73.6532623411
 31
0.0
  0
ARC
  5
1FC
330
1F
100
AcDbEntity
  8
0
  6
Continuous
 62
     7
370
    15
100
AcDbCircle
 10
194.2739789965
 20
67.5032625438
 30
0.0
 40
9.000000000000012
100
AcDbArc
 50
121.4466962699
 51
135.0
  0
LINE
  5
1FD
330
1F
100
AcDbEntity
  8
0
  6
Continuous
 62
     7
370
    15
100
AcDbLine
 10
201.9521119664
 20
62.8079164305
 30
0.0
 11
201.9521119664
 21
72.1986086571
 31
0.0
  0
ARC
  5
1FE
330
1F
100
AcDbEntity
  8
0
  6
Continuous
 62
     7
370
    15
100
AcDbCircle
 10
194.2739789965
 20
67.5032625438
 30
0.0
 40
8.999999999999993
100
AcDbArc
 50
315.0
 51
328.5533037301
  0
LINE
  5
1FF
330
1F
100
AcDbEntity
  8
0
  6
Continuous
 62
     7
370
    15
100
AcDbLine
 10
200.6379399108
 20
61.1393016294
 30
0.0
 11
200.4239787938
 21
61.3532627464
 31
0.0
  0
ARC
  5
200
330
1F
100
AcDbEntity
  8
0
  6
Continuous
 62
     7
370
    15
100
AcDbCircle
 10
194.2739789965
 20
67.5032625438
 30
0.0
 40
8.999999999999993
100
AcDbArc
 50
31.4466962699
 51
45.0
  0
LINE
  5
201
330
1F
100
AcDbEntity
  8
0
  6
Continuous
 62
     7
370
    15
100
AcDbLine
 10
189.5786328832
 20
59.8251295739
 30
0.0
 11
198.9693251098
 21
59.8251295739
 31
0.0
  0
ARC
  5
202
330
1F
100
AcDbEntity
  8
0
  6
Continuous
 62
     7
370
    15
100
AcDbCircle
 10
194.2739789965
 20
67.5032625438
 30
0.0
 40
9.000000000000018
100
AcDbArc
 50
225.0
 51
238.5533037301
  0
ARC
  5
203
330
1F
100
AcDbEntity
  8
0
  6
Continuous
 62
     7
370
    15
100
AcDbCircle
 10
194.2739789965
 20
67.5032625438
 30
0.0
 40
9.0
100
AcDbArc
 50
301.4466962699
 51
315.0
  0
ARC
  5
204
330
1F
100
AcDbEntity
  8
0
  6
Continuous
 62
     7
370
    15
100
AcDbCircle
 10
194.2739789965
 20
67.5032625438
 30
0.0
 40
9.000000000000007
100
AcDbArc
 50
58.5533037301
 51
121.4466962699
  0
ARC
  5
205
330
1F
100
AcDbEntity
  8
0
  6
Continuous
 62
     7
370
    15
100
AcDbCircle
 10
194.2739789965
 20
67.5032625438
 30
0.0
 40
9.000000000000005
100
AcDbArc
 50
148.5533037301
 51
211.4466962699
  0
ARC
  5
206
330
1F
100
AcDbEntity
  8
0
  6
Continuous
 62
     7
370
    15
100
AcDbCircle
 10
194.2739789965
 20
67.5032625438
 30
0.0
 40
8.99999999999998
100
AcDbArc
 50
328.5533037301
 51
31.4466962699
  0
ARC
  5
207
330
1F
100
AcDbEntity
  8
0
  6
Continuous
 62
     7
370
    15
100
AcDbCircle
 10
194.2739789965
 20
67.5032625438
 30
0.0
 40
9.000000000000014
100
AcDbArc
 50
238.5533037301
 51
301.4466962699
  0
ARC
  5
208
330
1F
100
AcDbEntity
  8
0
  6
Continuous
 62
     7
370
    15
100
AcDbCircle
 10
194.2739789965
 20
67.5032625438
 30
0.0
 40
16.0
100
AcDbArc
 50
346.3348227807
 51
73.6651772193
  0
LINE
  5
209
330
1F
100
AcDbEntity
  8
0
  6
Continuous
 62
     7
370
    15
100
AcDbLine
 10
216.7195068332
 20
59.740483062
 30
0.0
 11
209.8210654812
 21
63.7233005834
 31
0.0
  0
ARC
  5
20A
330
1F
100
AcDbEntity
  8
0
  6
Continuous
 62
     7
370
    15
100
AcDbCircle
 10
194.2739789965
 20
67.5032625438
 30
0.0
 40
23.7499999999613
100
AcDbArc
 50
319.0779293878
 51
340.9220706122
  0
LINE
  5
20B
330
1F
100
AcDbEntity
  8
0
  6
Continuous
 62
     7
370
    15
100
AcDbLine
 10
205.3210647436
 20
55.9290715025
 30
0.0
 11
212.2195070269
 21
51.9462546796
 31
0.0
  0
ARC
  5
20C
330
1F
100
AcDbEntity
  8
0
  6
Continuous
 62
     7
370
    15
100
AcDbCircle
 10
194.2739789965
 20
67.5032625438
 30
0.0
 40
16.0
100
AcDbArc
 50
226.3348227807
 51
313.6651772193
  0
LINE
  5
20D
330
1F
100
AcDbEntity
  8
0
  6
Continuous
 62
     7
370
    15
100
AcDbLine
 10
176.3284509661
 20
51.9462546796
 30
0.0
 11
183.2268932494
 21
55.9290715025
 31
0.0
  0
ARC
  5
20E
330
1F
100
AcDbEntity
  8
0
  6
Continuous
 62
     7
370
    15
100
AcDbCircle
 10
194.2739789965
 20
67.5032625438
 30
0.0
 40
23.74999999996139
100
AcDbArc
 50
199.0779293878
 51
220.9220706122
  0
LINE
  5
20F
330
1F
100
AcDbEntity
  8
0
  6
Continuous
 62
     7
370
    15
100
AcDbLine
 10
178.7268925118
 20
63.7233005834
 30
0.0
 11
171.8284511598
 21
59.740483062
 31
0.0
  0
ARC
  5
210
330
1F
100
AcDbEntity
  8
0
  6
Continuous
 62
     7
370
    15
100
AcDbCircle
 10
194.2739789965
 20
67.5032625438
 30
0.0
 40
16.00000000000002
100
AcDbArc
 50
106.3348227807
 51
193.6651772193
  0
LINE
  5
211
330
1F
100
AcDbEntity
  8
0
  6
Continuous
 62
     7
370
    15
100
AcDbLine
 10
189.7739791902
 20
90.8230508209
 30
0.0
 11
189.7739791902
 21
82.8574153126
 31
0.0
  0
ARC
  5
212
330
1F
100
AcDbEntity
  8
0
  6
Continuous
 62
     7
370
    15
100
AcDbCircle
 10
194.2739789965
 20
67.5032625438
 30
0.0
 40
23.75000000004172
100
AcDbArc
 50
79.0779293878
 51
100.9220706122
  0
LINE
  5
213
330
1F
100
AcDbEntity
  8
0
  6
Continuous
 62
     7
370
    15
100
AcDbLine
 10
198.7739788028
 20
82.8574153126
 30
0.0
 11
198.7739788028
 21
90.8230508209
 31
0.0
  0
ARC
  5
214
330
1F
100
AcDbEntity
  8
0
  6
Continuous
 62
     7
370
    15
100
AcDbCircle
 10
194.2739789965
 20
67.5032625438
 30
0.0
 40
26.75000000000001
100
AcDbArc
 50
80.3154079248
 51
99.6845920752
  0
SPLINE
  5
215
330
1F
100
AcDbEntity
  8
0
  6
Continuous
 62
     7
370
    15
100
AcDbSpline
210
0.0
220
0.0
230
1.0
 70
    24
 71
     3
 72
     8
 73
     4
 74
     0
 42
0.00000001
 43
0.00000001
 12
1.0
 22
0.0
 32
0.0
 13
1.0
 23
0.0
 33
0.0
 40
0.0
 40
0.0
 40
0.0
 40
0.0
 40
0.0042774229445205
 40
0.0042774229445205
 40
0.0042774229445205
 40
0.0042774229445205
 10
198.7739789964996
 20
93.8720414309187
 30
0.0
 10
198.7739789964996
 20
92.8566337194506
 30
0.0
 10
198.7739789964996
 20
91.84042085422745
 30
0.0
 10
198.7739789964996
 20
90.82305027868294
 30
0.0
  0
SPLINE
  5
216
330
1F
100
AcDbEntity
  8
0
  6
Continuous
 62
     7
370
    15
100
AcDbSpline
210
0.0
220
0.0
230
1.0
 70
    24
 71
     3
 72
     8
 73
     4
 74
     0
 42
0.00000001
 43
0.00000001
 12
1.0
 22
0.0
 32
0.0
 13
1.0
 23
0.0
 33
0.0
 40
0.0
 40
0.0
 40
0.0
 40
0.0
 40
0.0042774229445205
 40
0.0042774229445205
 40
0.0042774229445205
 40
0.0042774229445205
 10
189.7739789964995
 20
90.82305027868304
 30
0.0
 10
189.7739789964995
 20
91.84042085422753
 30
0.0
 10
189.7739789964996
 20
92.8566337194507
 30
0.0
 10
189.7739789964996
 20
93.87204143091877
 30
0.0
  0
ARC
  5
217
330
1F
100
AcDbEntity
  8
0
  6
Continuous
 62
     7
370
    15
100
AcDbCircle
 10
194.2739789965
 20
67.5032625438
 30
0.0
 40
26.74999999999998
100
AcDbArc
 50
320.3154079248
 51
339.6845920752
  0
SPLINE
  5
218
330
1F
100
AcDbEntity
  8
0
  6
Continuous
 62
     7
370
    15
100
AcDbSpline
210
0.0
220
0.0
230
1.0
 70
    24
 71
     3
 72
     8
 73
     4
 74
     0
 42
0.00000001
 43
0.00000001
 12
1.0
 22
0.0
 32
0.0
 13
1.0
 23
0.0
 33
0.0
 40
0.0
 40
0.0
 40
0.0
 40
0.0
 40
0.0042774229446188
 40
0.0042774229446188
 40
0.0042774229446188
 40
0.0042774229446188
 10
214.8600113795557
 20
50.42175878314691
 30
0.0
 10
213.9806425062021
 20
50.92946263889458
 30
0.0
 10
213.1005763492427
 20
51.4375690715198
 30
0.0
 10
212.2195075857346
 20
51.94625435930573
 30
0.0
  0
SPLINE
  5
219
330
1F
100
AcDbEntity
  8
0
  6
Continuous
 62
     7
370
    15
100
AcDbSpline
210
0.0
220
0.0
230
1.0
 70
    24
 71
     3
 72
     8
 73
     4
 74
     0
 42
0.00000001
 43
0.00000001
 12
1.0
 22
0.0
 32
0.0
 13
1.0
 23
0.0
 33
0.0
 40
0.0
 40
0.0
 40
0.0
 40
0.0
 40
0.0042774229446188
 40
0.0042774229446188
 40
0.0042774229446188
 40
0.0042774229446188
 10
216.7195075857346
 20
59.74048299336569
 30
0.0
 10
217.6005763492427
 20
59.23179770557975
 30
0.0
 10
218.4806425062021
 20
58.72369127295453
 30
0.0
 10
219.3600113795557
 20
58.21598741720685
 30
0.0
  0
ARC
  5
21A
330
1F
100
AcDbEntity
  8
0
  6
Continuous
 62
     7
370
    15
100
AcDbCircle
 10
194.2739789965
 20
67.5032625438
 30
0.0
 40
26.75000000000001
100
AcDbArc
 50
200.3154079248
 51
219.6845920752
  0
SPLINE
  5
21B
330
1F
100
AcDbEntity
  8
0
  6
Continuous
 62
     7
370
    15
100
AcDbSpline
210
0.0
220
0.0
230
1.0
 70
    24
 71
     3
 72
     8
 73
     4
 74
     0
 42
0.00000001
 43
0.00000001
 12
1.0
 22
0.0
 32
0.0
 13
1.0
 23
0.0
 33
0.0
 40
0.0
 40
0.0
 40
0.0
 40
0.0
 40
0.0042774229446187
 40
0.0042774229446187
 40
0.0042774229446187
 40
0.0042774229446187
 10
176.3284504072639
 20
51.94625435930578
 30
0.0
 10
175.4473816437558
 20
51.43756907151986
 30
0.0
 10
174.5673154867964
 20
50.92946263889466
 30
0.0
 10
173.6879466134428
 20
50.42175878314701
 30
0.0
  0
SPLINE
  5
21C
330
1F
100
AcDbEntity
  8
0
  6
Continuous
 62
     7
370
    15
100
AcDbSpline
210
0.0
220
0.0
230
1.0
 70
    24
 71
     3
 72
     8
 73
     4
 74
     0
 42
0.00000001
 43
0.00000001
 12
1.0
 22
0.0
 32
0.0
 13
1.0
 23
0.0
 33
0.0
 40
0.0
 40
0.0
 40
0.0
 40
0.0
 40
0.0042774229446187
 40
0.0042774229446187
 40
0.0042774229446187
 40
0.0042774229446187
 10
169.1879466134429
 20
58.21598741720698
 30
0.0
 10
170.0673154867964
 20
58.72369127295463
 30
0.0
 10
170.9473816437559
 20
59.23179770557984
 30
0.0
 10
171.8284504072639
 20
59.74048299336575
 30
0.0
  0
CIRCLE
  5
21D
330
1F
100
AcDbEntity
  8
0
  6
Continuous
 62
     7
370
    15
100
AcDbCircle
 10
194.2739789965
 20
67.5032625438
 30
0.0
 40
27.25
  0
LINE
  5
21E
330
1F
100
AcDbEntity
  8
0
  6
Continuous
 62
     7
370
    15
100
AcDbLine
 10
144.2739782514
 20
79.3224286751
 30
0.0
 11
169.7205720129
 21
79.3224286751
 31
0.0
  0
LINE
  5
21F
330
1F
100
AcDbEntity
  8
0
  6
Continuous
 62
     7
370
    15
100
AcDbLine
 10
144.2739782514
 20
80.00326273
 30
0.0
 11
146.8951856377
 21
80.00326273
 31
0.0
  0
LINE
  5
220
330
1F
100
AcDbEntity
  8
0
  6
Continuous
 62
     7
370
    15
100
AcDbLine
 10
146.8951856377
 20
80.00326273
 30
0.0
 11
147.0527989449
 21
79.7990125135
 31
0.0
  0
LINE
  5
221
330
1F
100
AcDbEntity
  8
0
  6
Continuous
 62
     7
370
    15
100
AcDbLine
 10
147.0527989449
 20
79.7990125135
 30
0.0
 11
155.8570196512
 21
79.7990125135
 31
0.0
  0
LINE
  5
222
330
1F
100
AcDbEntity
  8
0
  6
Continuous
 62
     7
370
    15
100
AcDbLine
 10
155.8570196512
 20
79.7990125135
 30
0.0
 11
156.1987479808
 21
79.6918182165
 31
0.0
  0
SPLINE
  5
223
330
1F
100
AcDbEntity
  8
0
  6
Continuous
 62
     7
370
    15
100
AcDbSpline
210
0.0
220
0.0
230
1.0
 70
     8
 71
     3
 72
    10
 73
     6
 74
     0
 42
0.00000001
 43
0.00000001
 12
1.0
 22
0.0
 32
0.0
 13
1.0
 23
0.0
 33
0.0
 40
0.0
 40
0.0
 40
0.0
 40
0.0
 40
0.5
 40
0.5
 40
1.0
 40
1.0
 40
1.0
 40
1.0
 10
156.1987481602579
 20
79.69181806790417
 30
0.0
 10
158.4551688365122
 20
79.65917813384502
 30
0.0
 10
160.7153051398421
 20
79.62672078385316
 30
0.0
 10
165.2485168196133
 20
79.56244190348957
 30
0.0
 10
167.5213860284726
 20
79.53061024214536
 30
0.0
 10
169.8065391415573
 20
79.4993822057479
 30
0.0
  0
ARC
  5
224
330
1F
100
AcDbEntity
  8
0
  6
Continuous
 62
     7
370
    15
100
AcDbCircle
 10
244.2739789965
 20
67.5032625438
 30
0.0
 40
11.81916603920114
100
AcDbArc
 50
270.0
 51
90.0
  0
ARC
  5
225
330
1F
100
AcDbEntity
  8
0
  6
Continuous
 62
     7
370
    15
100
AcDbCircle
 10
244.2739789965
 20
67.5032625438
 30
0.0
 40
12.5
100
AcDbArc
 50
270.0
 51
90.0
  0
ARC
  5
226
330
1F
100
AcDbEntity
  8
0
  6
Continuous
 62
     7
370
    15
100
AcDbCircle
 10
144.2739789965
 20
67.5032625438
 30
0.0
 40
11.81916603920114
100
AcDbArc
 50
90.0
 51
270.0
  0
ARC
  5
227
330
1F
100
AcDbEntity
  8
0
  6
Continuous
 62
     7
370
    15
100
AcDbCircle
 10
144.2739789965
 20
67.5032625438
 30
0.0
 40
12.5
100
AcDbArc
 50
90.0
 51
270.0
  0
SPLINE
  5
228
330
1F
100
AcDbEntity
  8
0
  6
Continuous
 62
     7
370
    15
100
AcDbSpline
210
0.0
220
0.0
230
1.0
 70
     8
 71
     3
 72
    10
 73
     6
 74
     0
 42
0.00000001
 43
0.00000001
 12
1.0
 22
0.0
 32
0.0
 13
1.0
 23
0.0
 33
0.0
 40
0.0
 40
0.0
 40
0.0
 40
0.0
 40
0.5
 40
0.5
 40
1.0
 40
1.0
 40
1.0
 40
1.0
 10
232.3492098327407
 20
79.69181806790417
 30
0.0
 10
230.0927891564864
 20
79.65917813384502
 30
0.0
 10
227.8326528531565
 20
79.62672078385316
 30
0.0
 10
223.2994411733854
 20
79.56244190348957
 30
0.0
 10
221.026571964526
 20
79.53061024214536
 30
0.0
 10
218.7414188514414
 20
79.4993822057479
 30
0.0
  0
LINE
  5
229
330
1F
100
AcDbEntity
  8
0
  6
Continuous
 62
     7
370
    15
100
AcDbLine
 10
232.6909383418
 20
79.7990125135
 30
0.0
 11
232.3492100122
 21
79.6918182165
 31
0.0
  0
LINE
  5
22A
330
1F
100
AcDbEntity
  8
0
  6
Continuous
 62
     7
370
    15
100
AcDbLine
 10
241.4951590481
 20
79.7990125135
 30
0.0
 11
232.6909383418
 21
79.7990125135
 31
0.0
  0
LINE
  5
22B
330
1F
100
AcDbEntity
  8
0
  6
Continuous
 62
     7
370
    15
100
AcDbLine
 10
241.6527723553
 20
80.00326273
 30
0.0
 11
241.4951590481
 21
79.7990125135
 31
0.0
  0
LINE
  5
22C
330
1F
100
AcDbEntity
  8
0
  6
Continuous
 62
     7
370
    15
100
AcDbLine
 10
244.2739797416
 20
80.00326273
 30
0.0
 11
241.6527723553
 21
80.00326273
 31
0.0
  0
LINE
  5
22D
330
1F
100
AcDbEntity
  8
0
  6
Continuous
 62
     7
370
    15
100
AcDbLine
 10
244.2739797416
 20
79.3224286751
 30
0.0
 11
218.8273859801
 21
79.3224286751
 31
0.0
  0
SPLINE
  5
22E
330
1F
100
AcDbEntity
  8
0
  6
Continuous
 62
     7
370
    15
100
AcDbSpline
210
0.0
220
0.0
230
1.0
 70
     8
 71
     3
 72
    10
 73
     6
 74
     0
 42
0.00000001
 43
0.00000001
 12
1.0
 22
0.0
 32
0.0
 13
1.0
 23
0.0
 33
0.0
 40
0.0
 40
0.0
 40
0.0
 40
0.0
 40
0.5
 40
0.5
 40
1.0
 40
1.0
 40
1.0
 40
1.0
 10
156.1987481602579
 20
55.31470701961083
 30
0.0
 10
158.4551688365122
 20
55.34734695366999
 30
0.0
 10
160.7153051398421
 20
55.37980430366184
 30
0.0
 10
165.2485168196133
 20
55.44408318402544
 30
0.0
 10
167.5213860284726
 20
55.47591484536965
 30
0.0
 10
169.8065391415573
 20
55.50714288176709
 30
0.0
  0
LINE
  5
22F
330
1F
100
AcDbEntity
  8
0
  6
Continuous
 62
     7
370
    15
100
AcDbLine
 10
155.8570196512
 20
55.207512574
 30
0.0
 11
156.1987479808
 21
55.314706871
 31
0.0
  0
LINE
  5
230
330
1F
100
AcDbEntity
  8
0
  6
Continuous
 62
     7
370
    15
100
AcDbLine
 10
147.0527989449
 20
55.207512574
 30
0.0
 11
155.8570196512
 21
55.207512574
 31
0.0
  0
LINE
  5
231
330
1F
100
AcDbEntity
  8
0
  6
Continuous
 62
     7
370
    15
100
AcDbLine
 10
146.8951856377
 20
55.0032623575
 30
0.0
 11
147.0527989449
 21
55.207512574
 31
0.0
  0
LINE
  5
232
330
1F
100
AcDbEntity
  8
0
  6
Continuous
 62
     7
370
    15
100
AcDbLine
 10
144.2739782514
 20
55.0032623575
 30
0.0
 11
146.8951856377
 21
55.0032623575
 31
0.0
  0
LINE
  5
233
330
1F
100
AcDbEntity
  8
0
  6
Continuous
 62
     7
370
    15
100
AcDbLine
 10
144.2739782514
 20
55.6840964124
 30
0.0
 11
169.7205720129
 21
55.6840964124
 31
0.0
  0
LINE
  5
234
330
1F
100
AcDbEntity
  8
0
  6
Continuous
 62
     7
370
    15
100
AcDbLine
 10
244.2739797416
 20
55.6840964124
 30
0.0
 11
218.8273859801
 21
55.6840964124
 31
0.0
  0
LINE
  5
235
330
1F
100
AcDbEntity
  8
0
  6
Continuous
 62
     7
370
    15
100
AcDbLine
 10
244.2739797416
 20
55.0032623575
 30
0.0
 11
241.6527723553
 21
55.0032623575
 31
0.0
  0
LINE
  5
236
330
1F
100
AcDbEntity
  8
0
  6
Continuous
 62
     7
370
    15
100
AcDbLine
 10
241.6527723553
 20
55.0032623575
 30
0.0
 11
241.4951590481
 21
55.207512574
 31
0.0
  0
LINE
  5
237
330
1F
100
AcDbEntity
  8
0
  6
Continuous
 62
     7
370
    15
100
AcDbLine
 10
241.4951590481
 20
55.207512574
 30
0.0
 11
232.6909383418
 21
55.207512574
 31
0.0
  0
LINE
  5
238
330
1F
100
AcDbEntity
  8
0
  6
Continuous
 62
     7
370
    15
100
AcDbLine
 10
232.6909383418
 20
55.207512574
 30
0.0
 11
232.3492100122
 21
55.314706871
 31
0.0
  0
SPLINE
  5
239
330
1F
100
AcDbEntity
  8
0
  6
Continuous
 62
     7
370
    15
100
AcDbSpline
210
0.0
220
0.0
230
1.0
 70
     8
 71
     3
 72
    10
 73
     6
 74
     0
 42
0.00000001
 43
0.00000001
 12
1.0
 22
0.0
 32
0.0
 13
1.0
 23
0.0
 33
0.0
 40
0.0
 40
0.0
 40
0.0
 40
0.0
 40
0.5
 40
0.5
 40
1.0
 40
1.0
 40
1.0
 40
1.0
 10
232.3492098327407
 20
55.31470701961083
 30
0.0
 10
230.0927891564864
 20
55.34734695366999
 30
0.0
 10
227.8326528531565
 20
55.37980430366184
 30
0.0
 10
223.2994411733854
 20
55.44408318402544
 30
0.0
 10
221.026571964526
 20
55.47591484536965
 30
0.0
 10
218.7414188514414
 20
55.50714288176709
 30
0.0
  0
ARC
  5
23A
330
1F
100
AcDbEntity
  8
0
  6
Continuous
 62
     7
370
    15
100
AcDbCircle
 10
194.2739789965
 20
67.5032625438
 30
0.0
 40
39.97854535870803
100
AcDbArc
 50
17.7507889932
 51
162.2492110068
  0
ARC
  5
23B
330
1F
100
AcDbEntity
  8
0
  6
Continuous
 62
     7
370
    15
100
AcDbCircle
 10
194.2739789965
 20
67.5032625438
 30
0.0
 40
39.97854535870803
100
AcDbArc
 50
197.7507889932
 51
342.2492110068
  0
ARC
  5
23C
330
1F
100
AcDbEntity
  8
0
  6
Continuous
 62
     7
370
    15
100
AcDbCircle
 10
194.2739789965
 20
67.5032625438
 30
0.0
 40
40.33668761221456
100
AcDbArc
 50
17.7478132948
 51
162.2521867052
  0
ARC
  5
23D
330
1F
100
AcDbEntity
  8
0
  6
Continuous
 62
     7
370
    15
100
AcDbCircle
 10
194.2739789965
 20
67.5032625438
 30
0.0
 40
40.33668761221456
100
AcDbArc
 50
197.7478132948
 51
342.2521867052
  0
ARC
  5
23E
330
1F
100
AcDbEntity
  8
0
  6
Continuous
 62
     7
370
    15
100
AcDbCircle
 10
194.2739789965
 20
67.5032625438
 30
0.0
 40
49.00000000000001
100
AcDbArc
 50
113.3114456815
 51
165.2203683694
  0
LINE
  5
23F
330
1F
100
AcDbEntity
  8
0
  6
Continuous
 62
     7
370
    15
100
AcDbLine
 10
174.8832599851
 20
112.5032643319
 30
0.0
 11
174.9254395845
 21
112.2990141154
 31
0.0
  0
ARC
  5
240
330
1F
100
AcDbEntity
  8
0
  6
Continuous
 62
     7
370
    15
100
AcDbCircle
 10
194.2739789965
 20
67.5032625438
 30
0.0
 40
48.79574981176042
100
AcDbArc
 50
113.3608693237
 51
165.4050518717
  0
ARC
  5
241
330
1F
100
AcDbEntity
  8
0
  6
Continuous
 62
     7
370
    15
100
AcDbCircle
 10
194.2739789965
 20
67.5032625438
 30
0.0
 40
48.7957498117604
100
AcDbArc
 50
14.5949481283
 51
66.6391306763
  0
LINE
  5
242
330
1F
100
AcDbEntity
  8
0
  6
Continuous
 62
     7
370
    15
100
AcDbLine
 10
213.6646980079
 20
112.5032643319
 30
0.0
 11
213.6225184085
 21
112.2990141154
 31
0.0
  0
ARC
  5
243
330
1F
100
AcDbEntity
  8
0
  6
Continuous
 62
     7
370
    15
100
AcDbCircle
 10
194.2739789965
 20
67.5032625438
 30
0.0
 40
49.00000000000001
100
AcDbArc
 50
14.7796316306
 51
66.6885543185
  0
ARC
  5
244
330
1F
100
AcDbEntity
  8
0
  6
Continuous
 62
     7
370
    15
100
AcDbCircle
 10
194.2739789965
 20
67.5032625438
 30
0.0
 40
48.79574981176042
100
AcDbArc
 50
194.5949481283
 51
246.6391306763
  0
LINE
  5
245
330
1F
100
AcDbEntity
  8
0
  6
Continuous
 62
     7
370
    15
100
AcDbLine
 10
174.8832599851
 20
22.5032607556
 30
0.0
 11
174.9254395845
 21
22.7075109721
 31
0.0
  0
ARC
  5
246
330
1F
100
AcDbEntity
  8
0
  6
Continuous
 62
     7
370
    15
100
AcDbCircle
 10
194.2739789965
 20
67.5032625438
 30
0.0
 40
49.00000000000001
100
AcDbArc
 50
194.7796316306
 51
246.6885543185
  0
ARC
  5
247
330
1F
100
AcDbEntity
  8
0
  6
Continuous
 62
     7
370
    15
100
AcDbCircle
 10
194.2739789965
 20
67.5032625438
 30
0.0
 40
48.99999999999999
100
AcDbArc
 50
293.3114456815
 51
345.2203683694
  0
LINE
  5
248
330
1F
100
AcDbEntity
  8
0
  6
Continuous
 62
     7
370
    15
100
AcDbLine
 10
213.6646980079
 20
22.5032607556
 30
0.0
 11
213.6225184085
 21
22.7075109721
 31
0.0
  0
ARC
  5
249
330
1F
100
AcDbEntity
  8
0
  6
Continuous
 62
     7
370
    15
100
AcDbCircle
 10
194.2739789965
 20
67.5032625438
 30
0.0
 40
48.79574981176039
100
AcDbArc
 50
293.3608693237
 51
345.4050518717
  0
LINE
  5
24A
330
1F
100
AcDbEntity
  8
0
  6
Continuous
 62
     7
370
    15
100
AcDbLine
 10
174.8832599851
 20
112.5032643319
 30
0.0
 11
213.6646980079
 21
112.5032643319
 31
0.0
  0
LINE
  5
24B
330
1F
100
AcDbEntity
  8
0
  6
Continuous
 62
     7
370
    15
100
AcDbLine
 10
213.6225184085
 20
112.2990141154
 30
0.0
 11
174.9254395845
 21
112.2990141154
 31
0.0
  0
LINE
  5
24C
330
1F
100
AcDbEntity
  8
0
  6
Continuous
 62
     7
370
    15
100
AcDbLine
 10
213.6225184085
 20
22.7075109721
 30
0.0
 11
174.9254395845
 21
22.7075109721
 31
0.0
  0
LINE
  5
24D
330
1F
100
AcDbEntity
  8
0
  6
Continuous
 62
     7
370
    15
100
AcDbLine
 10
174.8832599851
 20
22.5032607556
 30
0.0
 11
213.6646980079
 21
22.5032607556
 31
0.0
  0
SPLINE
  5
24E
330
1F
100
AcDbEntity
  8
0
  6
Continuous
 62
     7
370
    15
100
AcDbSpline
210
0.0
220
0.0
230
1.0
 70
     8
 71
     3
 72
    14
 73
    10
 74
     0
 42
0.00000001
 43
0.00000001
 12
1.0
 22
0.0
 32
0.0
 13
1.0
 23
0.0
 33
0.0
 40
0.0
 40
0.0
 40
0.0
 40
0.0
 40
0.2500000000000002
 40
0.2500000000000002
 40
0.5000000000000004
 40
0.5000000000000004
 40
0.7500000000000002
 40
0.7500000000000002
 40
1.0
 40
1.0
 40
1.0
 40
1.0
 10
242.2739789964993
 20
93.48402465729065
 30
0.0
 10
242.2739789964993
 20
94.23720736786862
 30
0.0
 10
242.3879612029854
 20
94.98405222887536
 30
0.0
 10
242.8259322321048
 20
96.4660647743967
 30
0.0
 10
243.149713227898
 20
97.20124401488387
 30
0.0
 10
243.9798619949839
 20
98.66144996808667
 30
0.0
 10
244.4797203669591
 20
99.37590842644536
 30
0.0
 10
245.6079935170708
 20
100.7779249211007
 30
0.0
 10
246.236754701556
 20
101.4660382488142
 30
0.0
 10
246.9149951478769
 20
102.1442786951351
 30
0.0
  0
LINE
  5
24F
330
1F
100
AcDbEntity
  8
0
  6
Continuous
 62
     7
370
    15
100
AcDbLine
 10
246.9149944963
 20
102.1442788184
 30
0.0
 11
269.2739819767
 21
102.1442788184
 31
0.0
  0
LINE
  5
250
330
1F
100
AcDbEntity
  8
0
  6
Continuous
 62
     7
370
    15
100
AcDbLine
 10
269.2739819767
 20
102.1442788184
 30
0.0
 11
269.2739819767
 21
84.8237706811
 31
0.0
  0
LINE
  5
251
330
1F
100
AcDbEntity
  8
0
  6
Continuous
 62
     7
370
    15
100
AcDbLine
 10
246.9149944963
 20
84.8237706811
 30
0.0
 11
269.2739819767
 21
84.8237706811
 31
0.0
  0
SPLINE
  5
252
330
1F
100
AcDbEntity
  8
0
  6
Continuous
 62
     7
370
    15
100
AcDbSpline
210
0.0
220
0.0
230
1.0
 70
     8
 71
     3
 72
    14
 73
    10
 74
     0
 42
0.00000001
 43
0.00000001
 12
1.0
 22
0.0
 32
0.0
 13
1.0
 23
0.0
 33
0.0
 40
0.0
 40
0.0
 40
0.0
 40
0.0
 40
0.5000000000000001
 40
0.5000000000000001
 40
0.75
 40
0.75
 40
0.8750000000000001
 40
0.8750000000000001
 40
1.0
 40
1.0
 40
1.0
 40
1.0
 10
246.9149951478769
 20
84.82377061944626
 30
0.0
 10
245.5569412907006
 20
86.18182447662252
 30
0.0
 10
244.4029501149662
 20
87.5706134826836
 30
0.0
 10
243.1691211415892
 20
89.72867701684325
 30
0.0
 10
242.8415838599891
 20
90.46064398598816
 30
0.0
 10
242.5051832081221
 20
91.58192568537594
 30
0.0
 10
242.4188904170251
 20
91.95957828925417
 30
0.0
 10
242.3028671000487
 20
92.72340269136036
 30
0.0
 10
242.2739789964993
 20
93.10477711120316
 30
0.0
 10
242.2739789964993
 20
93.48402465729065
 30
0.0
  0
LINE
  5
253
330
1F
100
AcDbEntity
  8
0
  6
Continuous
 62
     7
370
    15
100
AcDbLine
 10
141.6329634967
 20
84.8237706811
 30
0.0
 11
119.2739760163
 21
84.8237706811
 31
0.0
  0
LINE
  5
254
330
1F
100
AcDbEntity
  8
0
  6
Continuous
 62
     7
370
    15
100
AcDbLine
 10
141.6329634967
 20
102.1442788184
 30
0.0
 11
119.2739760163
 21
102.1442788184
 31
0.0
  0
SPLINE
  5
255
330
1F
100
AcDbEntity
  8
0
  6
Continuous
 62
     7
370
    15
100
AcDbSpline
210
0.0
220
0.0
230
1.0
 70
     8
 71
     3
 72
    14
 73
    10
 74
     0
 42
0.00000001
 43
0.00000001
 12
1.0
 22
0.0
 32
0.0
 13
1.0
 23
0.0
 33
0.0
 40
0.0
 40
0.0
 40
0.0
 40
0.0
 40
0.2500000000000002
 40
0.2500000000000002
 40
0.5000000000000004
 40
0.5000000000000004
 40
0.7500000000000002
 40
0.7500000000000002
 40
1.0
 40
1.0
 40
1.0
 40
1.0
 10
146.2739789964993
 20
93.48402465729065
 30
0.0
 10
146.2739789964993
 20
94.23720736786862
 30
0.0
 10
146.1599967900132
 20
94.98405222887536
 30
0.0
 10
145.7220257608938
 20
96.4660647743967
 30
0.0
 10
145.3982447651006
 20
97.20124401488387
 30
0.0
 10
144.5680959980148
 20
98.66144996808667
 30
0.0
 10
144.0682376260395
 20
99.37590842644536
 30
0.0
 10
142.9399644759279
 20
100.7779249211007
 30
0.0
 10
142.3112032914426
 20
101.4660382488142
 30
0.0
 10
141.6329628451217
 20
102.1442786951351
 30
0.0
  0
SPLINE
  5
256
330
1F
100
AcDbEntity
  8
0
  6
Continuous
 62
     7
370
    15
100
AcDbSpline
210
0.0
220
0.0
230
1.0
 70
     8
 71
     3
 72
    14
 73
    10
 74
     0
 42
0.00000001
 43
0.00000001
 12
1.0
 22
0.0
 32
0.0
 13
1.0
 23
0.0
 33
0.0
 40
0.0
 40
0.0
 40
0.0
 40
0.0
 40
0.5000000000000001
 40
0.5000000000000001
 40
0.75
 40
0.75
 40
0.8750000000000001
 40
0.8750000000000001
 40
1.0
 40
1.0
 40
1.0
 40
1.0
 10
141.6329628451217
 20
84.82377061944626
 30
0.0
 10
142.991016702298
 20
86.18182447662252
 30
0.0
 10
144.1450078780324
 20
87.5706134826836
 30
0.0
 10
145.3788368514095
 20
89.72867701684325
 30
0.0
 10
145.7063741330095
 20
90.46064398598816
 30
0.0
 10
146.0427747848765
 20
91.58192568537594
 30
0.0
 10
146.1290675759735
 20
91.95957828925417
 30
0.0
 10
146.2450908929499
 20
92.72340269136036
 30
0.0
 10
146.2739789964993
 20
93.10477711120316
 30
0.0
 10
146.2739789964993
 20
93.48402465729065
 30
0.0
  0
LINE
  5
257
330
1F
100
AcDbEntity
  8
0
  6
Continuous
 62
     7
370
    15
100
AcDbLine
 10
119.2739760163
 20
102.1442788184
 30
0.0
 11
119.2739760163
 21
84.8237706811
 31
0.0
  0
LINE
  5
258
330
1F
100
AcDbEntity
  8
0
  6
Continuous
 62
     7
370
    15
100
AcDbLine
 10
242.2739794137
 20
93.4840238185
 30
0.0
 11
242.2739794137
 21
97.5032618732
 31
0.0
  0
LINE
  5
259
330
1F
100
AcDbEntity
  8
0
  6
Continuous
 62
     7
370
    15
100
AcDbLine
 10
242.2739794137
 20
80.00326273
 30
0.0
 11
242.2739794137
 21
93.4840238185
 31
0.0
  0
LINE
  5
25A
330
1F
100
AcDbEntity
  8
0
  6
Continuous
 62
     7
370
    15
100
AcDbLine
 10
146.2739785793
 20
80.00326273
 30
0.0
 11
146.2739785793
 21
93.4840238185
 31
0.0
  0
LINE
  5
25B
330
1F
100
AcDbEntity
  8
0
  6
Continuous
 62
     7
370
    15
100
AcDbLine
 10
146.2739785793
 20
93.4840238185
 30
0.0
 11
146.2739785793
 21
97.5032618732
 31
0.0
  0
SPLINE
  5
25C
330
1F
100
AcDbEntity
  8
0
  6
Continuous
 62
     7
370
    15
100
AcDbSpline
210
0.0
220
0.0
230
1.0
 70
     8
 71
     3
 72
    13
 73
     9
 74
     0
 42
0.00000001
 43
0.00000001
 12
1.0
 22
0.0
 32
0.0
 13
1.0
 23
0.0
 33
0.0
 40
0.0
 40
0.0
 40
0.0
 40
0.0
 40
0.0087021634729113
 40
0.2637694467170597
 40
0.4477161226912711
 40
0.6316637443287199
 40
0.8158315135377975
 40
1.0
 40
1.0
 40
1.0
 40
1.0
 10
143.7795800747712
 20
79.98680346616084
 30
0.0
 10
143.7742779115398
 20
80.00121530068787
 30
0.0
 10
143.6135651570288
 20
80.4380493858216
 30
0.0
 10
143.3109484192179
 20
81.16823881124367
 30
0.0
 10
142.8802250422933
 20
82.17958446962623
 30
0.0
 10
142.479506913255
 20
83.06763308715402
 30
0.0
 10
142.0652167246154
 20
83.9498307413166
 30
0.0
 10
141.7770480930327
 20
84.53245698966231
 30
0.0
 10
141.6329634966691
 20
84.82377068110281
 30
0.0
  0
SPLINE
  5
25D
330
1F
100
AcDbEntity
  8
0
  6
Continuous
 62
     7
370
    15
100
AcDbSpline
210
0.0
220
0.0
230
1.0
 70
     8
 71
     3
 72
    13
 73
     9
 74
     0
 42
0.00000001
 43
0.00000001
 12
1.0
 22
0.0
 32
0.0
 13
1.0
 23
0.0
 33
0.0
 40
0.0
 40
0.0
 40
0.0
 40
0.0
 40
0.0087021634729113
 40
0.2637694467170597
 40
0.4477161226912711
 40
0.6316637443287199
 40
0.8158315135377975
 40
1.0
 40
1.0
 40
1.0
 40
1.0
 10
244.7683779182275
 20
79.98680346616084
 30
0.0
 10
244.7736800814588
 20
80.00121530068787
 30
0.0
 10
244.9343928359698
 20
80.4380493858216
 30
0.0
 10
245.2370095737807
 20
81.16823881124367
 30
0.0
 10
245.6677329507054
 20
82.17958446962623
 30
0.0
 10
246.0684510797437
 20
83.06763308715402
 30
0.0
 10
246.4827412683832
 20
83.9498307413166
 30
0.0
 10
246.7709098999659
 20
84.53245698966231
 30
0.0
 10
246.9149944963296
 20
84.82377068110281
 30
0.0
  0
LINE
  5
25E
330
1F
100
AcDbEntity
  8
0
  6
Continuous
 62
     7
370
    15
100
AcDbLine
 10
246.9149944963
 20
50.1827544064
 30
0.0
 11
269.2739819767
 21
50.1827544064
 31
0.0
  0
SPLINE
  5
25F
330
1F
100
AcDbEntity
  8
0
  6
Continuous
 62
     7
370
    15
100
AcDbSpline
210
0.0
220
0.0
230
1.0
 70
     8
 71
     3
 72
    13
 73
     9
 74
     0
 42
0.00000001
 43
0.00000001
 12
1.0
 22
0.0
 32
0.0
 13
1.0
 23
0.0
 33
0.0
 40
0.0
 40
0.0
 40
0.0
 40
0.0
 40
0.0086895888861404
 40
0.2637601076520132
 40
0.4477091169849319
 40
0.6316590719930835
 40
0.8158291773654301
 40
1.0
 40
1.0
 40
1.0
 40
1.0
 10
244.7684002699692
 20
55.0196582914191
 30
0.0
 10
244.7736950063971
 20
55.00526757580981
 30
0.0
 10
244.9344091976551
 20
54.56845787767247
 30
0.0
 10
245.2370070686859
 20
53.83828535505089
 30
0.0
 10
245.6677335274506
 20
52.82694082998032
 30
0.0
 10
246.0684509257391
 20
51.93889194372752
 30
0.0
 10
246.4827413069037
 20
51.05669436036388
 30
0.0
 10
246.7709099128061
 20
50.47406810257453
 30
0.0
 10
246.9149944963296
 20
50.18275440641219
 30
0.0
  0
LINE
  5
260
330
1F
100
AcDbEntity
  8
0
  6
Continuous
 62
     7
370
    15
100
AcDbLine
 10
269.2739819767
 20
84.8237706811
 30
0.0
 11
269.2739819767
 21
50.1827544064
 31
0.0
  0
SPLINE
  5
261
330
1F
100
AcDbEntity
  8
0
  6
Continuous
 62
     7
370
    15
100
AcDbSpline
210
0.0
220
0.0
230
1.0
 70
     8
 71
     3
 72
    13
 73
     9
 74
     0
 42
0.00000001
 43
0.00000001
 12
1.0
 22
0.0
 32
0.0
 13
1.0
 23
0.0
 33
0.0
 40
0.0
 40
0.0
 40
0.0
 40
0.0
 40
0.0086895888861404
 40
0.2637601076520132
 40
0.4477091169849319
 40
0.6316590719930835
 40
0.8158291773654301
 40
1.0
 40
1.0
 40
1.0
 40
1.0
 10
143.7795577230294
 20
55.0196582914191
 30
0.0
 10
143.7742629866015
 20
55.00526757580981
 30
0.0
 10
143.6135487953435
 20
54.56845787767247
 30
0.0
 10
143.3109509243127
 20
53.83828535505089
 30
0.0
 10
142.8802244655481
 20
52.82694082998032
 30
0.0
 10
142.4795070672595
 20
51.93889194372752
 30
0.0
 10
142.0652166860949
 20
51.05669436036388
 30
0.0
 10
141.7770480801925
 20
50.47406810257453
 30
0.0
 10
141.6329634966691
 20
50.18275440641219
 30
0.0
  0
LINE
  5
262
330
1F
100
AcDbEntity
  8
0
  6
Continuous
 62
     7
370
    15
100
AcDbLine
 10
141.6329634967
 20
50.1827544064
 30
0.0
 11
119.2739760163
 21
50.1827544064
 31
0.0
  0
LINE
  5
263
330
1F
100
AcDbEntity
  8
0
  6
Continuous
 62
     7
370
    15
100
AcDbLine
 10
119.2739760163
 20
50.1827544064
 30
0.0
 11
119.2739760163
 21
84.8237706811
 31
0.0
  0
LINE
  5
264
330
1F
100
AcDbEntity
  8
0
  6
Continuous
 62
     7
370
    15
100
AcDbLine
 10
242.2739794137
 20
55.0032623575
 30
0.0
 11
242.2739794137
 21
41.5225012691
 31
0.0
  0
LINE
  5
265
330
1F
100
AcDbEntity
  8
0
  6
Continuous
 62
     7
370
    15
100
AcDbLine
 10
242.2739794137
 20
41.5225012691
 30
0.0
 11
242.2739794137
 21
37.5032632143
 31
0.0
  0
LINE
  5
266
330
1F
100
AcDbEntity
  8
0
  6
Continuous
 62
     7
370
    15
100
AcDbLine
 10
146.2739785793
 20
41.5225012691
 30
0.0
 11
146.2739785793
 21
37.5032632143
 31
0.0
  0
LINE
  5
267
330
1F
100
AcDbEntity
  8
0
  6
Continuous
 62
     7
370
    15
100
AcDbLine
 10
146.2739785793
 20
55.0032623575
 30
0.0
 11
146.2739785793
 21
41.5225012691
 31
0.0
  0
SPLINE
  5
268
330
1F
100
AcDbEntity
  8
0
  6
Continuous
 62
     7
370
    15
100
AcDbSpline
210
0.0
220
0.0
230
1.0
 70
     8
 71
     3
 72
    14
 73
    10
 74
     0
 42
0.00000001
 43
0.00000001
 12
1.0
 22
0.0
 32
0.0
 13
1.0
 23
0.0
 33
0.0
 40
0.0
 40
0.0
 40
0.0
 40
0.0
 40
0.5000000000000001
 40
0.5000000000000001
 40
0.75
 40
0.75
 40
0.8750000000000001
 40
0.8750000000000001
 40
1.0
 40
1.0
 40
1.0
 40
1.0
 10
246.9149951478769
 20
50.18275446806873
 30
0.0
 10
245.5569412907006
 20
48.82470061089249
 30
0.0
 10
244.4029501149662
 20
47.43591160483141
 30
0.0
 10
243.1691211415892
 20
45.27784807067176
 30
0.0
 10
242.8415838599891
 20
44.54588110152685
 30
0.0
 10
242.5051832081221
 20
43.42459940213907
 30
0.0
 10
242.4188904170251
 20
43.04694679826083
 30
0.0
 10
242.3028671000487
 20
42.28312239615465
 30
0.0
 10
242.2739789964993
 20
41.90174797631185
 30
0.0
 10
242.2739789964993
 20
41.52250043022435
 30
0.0
  0
SPLINE
  5
269
330
1F
100
AcDbEntity
  8
0
  6
Continuous
 62
     7
370
    15
100
AcDbSpline
210
0.0
220
0.0
230
1.0
 70
     8
 71
     3
 72
    14
 73
    10
 74
     0
 42
0.00000001
 43
0.00000001
 12
1.0
 22
0.0
 32
0.0
 13
1.0
 23
0.0
 33
0.0
 40
0.0
 40
0.0
 40
0.0
 40
0.0
 40
0.5000000000000001
 40
0.5000000000000001
 40
0.75
 40
0.75
 40
0.8750000000000001
 40
0.8750000000000001
 40
1.0
 40
1.0
 40
1.0
 40
1.0
 10
141.6329628451217
 20
50.18275446806873
 30
0.0
 10
142.991016702298
 20
48.82470061089249
 30
0.0
 10
144.1450078780324
 20
47.43591160483141
 30
0.0
 10
145.3788368514095
 20
45.27784807067176
 30
0.0
 10
145.7063741330095
 20
44.54588110152685
 30
0.0
 10
146.0427747848765
 20
43.42459940213907
 30
0.0
 10
146.1290675759735
 20
43.04694679826083
 30
0.0
 10
146.2450908929499
 20
42.28312239615465
 30
0.0
 10
146.2739789964993
 20
41.90174797631185
 30
0.0
 10
146.2739789964993
 20
41.52250043022435
 30
0.0
  0
LINE
  5
26A
330
1F
100
AcDbEntity
  8
0
  6
Continuous
 62
     7
370
    15
100
AcDbLine
 10
246.9149944963
 20
32.8622462691
 30
0.0
 11
269.2739819767
 21
32.8622462691
 31
0.0
  0
SPLINE
  5
26B
330
1F
100
AcDbEntity
  8
0
  6
Continuous
 62
     7
370
    15
100
AcDbSpline
210
0.0
220
0.0
230
1.0
 70
     8
 71
     3
 72
    14
 73
    10
 74
     0
 42
0.00000001
 43
0.00000001
 12
1.0
 22
0.0
 32
0.0
 13
1.0
 23
0.0
 33
0.0
 40
0.0
 40
0.0
 40
0.0
 40
0.0
 40
0.2500000000000002
 40
0.2500000000000002
 40
0.5000000000000004
 40
0.5000000000000004
 40
0.7500000000000002
 40
0.7500000000000002
 40
1.0
 40
1.0
 40
1.0
 40
1.0
 10
242.2739789964993
 20
41.52250043022435
 30
0.0
 10
242.2739789964993
 20
40.76931771964638
 30
0.0
 10
242.3879612029854
 20
40.02247285863965
 30
0.0
 10
242.8259322321048
 20
38.5404603131183
 30
0.0
 10
243.149713227898
 20
37.80528107263113
 30
0.0
 10
243.9798619949839
 20
36.34507511942834
 30
0.0
 10
244.4797203669591
 20
35.63061666106964
 30
0.0
 10
245.6079935170708
 20
34.2286001664143
 30
0.0
 10
246.236754701556
 20
33.54048683870083
 30
0.0
 10
246.9149951478769
 20
32.86224639237996
 30
0.0
  0
LINE
  5
26C
330
1F
100
AcDbEntity
  8
0
  6
Continuous
 62
     7
370
    15
100
AcDbLine
 10
269.2739819767
 20
32.8622462691
 30
0.0
 11
269.2739819767
 21
50.1827544064
 31
0.0
  0
SPLINE
  5
26D
330
1F
100
AcDbEntity
  8
0
  6
Continuous
 62
     7
370
    15
100
AcDbSpline
210
0.0
220
0.0
230
1.0
 70
     8
 71
     3
 72
    14
 73
    10
 74
     0
 42
0.00000001
 43
0.00000001
 12
1.0
 22
0.0
 32
0.0
 13
1.0
 23
0.0
 33
0.0
 40
0.0
 40
0.0
 40
0.0
 40
0.0
 40
0.2500000000000002
 40
0.2500000000000002
 40
0.5000000000000004
 40
0.5000000000000004
 40
0.7500000000000002
 40
0.7500000000000002
 40
1.0
 40
1.0
 40
1.0
 40
1.0
 10
146.2739789964993
 20
41.52250043022435
 30
0.0
 10
146.2739789964993
 20
40.76931771964638
 30
0.0
 10
146.1599967900132
 20
40.02247285863965
 30
0.0
 10
145.7220257608938
 20
38.5404603131183
 30
0.0
 10
145.3982447651006
 20
37.80528107263113
 30
0.0
 10
144.5680959980148
 20
36.34507511942834
 30
0.0
 10
144.0682376260395
 20
35.63061666106964
 30
0.0
 10
142.9399644759279
 20
34.2286001664143
 30
0.0
 10
142.3112032914426
 20
33.54048683870083
 30
0.0
 10
141.6329628451217
 20
32.86224639237996
 30
0.0
  0
LINE
  5
26E
330
1F
100
AcDbEntity
  8
0
  6
Continuous
 62
     7
370
    15
100
AcDbLine
 10
141.6329634967
 20
32.8622462691
 30
0.0
 11
119.2739760163
 21
32.8622462691
 31
0.0
  0
LINE
  5
26F
330
1F
100
AcDbEntity
  8
0
  6
Continuous
 62
     7
370
    15
100
AcDbLine
 10
119.2739760163
 20
32.8622462691
 30
0.0
 11
119.2739760163
 21
50.1827544064
 31
0.0
  0
ARC
  5
270
330
1F
100
AcDbEntity
  8
0
  6
Continuous
 62
     8
370
     0
100
AcDbCircle
 10
194.2739789965
 20
67.5032625438
 30
0.0
 40
21.02953230732376
100
AcDbArc
 50
102.3559738372
 51
197.6440261628
  0
ARC
  5
271
330
1F
100
AcDbEntity
  8
0
  6
Continuous
 62
     8
370
     0
100
AcDbCircle
 10
194.2739789965
 20
67.5032625438
 30
0.0
 40
21.02953230732374
100
AcDbArc
 50
342.3559738372
 51
77.6440261628
  0
ARC
  5
272
330
1F
100
AcDbEntity
  8
0
  6
Continuous
 62
     8
370
     0
100
AcDbCircle
 10
194.2739789965
 20
67.5032625438
 30
0.0
 40
21.02953230732376
100
AcDbArc
 50
222.3559738372
 51
317.6440261628
  0
ARC
  5
273
330
1F
100
AcDbEntity
  8
0
  6
Continuous
 62
     8
370
     0
100
AcDbCircle
 10
194.2739789965
 20
67.5032625438
 30
0.0
 40
24.11697778318019
100
AcDbArc
 50
340.7538787116
 51
79.2461212884
  0
ARC
  5
274
330
1F
100
AcDbEntity
  8
0
  6
Continuous
 62
     8
370
     0
100
AcDbCircle
 10
194.2739789965
 20
67.5032625438
 30
0.0
 40
24.11697778318018
100
AcDbArc
 50
220.7538787116
 51
319.2461212884
  0
ARC
  5
275
330
1F
100
AcDbEntity
  8
0
  6
Continuous
 62
     8
370
     0
100
AcDbCircle
 10
194.2739789965
 20
67.5032625438
 30
0.0
 40
24.11697778318018
100
AcDbArc
 50
100.7538787116
 51
199.2461212884
  0
LINE
  5
276
330
1F
100
AcDbEntity
  8
0
  6
Continuous
 62
     8
370
     0
100
AcDbLine
 10
144.2739782514
 20
79.3224286751
 30
0.0
 11
144.2739782514
 21
80.00326273
 31
0.0
  0
LINE
  5
277
330
1F
100
AcDbEntity
  8
0
  6
Continuous
 62
     8
370
     0
100
AcDbLine
 10
244.2739797416
 20
55.6840964124
 30
0.0
 11
244.2739797416
 21
55.0032623575
 31
0.0
  0
LINE
  5
278
330
1F
100
AcDbEntity
  8
0
  6
Continuous
 62
     8
370
     0
100
AcDbLine
 10
244.2739797416
 20
79.3224286751
 30
0.0
 11
244.2739797416
 21
80.00326273
 31
0.0
  0
LINE
  5
279
330
1F
100
AcDbEntity
  8
0
  6
Continuous
 62
     8
370
     0
100
AcDbLine
 10
144.2739782514
 20
55.6840964124
 30
0.0
 11
144.2739782514
 21
55.0032623575
 31
0.0
  0
INSERT
  5
285
330
1F
100
AcDbEntity
  8
FORMAT
100
AcDbBlockReference
  2
SW_CENTERMARKSYMBOL_1
 10
194.2739789965
 20
67.5032625438
 30
0.0
  0
ENDSEC
  0
SECTION
  2
OBJECTS
  0
DICTIONARY
  5
C
330
0
100
AcDbDictionary
281
     1
  3
ACAD_GROUP
350
D
  3
ACAD_LAYOUT
350
1A
  3
ACAD_MLINESTYLE
350
17
  3
ACAD_PLOTSETTINGS
350
19
  3
ACAD_PLOTSTYLENAME
350
E
  0
DICTIONARY
  5
D
102
{ACAD_REACTORS
330
C
102
}
330
C
100
AcDbDictionary
281
     1
  0
DICTIONARY
  5
1A
102
{ACAD_REACTORS
330
C
102
}
330
C
100
AcDbDictionary
281
     1
  3
Layout1
350
1E
  3
Layout2
350
26
  3
Model
350
22
  0
DICTIONARY
  5
17
102
{ACAD_REACTORS
330
C
102
}
330
C
100
AcDbDictionary
281
     1
  3
Standard
350
18
  0
DICTIONARY
  5
19
102
{ACAD_REACTORS
330
C
102
}
330
C
100
AcDbDictionary
281
     1
  0
ACDBDICTIONARYWDFLT
  5
E
102
{ACAD_REACTORS
330
C
102
}
330
C
100
AcDbDictionary
281
     1
  3
Normal
350
F
100
AcDbDictionaryWithDefault
340
F
  0
LAYOUT
  5
1E
102
{ACAD_REACTORS
330
1A
102
}
330
1A
100
AcDbPlotSettings
  1

  2
none_device
  4

  6

 40
0.0
 41
0.0
 42
0.0
 43
0.0
 44
0.0
 45
0.0
 46
0.0
 47
0.0
 48
0.0
 49
0.0
140
0.0
141
0.0
142
1.0
143
1.0
 70
   688
 72
     0
 73
     0
 74
     5
  7

 75
    16
147
1.0
148
0.0
149
0.0
100
AcDbLayout
  1
Layout1
 70
     1
 71
     1
 10
0.0
 20
0.0
 11
420.0
 21
297.0
 12
0.0
 22
0.0
 32
0.0
 14
1.0000000000E+20
 24
1.0000000000E+20
 34
1.0000000000E+20
 15
-1.0000000000E+20
 25
-1.0000000000E+20
 35
-1.0000000000E+20
146
0.0
 13
0.0
 23
0.0
 33
0.0
 16
1.0
 26
0.0
 36
0.0
 17
0.0
 27
1.0
 37
0.0
 76
     0
330
1B
  0
LAYOUT
  5
26
102
{ACAD_REACTORS
330
1A
102
}
330
1A
100
AcDbPlotSettings
  1

  2
none_device
  4

  6

 40
0.0
 41
0.0
 42
0.0
 43
0.0
 44
0.0
 45
0.0
 46
0.0
 47
0.0
 48
0.0
 49
0.0
140
0.0
141
0.0
142
1.0
143
1.0
 70
   688
 72
     0
 73
     0
 74
     5
  7

 75
    16
147
1.0
148
0.0
149
0.0
100
AcDbLayout
  1
Layout2
 70
     1
 71
     2
 10
0.0
 20
0.0
 11
0.0
 21
0.0
 12
0.0
 22
0.0
 32
0.0
 14
0.0
 24
0.0
 34
0.0
 15
0.0
 25
0.0
 35
0.0
146
0.0
 13
0.0
 23
0.0
 33
0.0
 16
1.0
 26
0.0
 36
0.0
 17
0.0
 27
1.0
 37
0.0
 76
     0
330
23
  0
LAYOUT
  5
22
102
{ACAD_REACTORS
330
1A
102
}
330
1A
100
AcDbPlotSettings
  1

  2
none_device
  4

  6

 40
0.0
 41
0.0
 42
0.0
 43
0.0
 44
0.0
 45
0.0
 46
0.0
 47
0.0
 48
0.0
 49
0.0
140
0.0
141
0.0
142
1.0
143
1.0
 70
  1712
 72
     0
 73
     0
 74
     0
  7

 75
     0
147
1.0
148
0.0
149
0.0
100
AcDbLayout
  1
Model
 70
     1
 71
     0
 10
0.0
 20
0.0
 11
594.0
 21
420.0
 12
0.0
 22
0.0
 32
0.0
 14
0.0
 24
0.0
 34
0.0
 15
594.0
 25
420.0
 35
0.0
146
0.0
 13
0.0
 23
0.0
 33
0.0
 16
1.0
 26
0.0
 36
0.0
 17
0.0
 27
1.0
 37
0.0
 76
     0
330
1F
331
29
  0
MLINESTYLE
  5
18
102
{ACAD_REACTORS
330
17
102
}
330
17
100
AcDbMlineStyle
  2
Standard
 70
     0
  3

 62
   256
 51
90.0
 52
90.0
 71
     2
 49
0.5
 62
   256
  6
BYLAYER
 49
-0.5
 62
   256
  6
BYLAYER
  0
ACDBPLACEHOLDER
  5
F
102
{ACAD_REACTORS
330
E
102
}
330
E
  0
ENDSEC
  0
EOF
