  0
SECTION
  2
HEADER
  9
$ACADVER
  1
AC1009
  9
$DWGCODEPAGE
  3
ansi_1252
  9
$INSBASE
 10
0.0
 20
0.0
 30
0.0
  9
$EXTMIN
 10
0.0
 20
0.0
 30
0.0
  9
$EXTMAX
 10
4800.0
 20
3600.0
 30
0.0
  9
$LIMMIN
 10
0.0
 20
0.0
  9
$LIMMAX
 10
4800.0
 20
3600.0
  9
$ORTHOMODE
 70
     0
  9
$REGENMODE
 70
     1
  9
$FILLMODE
 70
     1
  9
$QTEXTMODE
 70
     0
  9
$MIRRTEXT
 70
     1
  9
$DRAGMODE
 70
     2
  9
$LTSCALE
 40
1.0
  9
$OSMODE
 70
    37
  9
$ATTMODE
 70
     1
  9
$TEXTSIZE
 40
3.5
  9
$TRACEWID
 40
1.0
  9
$TEXTSTYLE
  7
STANDARD
  9
$CLAYER
  8
0
  9
$CELTYPE
  6
BYLAYER
  9
$CECOLOR
 62
   256
  9
$DIMSCALE
 40
1.0
  9
$DIMASZ
 40
3.302
  9
$DIMEXO
 40
1.0
  9
$DIMDLI
 40
3.75
  9
$DIMRND
 40
0.0
  9
$DIMDLE
 40
0.0
  9
$DIMEXE
 40
1.0
  9
$DIMTP
 40
0.0
  9
$DIMTM
 40
0.0
  9
$DIMTXT
 40
3.5
  9
$DIMCEN
 40
2.5
  9
$DIMTSZ
 40
0.0
  9
$DIMTOL
 70
     0
  9
$DIMLIM
 70
     0
  9
$DIMTIH
 70
     1
  9
$DIMTOH
 70
     1
  9
$DIMSE1
 70
     0
  9
$DIMSE2
 70
     0
  9
$DIMTAD
 70
     1
  9
$DIMZIN
 70
     0
  9
$DIMBLK
  1

  9
$DIMASO
 70
     1
  9
$DIMSHO
 70
     1
  9
$DIMPOST
  1

  9
$DIMAPOST
  1

  9
$DIMALT
 70
     0
  9
$DIMALTD
 70
     3
  9
$DIMALTF
 40
0.0393700787
  9
$DIMLFAC
 40
1.0
  9
$DIMTOFL
 70
     1
  9
$DIMTVP
 40
0.0
  9
$DIMTIX
 70
     0
  9
$DIMSOXD
 70
     0
  9
$DIMSAH
 70
     0
  9
$DIMBLK1
  1

  9
$DIMBLK2
  1

  9
$DIMSTYLE
  2
ISO-25
  9
$DIMCLRD
 70
     0
  9
$DIMCLRE
 70
     0
  9
$DIMCLRT
 70
     0
  9
$DIMTFAC
 40
1.0
  9
$DIMGAP
 40
1.524
  9
$LUNITS
 70
     2
  9
$LUPREC
 70
     2
  9
$SKETCHINC
 40
1.0
  9
$FILLETRAD
 40
10.0
  9
$AUNITS
 70
     0
  9
$AUPREC
 70
     2
  9
$MENU
  1
.
  9
$ELEVATION
 40
0.0
  9
$PELEVATION
 40
0.0
  9
$THICKNESS
 40
0.0
  9
$LIMCHECK
 70
     0
  9
$CHAMFERA
 40
10.0
  9
$CHAMFERB
 40
10.0
  9
$SKPOLY
 70
     0
  9
$TDCREATE
 40
2458222.326750278
  9
$TDUPDATE
 40
2458222.326750996
  9
$TDINDWG
 40
0.0000000116
  9
$TDUSRTIMER
 40
0.0000000116
  9
$USRTIMER
 70
     1
  9
$ANGBASE
 50
0.0
  9
$ANGDIR
 70
     0
  9
$PDMODE
 70
     0
  9
$PDSIZE
 40
-1.0
  9
$PLINEWID
 40
0.0
  9
$COORDS
 70
     1
  9
$SPLFRAME
 70
     0
  9
$SPLINETYPE
 70
     6
  9
$SPLINESEGS
 70
     8
  9
$ATTDIA
 70
     0
  9
$ATTREQ
 70
     1
  9
$HANDLING
 70
     1
  9
$HANDSEED
  5
9D9
  9
$SURFTAB1
 70
     6
  9
$SURFTAB2
 70
     6
  9
$SURFTYPE
 70
     6
  9
$SURFU
 70
     6
  9
$SURFV
 70
     6
  9
$UCSNAME
  2

  9
$UCSORG
 10
0.0
 20
0.0
 30
0.0
  9
$UCSXDIR
 10
1.0
 20
0.0
 30
0.0
  9
$UCSYDIR
 10
0.0
 20
1.0
 30
0.0
  9
$PUCSNAME
  2

  9
$PUCSORG
 10
0.0
 20
0.0
 30
0.0
  9
$PUCSXDIR
 10
1.0
 20
0.0
 30
0.0
  9
$PUCSYDIR
 10
0.0
 20
1.0
 30
0.0
  9
$USERI1
 70
     0
  9
$USERI2
 70
     0
  9
$USERI3
 70
     0
  9
$USERI4
 70
     0
  9
$USERI5
 70
     0
  9
$USERR1
 40
0.0
  9
$USERR2
 40
0.0
  9
$USERR3
 40
0.0
  9
$USERR4
 40
0.0
  9
$USERR5
 40
0.0
  9
$WORLDVIEW
 70
     1
  9
$SHADEDGE
 70
     3
  9
$SHADEDIF
 70
    70
  9
$TILEMODE
 70
     1
  9
$MAXACTVP
 70
    64
  9
$PLIMCHECK
 70
     0
  9
$PEXTMIN
 10
1.0000000000E+20
 20
1.0000000000E+20
 30
1.0000000000E+20
  9
$PEXTMAX
 10
-1.0000000000E+20
 20
-1.0000000000E+20
 30
-1.0000000000E+20
  9
$PLIMMIN
 10
0.0
 20
0.0
  9
$PLIMMAX
 10
420.0
 20
297.0
  9
$UNITMODE
 70
     0
  9
$VISRETAIN
 70
     1
  9
$PLINEGEN
 70
     0
  9
$PSLTSCALE
 70
     1
  0
ENDSEC
  0
SECTION
  2
TABLES
  0
TABLE
  2
VPORT
 70
     1
  0
VPORT
  2
*ACTIVE
 70
     0
 10
0.0
 20
0.0
 11
1.0
 21
1.0
 12
2400.0
 22
1800.0
 13
0.0
 23
0.0
 14
10.0
 24
10.0
 15
10.0
 25
10.0
 16
0.0
 26
0.0
 36
1.0
 17
0.0
 27
0.0
 37
0.0
 40
3600.0
 41
1.3333333333
 42
50.0
 43
0.0
 44
0.0
 50
0.0
 51
0.0
 71
     0
 72
  2000
 73
     1
 74
     3
 75
     0
 76
     0
 77
     0
 78
     0
  0
ENDTAB
  0
TABLE
  2
LTYPE
 70
     6
  0
LTYPE
  2
CONTINUOUS
 70
     0
  3
Solid line
 72
    65
 73
     0
 40
0.0
  0
LTYPE
  2
HIDDEN
 70
     0
  3
Hidden __ __ __ __ __ __ __ __ __ __ __ __ __ __
 72
    65
 73
     2
 40
1.905
 49
1.27
 49
-0.635
  0
LTYPE
  2
PHANTOM
 70
     0
  3
Phantom ______  __  __  ______  __  __  ______
 72
    65
 73
     6
 40
12.7
 49
6.35
 49
-1.27
 49
1.27
 49
-1.27
 49
1.27
 49
-1.27
  0
LTYPE
  2
CENTER
 70
     0
  3
Center ____ _ ____ _ ____ _ ____ _ ____ _ ____
 72
    65
 73
     4
 40
10.16
 49
6.35
 49
-1.27
 49
1.27
 49
-1.27
  0
LTYPE
  2
CENTERX2
 70
     0
  3
Center (2x) ________  __  ________  __  _____
 72
    65
 73
     4
 40
20.32
 49
12.7
 49
-2.54
 49
2.54
 49
-2.54
  0
LTYPE
  2
DOT2
 70
     0
  3
Dot (.5x) ........................................
 72
    65
 73
     2
 40
0.635
 49
0.0
 49
-0.635
  0
ENDTAB
  0
TABLE
  2
LAYER
 70
     3
  0
LAYER
  2
0
 70
     0
 62
     7
  6
CONTINUOUS
  0
LAYER
  2
FORMAT
 70
     0
 62
     7
  6
CONTINUOUS
  0
LAYER
  2
PROTOTYPE
 70
     0
 62
    -7
  6
CONTINUOUS
  0
ENDTAB
  0
TABLE
  2
STYLE
 70
     1
  0
STYLE
  2
STANDARD
 70
     0
 40
0.0
 41
1.0
 50
0.0
 71
     0
 42
3.5
  3
txt
  4

  0
ENDTAB
  0
TABLE
  2
VIEW
 70
     0
  0
ENDTAB
  0
TABLE
  2
UCS
 70
     0
  0
ENDTAB
  0
TABLE
  2
APPID
 70
     1
  0
APPID
  2
ACAD
 70
     0
  0
ENDTAB
  0
TABLE
  2
DIMSTYLE
 70
     1
  0
DIMSTYLE
  2
ISO-25
 70
     0
  3

  4

  5

  6

  7

 40
1.0
 41
2.5
 42
0.625
 43
3.75
 44
1.25
 45
0.0
 46
0.0
 47
0.0
 48
0.0
140
2.5
141
2.5
142
0.0
143
0.0393700787
144
1.0
145
0.0
146
1.0
147
0.625
 71
     0
 72
     0
 73
     0
 74
     0
 75
     0
 76
     0
 77
     1
 78
     8
170
     0
171
     3
172
     1
173
     0
174
     0
175
     0
176
     0
177
     0
178
     0
  0
ENDTAB
  0
ENDSEC
  0
SECTION
  2
BLOCKS
  0
BLOCK
  8
0
  2
$MODEL_SPACE
 70
     0
 10
0.0
 20
0.0
 30
0.0
  3
$MODEL_SPACE
  1

  0
ENDBLK
  5
21
  8
0
  0
BLOCK
 67
     1
  8
0
  2
$PAPER_SPACE
 70
     0
 10
0.0
 20
0.0
 30
0.0
  3
$PAPER_SPACE
  1

  0
ENDBLK
  5
1D
 67
     1
  8
0
  0
BLOCK
  8
0
  2
SW_CENTERMARKSYMBOL_0
 70
     0
 10
0.0
 20
0.0
 30
0.0
  3
SW_CENTERMARKSYMBOL_0
  1

  0
LINE
  5
101
  8
FORMAT
 62
     0
 10
0.0
 20
0.0
 30
0.0
 11
0.0
 21
2.5
 31
0.0
  0
LINE
  5
102
  8
FORMAT
 62
     0
 10
0.0
 20
0.0
 30
0.0
 11
-2.5
 21
0.0
 31
0.0
  0
LINE
  5
103
  8
FORMAT
 62
     0
 10
0.0
 20
0.0
 30
0.0
 11
0.0
 21
-2.5
 31
0.0
  0
LINE
  5
104
  8
FORMAT
 62
     0
 10
0.0
 20
0.0
 30
0.0
 11
2.5
 21
0.0
 31
0.0
  0
LINE
  5
105
  8
FORMAT
 62
     0
 10
0.0
 20
5.0
 30
0.0
 11
0.0
 21
558.5
 31
0.0
  0
LINE
  5
106
  8
FORMAT
 62
     0
 10
-5.0
 20
0.0
 30
0.0
 11
-558.5
 21
0.0
 31
0.0
  0
LINE
  5
107
  8
FORMAT
 62
     0
 10
0.0
 20
-5.0
 30
0.0
 11
0.0
 21
-558.5
 31
0.0
  0
LINE
  5
108
  8
FORMAT
 62
     0
 10
5.0
 20
0.0
 30
0.0
 11
558.5
 21
0.0
 31
0.0
  0
ENDBLK
  5
100
  8
0
  0
BLOCK
  8
0
  2
SW_CENTERMARKSYMBOL_1
 70
     0
 10
0.0
 20
0.0
 30
0.0
  3
SW_CENTERMARKSYMBOL_1
  1

  0
LINE
  5
301
  8
FORMAT
 62
     0
 10
0.0
 20
0.0
 30
0.0
 11
0.0
 21
2.5
 31
0.0
  0
LINE
  5
302
  8
FORMAT
 62
     0
 10
0.0
 20
0.0
 30
0.0
 11
-2.5
 21
0.0
 31
0.0
  0
LINE
  5
303
  8
FORMAT
 62
     0
 10
0.0
 20
0.0
 30
0.0
 11
0.0
 21
-2.5
 31
0.0
  0
LINE
  5
304
  8
FORMAT
 62
     0
 10
0.0
 20
0.0
 30
0.0
 11
2.5
 21
0.0
 31
0.0
  0
LINE
  5
305
  8
FORMAT
 62
     0
 10
0.0
 20
5.0
 30
0.0
 11
0.0
 21
152.5
 31
0.0
  0
LINE
  5
306
  8
FORMAT
 62
     0
 10
-5.0
 20
0.0
 30
0.0
 11
-152.5
 21
0.0
 31
0.0
  0
LINE
  5
307
  8
FORMAT
 62
     0
 10
0.0
 20
-5.0
 30
0.0
 11
0.0
 21
-152.5
 31
0.0
  0
LINE
  5
308
  8
FORMAT
 62
     0
 10
5.0
 20
0.0
 30
0.0
 11
152.5
 21
0.0
 31
0.0
  0
ENDBLK
  5
300
  8
0
  0
ENDSEC
  0
SECTION
  2
ENTITIES
  0
POLYLINE
  5
46
  8
0
  6
CONTINUOUS
 62
     7
 66
     1
 10
0.0
 20
0.0
 30
0.0
  0
VERTEX
  5
30A
  8
0
  6
CONTINUOUS
 62
     7
 10
423.1962269549
 20
2813.7431861109
 30
0.0
  0
VERTEX
  5
30B
  8
0
  6
CONTINUOUS
 62
     7
 10
423.8578385119
 20
2813.7372256464
 30
0.0
  0
VERTEX
  5
30C
  8
0
  6
CONTINUOUS
 62
     7
 10
425.3828829531
 20
2813.72572195
 30
0.0
  0
VERTEX
  5
30D
  8
0
  6
CONTINUOUS
 62
     7
 10
427.2073811297
 20
2813.7145162768
 30
0.0
  0
VERTEX
  5
30E
  8
0
  6
CONTINUOUS
 62
     7
 10
429.3332403902
 20
2813.7034298128
 30
0.0
  0
VERTEX
  5
30F
  8
0
  6
CONTINUOUS
 62
     7
 10
431.7622488741
 20
2813.6924625582
 30
0.0
  0
VERTEX
  5
310
  8
0
  6
CONTINUOUS
 62
     7
 10
434.4939297442
 20
2813.6816145128
 30
0.0
  0
VERTEX
  5
311
  8
0
  6
CONTINUOUS
 62
     7
 10
437.5269716982
 20
2813.6708856768
 30
0.0
  0
VERTEX
  5
312
  8
0
  6
CONTINUOUS
 62
     7
 10
440.8588713412
 20
2813.66027605
 30
0.0
  0
VERTEX
  5
313
  8
0
  6
CONTINUOUS
 62
     7
 10
444.4871252779
 20
2813.6497856325
 30
0.0
  0
VERTEX
  5
314
  8
0
  6
CONTINUOUS
 62
     7
 10
448.408634067
 20
2813.6394144243
 30
0.0
  0
VERTEX
  5
315
  8
0
  6
CONTINUOUS
 62
     7
 10
452.6197022204
 20
2813.6292220301
 30
0.0
  0
VERTEX
  5
316
  8
0
  6
CONTINUOUS
 62
     7
 10
457.1168726687
 20
2813.6191488451
 30
0.0
  0
VERTEX
  5
317
  8
0
  6
CONTINUOUS
 62
     7
 10
461.8957346682
 20
2813.6091948694
 30
0.0
  0
VERTEX
  5
318
  8
0
  6
CONTINUOUS
 62
     7
 10
466.9519966845
 20
2813.5994793123
 30
0.0
  0
VERTEX
  5
319
  8
0
  6
CONTINUOUS
 62
     7
 10
472.2811287646
 20
2813.5898829645
 30
0.0
  0
VERTEX
  5
31A
  8
0
  6
CONTINUOUS
 62
     7
 10
477.878004909
 20
2813.5804654307
 30
0.0
  0
VERTEX
  5
31B
  8
0
  6
CONTINUOUS
 62
     7
 10
483.7374991183
 20
2813.5712863154
 30
0.0
  0
VERTEX
  5
31C
  8
0
  6
CONTINUOUS
 62
     7
 10
489.8541277651
 20
2813.5622264094
 30
0.0
  0
VERTEX
  5
31D
  8
0
  6
CONTINUOUS
 62
     7
 10
496.2222880129
 20
2813.5534645266
 30
0.0
  0
VERTEX
  5
31E
  8
0
  6
CONTINUOUS
 62
     7
 10
502.8359001879
 20
2813.5448814577
 30
0.0
  0
VERTEX
  5
31F
  8
0
  6
CONTINUOUS
 62
     7
 10
509.6890038256
 20
2813.5364772028
 30
0.0
  0
VERTEX
  5
320
  8
0
  6
CONTINUOUS
 62
     7
 10
516.7749232058
 20
2813.5283709711
 30
0.0
  0
VERTEX
  5
321
  8
0
  6
CONTINUOUS
 62
     7
 10
524.0873402361
 20
2813.5204435534
 30
0.0
  0
VERTEX
  5
322
  8
0
  6
CONTINUOUS
 62
     7
 10
531.6191023592
 20
2813.5128141588
 30
0.0
  0
VERTEX
  5
323
  8
0
  6
CONTINUOUS
 62
     7
 10
539.3634146456
 20
2813.5054231829
 30
0.0
  0
VERTEX
  5
324
  8
0
  6
CONTINUOUS
 62
     7
 10
547.3130053286
 20
2813.4982706255
 30
0.0
  0
VERTEX
  5
325
  8
0
  6
CONTINUOUS
 62
     7
 10
555.4603642229
 20
2813.4914160914
 30
0.0
  0
VERTEX
  5
326
  8
0
  6
CONTINUOUS
 62
     7
 10
563.7978619341
 20
2813.4847999758
 30
0.0
  0
VERTEX
  5
327
  8
0
  6
CONTINUOUS
 62
     7
 10
572.317809463
 20
2813.4784818835
 30
0.0
  0
VERTEX
  5
328
  8
0
  6
CONTINUOUS
 62
     7
 10
581.0121601824
 20
2813.4724618143
 30
0.0
  0
VERTEX
  5
329
  8
0
  6
CONTINUOUS
 62
     7
 10
589.8728078608
 20
2813.4667397684
 30
0.0
  0
VERTEX
  5
32A
  8
0
  6
CONTINUOUS
 62
     7
 10
598.8914078478
 20
2813.4612561411
 30
0.0
  0
VERTEX
  5
32B
  8
0
  6
CONTINUOUS
 62
     7
 10
608.0595558886
 20
2813.4561301417
 30
0.0
  0
VERTEX
  5
32C
  8
0
  6
CONTINUOUS
 62
     7
 10
617.3687285189
 20
2813.4513021654
 30
0.0
  0
VERTEX
  5
32D
  8
0
  6
CONTINUOUS
 62
     7
 10
626.810163856
 20
2813.4467722124
 30
0.0
  0
VERTEX
  5
32E
  8
0
  6
CONTINUOUS
 62
     7
 10
636.3750404124
 20
2813.4425402827
 30
0.0
  0
VERTEX
  5
32F
  8
0
  6
CONTINUOUS
 62
     7
 10
646.0544174914
 20
2813.4386659807
 30
0.0
  0
VERTEX
  5
330
  8
0
  6
CONTINUOUS
 62
     7
 10
655.839235187
 20
2813.4350897021
 30
0.0
  0
VERTEX
  5
331
  8
0
  6
CONTINUOUS
 62
     7
 10
665.7203143839
 20
2813.4318710512
 30
0.0
  0
VERTEX
  5
332
  8
0
  6
CONTINUOUS
 62
     7
 10
675.6884163622
 20
2813.4289504236
 30
0.0
  0
VERTEX
  5
333
  8
0
  6
CONTINUOUS
 62
     7
 10
685.7342427973
 20
2813.4263278193
 30
0.0
  0
VERTEX
  5
334
  8
0
  6
CONTINUOUS
 62
     7
 10
695.8484357599
 20
2813.4241224474
 30
0.0
  0
VERTEX
  5
335
  8
0
  6
CONTINUOUS
 62
     7
 10
706.0213989023
 20
2813.4221554941
 30
0.0
  0
VERTEX
  5
336
  8
0
  6
CONTINUOUS
 62
     7
 10
716.2437146906
 20
2813.4206057734
 30
0.0
  0
VERTEX
  5
337
  8
0
  6
CONTINUOUS
 62
     7
 10
726.5057867769
 20
2813.4193540758
 30
0.0
  0
VERTEX
  5
338
  8
0
  6
CONTINUOUS
 62
     7
 10
736.7979592089
 20
2813.4184600062
 30
0.0
  0
VERTEX
  5
339
  8
0
  6
CONTINUOUS
 62
     7
 10
747.1107548479
 20
2813.4179235644
 30
0.0
  0
VERTEX
  5
33A
  8
0
  6
CONTINUOUS
 62
     7
 10
757.4343389277
 20
2813.4176851458
 30
0.0
  0
VERTEX
  5
33B
  8
0
  6
CONTINUOUS
 62
     7
 10
767.7592343096
 20
2813.4178043551
 30
0.0
  0
VERTEX
  5
33C
  8
0
  6
CONTINUOUS
 62
     7
 10
778.0756062273
 20
2813.4182811922
 30
0.0
  0
VERTEX
  5
33D
  8
0
  6
CONTINUOUS
 62
     7
 10
788.3739179377
 20
2813.4191156573
 30
0.0
  0
VERTEX
  5
33E
  8
0
  6
CONTINUOUS
 62
     7
 10
798.6444538836
 20
2813.4202481455
 30
0.0
  0
VERTEX
  5
33F
  8
0
  6
CONTINUOUS
 62
     7
 10
808.8776773218
 20
2813.4217382616
 30
0.0
  0
VERTEX
  5
340
  8
0
  6
CONTINUOUS
 62
     7
 10
819.0639919047
 20
2813.4235860056
 30
0.0
  0
VERTEX
  5
341
  8
0
  6
CONTINUOUS
 62
     7
 10
829.1938608889
 20
2813.4257317728
 30
0.0
  0
VERTEX
  5
342
  8
0
  6
CONTINUOUS
 62
     7
 10
839.2577475313
 20
2813.4282351679
 30
0.0
  0
VERTEX
  5
343
  8
0
  6
CONTINUOUS
 62
     7
 10
849.2462939028
 20
2813.4310961909
 30
0.0
  0
VERTEX
  5
344
  8
0
  6
CONTINUOUS
 62
     7
 10
859.1502016787
 20
2813.434255237
 30
0.0
  0
VERTEX
  5
345
  8
0
  6
CONTINUOUS
 62
     7
 10
868.9601129297
 20
2813.4377123064
 30
0.0
  0
VERTEX
  5
346
  8
0
  6
CONTINUOUS
 62
     7
 10
878.6668485407
 20
2813.4415270037
 30
0.0
  0
VERTEX
  5
347
  8
0
  6
CONTINUOUS
 62
     7
 10
888.2614082102
 20
2813.4456993288
 30
0.0
  0
VERTEX
  5
348
  8
0
  6
CONTINUOUS
 62
     7
 10
897.7347916369
 20
2813.4501100725
 30
0.0
  0
VERTEX
  5
349
  8
0
  6
CONTINUOUS
 62
     7
 10
907.078058124
 20
2813.4548784441
 30
0.0
  0
VERTEX
  5
34A
  8
0
  6
CONTINUOUS
 62
     7
 10
916.2825053934
 20
2813.4599448389
 30
0.0
  0
VERTEX
  5
34B
  8
0
  6
CONTINUOUS
 62
     7
 10
925.339609981
 20
2813.465309257
 30
0.0
  0
VERTEX
  5
34C
  8
0
  6
CONTINUOUS
 62
     7
 10
934.2407888178
 20
2813.4709716982
 30
0.0
  0
VERTEX
  5
34D
  8
0
  6
CONTINUOUS
 62
     7
 10
942.9777568583
 20
2813.4769321627
 30
0.0
  0
VERTEX
  5
34E
  8
0
  6
CONTINUOUS
 62
     7
 10
951.5422886614
 20
2813.4831906504
 30
0.0
  0
VERTEX
  5
34F
  8
0
  6
CONTINUOUS
 62
     7
 10
959.9264568094
 20
2813.4897471613
 30
0.0
  0
VERTEX
  5
350
  8
0
  6
CONTINUOUS
 62
     7
 10
968.1223934893
 20
2813.4965420908
 30
0.0
  0
VERTEX
  5
351
  8
0
  6
CONTINUOUS
 62
     7
 10
976.1224097018
 20
2813.5035754389
 30
0.0
  0
VERTEX
  5
352
  8
0
  6
CONTINUOUS
 62
     7
 10
983.9190548662
 20
2813.5109068102
 30
0.0
  0
VERTEX
  5
353
  8
0
  6
CONTINUOUS
 62
     7
 10
991.5049976115
 20
2813.5185362047
 30
0.0
  0
VERTEX
  5
354
  8
0
  6
CONTINUOUS
 62
     7
 10
998.8732045893
 20
2813.5263444132
 30
0.0
  0
VERTEX
  5
355
  8
0
  6
CONTINUOUS
 62
     7
 10
1006.016761661
 20
2813.5343910403
 30
0.0
  0
VERTEX
  5
356
  8
0
  6
CONTINUOUS
 62
     7
 10
1012.9289335016
 20
2813.5427356905
 30
0.0
  0
VERTEX
  5
357
  8
0
  6
CONTINUOUS
 62
     7
 10
1019.603402019
 20
2813.5512591547
 30
0.0
  0
VERTEX
  5
358
  8
0
  6
CONTINUOUS
 62
     7
 10
1026.0337895159
 20
2813.5600210375
 30
0.0
  0
VERTEX
  5
359
  8
0
  6
CONTINUOUS
 62
     7
 10
1032.214135528
 20
2813.5689617342
 30
0.0
  0
VERTEX
  5
35A
  8
0
  6
CONTINUOUS
 62
     7
 10
1038.138777614
 20
2813.5781408495
 30
0.0
  0
VERTEX
  5
35B
  8
0
  6
CONTINUOUS
 62
     7
 10
1043.8020533327
 20
2813.5874987787
 30
0.0
  0
VERTEX
  5
35C
  8
0
  6
CONTINUOUS
 62
     7
 10
1049.19877708
 20
2813.5970355219
 30
0.0
  0
VERTEX
  5
35D
  8
0
  6
CONTINUOUS
 62
     7
 10
1054.323882461
 20
2813.606751079
 30
0.0
  0
VERTEX
  5
35E
  8
0
  6
CONTINUOUS
 62
     7
 10
1059.1726607088
 20
2813.6165858454
 30
0.0
  0
VERTEX
  5
35F
  8
0
  6
CONTINUOUS
 62
     7
 10
1063.7406414751
 20
2813.6266590304
 30
0.0
  0
VERTEX
  5
360
  8
0
  6
CONTINUOUS
 62
     7
 10
1068.0235928301
 20
2813.6368514246
 30
0.0
  0
VERTEX
  5
361
  8
0
  6
CONTINUOUS
 62
     7
 10
1072.0175808672
 20
2813.6471630282
 30
0.0
  0
VERTEX
  5
362
  8
0
  6
CONTINUOUS
 62
     7
 10
1075.7189995054
 20
2813.657593841
 30
0.0
  0
VERTEX
  5
363
  8
0
  6
CONTINUOUS
 62
     7
 10
1079.1245704893
 20
2813.6682034678
 30
0.0
  0
VERTEX
  5
364
  8
0
  6
CONTINUOUS
 62
     7
 10
1082.231343389
 20
2813.6788726992
 30
0.0
  0
VERTEX
  5
365
  8
0
  6
CONTINUOUS
 62
     7
 10
1085.0367254023
 20
2813.6896611399
 30
0.0
  0
VERTEX
  5
366
  8
0
  6
CONTINUOUS
 62
     7
 10
1087.5386005644
 20
2813.7005687899
 30
0.0
  0
VERTEX
  5
367
  8
0
  6
CONTINUOUS
 62
     7
 10
1089.7354787592
 20
2813.7115956492
 30
0.0
  0
VERTEX
  5
368
  8
0
  6
CONTINUOUS
 62
     7
 10
1091.6266149287
 20
2813.7226821131
 30
0.0
  0
VERTEX
  5
369
  8
0
  6
CONTINUOUS
 62
     7
 10
1093.2127839331
 20
2813.733947391
 30
0.0
  0
VERTEX
  5
36A
  8
0
  6
CONTINUOUS
 62
     7
 10
1094.4979792837
 20
2813.7454510874
 30
0.0
  0
VERTEX
  5
36B
  8
0
  6
CONTINUOUS
 62
     7
 10
1095.4954332117
 20
2813.7574912256
 30
0.0
  0
VERTEX
  5
36C
  8
0
  6
CONTINUOUS
 62
     7
 10
1096.2650185827
 20
2813.7720943636
 30
0.0
  0
VERTEX
  5
36D
  8
0
  6
CONTINUOUS
 62
     7
 10
1096.7412000899
 20
2813.7889028734
 30
0.0
  0
VERTEX
  5
36E
  8
0
  6
CONTINUOUS
 62
     7
 10
1097.0407432322
 20
2813.8061286158
 30
0.0
  0
VERTEX
  5
36F
  8
0
  6
CONTINUOUS
 62
     7
 10
1097.3730987314
 20
2813.8328911013
 30
0.0
  0
VERTEX
  5
370
  8
0
  6
CONTINUOUS
 62
     7
 10
1097.7267330889
 20
2813.8707996554
 30
0.0
  0
VERTEX
  5
371
  8
0
  6
CONTINUOUS
 62
     7
 10
1098.2104843859
 20
2813.938987369
 30
0.0
  0
VERTEX
  5
372
  8
0
  6
CONTINUOUS
 62
     7
 10
1098.8456612829
 20
2814.0578390307
 30
0.0
  0
VERTEX
  5
373
  8
0
  6
CONTINUOUS
 62
     7
 10
1099.6802753214
 20
2814.2665744967
 30
0.0
  0
VERTEX
  5
374
  8
0
  6
CONTINUOUS
 62
     7
 10
1100.7955378298
 20
2814.644229526
 30
0.0
  0
VERTEX
  5
375
  8
0
  6
CONTINUOUS
 62
     7
 10
1102.0851737265
 20
2815.2362228579
 30
0.0
  0
VERTEX
  5
376
  8
0
  6
CONTINUOUS
 62
     7
 10
1103.3949559931
 20
2816.0365344233
 30
0.0
  0
VERTEX
  5
377
  8
0
  6
CONTINUOUS
 62
     7
 10
1104.6877211336
 20
2817.0740724749
 30
0.0
  0
VERTEX
  5
378
  8
0
  6
CONTINUOUS
 62
     7
 10
1105.8912283186
 20
2818.3451415247
 30
0.0
  0
VERTEX
  5
379
  8
0
  6
CONTINUOUS
 62
     7
 10
1106.9359785322
 20
2819.8223234362
 30
0.0
  0
VERTEX
  5
37A
  8
0
  6
CONTINUOUS
 62
     7
 10
1107.7702647452
 20
2821.4674712366
 30
0.0
  0
VERTEX
  5
37B
  8
0
  6
CONTINUOUS
 62
     7
 10
1108.3584731821
 20
2823.2378483958
 30
0.0
  0
VERTEX
  5
37C
  8
0
  6
CONTINUOUS
 62
     7
 10
1108.6778050665
 20
2825.0877977556
 30
0.0
  0
VERTEX
  5
37D
  8
0
  6
CONTINUOUS
 62
     7
 10
1108.7061768774
 20
2827.1327139086
 30
0.0
  0
VERTEX
  5
37E
  8
0
  6
CONTINUOUS
 62
     7
 10
1108.4232336287
 20
2829.0578843302
 30
0.0
  0
VERTEX
  5
37F
  8
0
  6
CONTINUOUS
 62
     7
 10
1107.8785365824
 20
2830.8307648844
 30
0.0
  0
VERTEX
  5
380
  8
0
  6
CONTINUOUS
 62
     7
 10
1107.1176832918
 20
2832.432937736
 30
0.0
  0
VERTEX
  5
381
  8
0
  6
CONTINUOUS
 62
     7
 10
1106.1843937639
 20
2833.8503957934
 30
0.0
  0
VERTEX
  5
382
  8
0
  6
CONTINUOUS
 62
     7
 10
1105.1215237383
 20
2835.0743175692
 30
0.0
  0
VERTEX
  5
383
  8
0
  6
CONTINUOUS
 62
     7
 10
1103.9718693499
 20
2836.1013652033
 30
0.0
  0
VERTEX
  5
384
  8
0
  6
CONTINUOUS
 62
     7
 10
1102.7793294195
 20
2836.9334460444
 30
0.0
  0
VERTEX
  5
385
  8
0
  6
CONTINUOUS
 62
     7
 10
1101.5924221281
 20
2837.5772954172
 30
0.0
  0
VERTEX
  5
386
  8
0
  6
CONTINUOUS
 62
     7
 10
1100.4741495852
 20
2838.0429269022
 30
0.0
  0
VERTEX
  5
387
  8
0
  6
CONTINUOUS
 62
     7
 10
1099.5121902231
 20
2838.3466125674
 30
0.0
  0
VERTEX
  5
388
  8
0
  6
CONTINUOUS
 62
     7
 10
1098.7659698729
 20
2838.5251880831
 30
0.0
  0
VERTEX
  5
389
  8
0
  6
CONTINUOUS
 62
     7
 10
1098.2015138869
 20
2838.6287213511
 30
0.0
  0
VERTEX
  5
38A
  8
0
  6
CONTINUOUS
 62
     7
 10
1097.7581447367
 20
2838.6916042513
 30
0.0
  0
VERTEX
  5
38B
  8
0
  6
CONTINUOUS
 62
     7
 10
1097.4074906115
 20
2838.7301088518
 30
0.0
  0
VERTEX
  5
38C
  8
0
  6
CONTINUOUS
 62
     7
 10
1097.1156662707
 20
2838.7548447794
 30
0.0
  0
VERTEX
  5
38D
  8
0
  6
CONTINUOUS
 62
     7
 10
1096.8595153097
 20
2838.7712956614
 30
0.0
  0
VERTEX
  5
38E
  8
0
  6
CONTINUOUS
 62
     7
 10
1096.6144806151
 20
2838.7829185671
 30
0.0
  0
VERTEX
  5
38F
  8
0
  6
CONTINUOUS
 62
     7
 10
1096.3297194247
 20
2838.7924553103
 30
0.0
  0
VERTEX
  5
390
  8
0
  6
CONTINUOUS
 62
     7
 10
1095.8198612932
 20
2838.8036013788
 30
0.0
  0
VERTEX
  5
391
  8
0
  6
CONTINUOUS
 62
     7
 10
1094.9490672354
 20
2838.8158799357
 30
0.0
  0
VERTEX
  5
392
  8
0
  6
CONTINUOUS
 62
     7
 10
1093.8377386336
 20
2838.8270856089
 30
0.0
  0
VERTEX
  5
393
  8
0
  6
CONTINUOUS
 62
     7
 10
1092.3540896181
 20
2838.8387085146
 30
0.0
  0
VERTEX
  5
394
  8
0
  6
CONTINUOUS
 62
     7
 10
1090.5778712038
 20
2838.8499737925
 30
0.0
  0
VERTEX
  5
395
  8
0
  6
CONTINUOUS
 62
     7
 10
1088.500887752
 20
2838.8610602564
 30
0.0
  0
VERTEX
  5
396
  8
0
  6
CONTINUOUS
 62
     7
 10
1086.1208444838
 20
2838.872027511
 30
0.0
  0
VERTEX
  5
397
  8
0
  6
CONTINUOUS
 62
     7
 10
1083.4379202132
 20
2838.8828755564
 30
0.0
  0
VERTEX
  5
398
  8
0
  6
CONTINUOUS
 62
     7
 10
1080.4534858469
 20
2838.8936639971
 30
0.0
  0
VERTEX
  5
399
  8
0
  6
CONTINUOUS
 62
     7
 10
1077.16965735
 20
2838.9042736239
 30
0.0
  0
VERTEX
  5
39A
  8
0
  6
CONTINUOUS
 62
     7
 10
1073.5890573267
 20
2838.9147640414
 30
0.0
  0
VERTEX
  5
39B
  8
0
  6
CONTINUOUS
 62
     7
 10
1069.714725614
 20
2838.9251948542
 30
0.0
  0
VERTEX
  5
39C
  8
0
  6
CONTINUOUS
 62
     7
 10
1065.5501192812
 20
2838.9353872484
 30
0.0
  0
VERTEX
  5
39D
  8
0
  6
CONTINUOUS
 62
     7
 10
1061.0989636187
 20
2838.9455200381
 30
0.0
  0
VERTEX
  5
39E
  8
0
  6
CONTINUOUS
 62
     7
 10
1056.3652819399
 20
2838.9554740137
 30
0.0
  0
VERTEX
  5
39F
  8
0
  6
CONTINUOUS
 62
     7
 10
1051.3534849886
 20
2838.9652491755
 30
0.0
  0
VERTEX
  5
3A0
  8
0
  6
CONTINUOUS
 62
     7
 10
1046.0681623224
 20
2838.9748455233
 30
0.0
  0
VERTEX
  5
3A1
  8
0
  6
CONTINUOUS
 62
     7
 10
1040.5142015223
 20
2838.9842630572
 30
0.0
  0
VERTEX
  5
3A2
  8
0
  6
CONTINUOUS
 62
     7
 10
1034.6967285876
 20
2838.9935017771
 30
0.0
  0
VERTEX
  5
3A3
  8
0
  6
CONTINUOUS
 62
     7
 10
1028.6212271456
 20
2839.0025616831
 30
0.0
  0
VERTEX
  5
3A4
  8
0
  6
CONTINUOUS
 62
     7
 10
1022.2933596377
 20
2839.0113831705
 30
0.0
  0
VERTEX
  5
3A5
  8
0
  6
CONTINUOUS
 62
     7
 10
1015.7189077143
 20
2839.020025844
 30
0.0
  0
VERTEX
  5
3A6
  8
0
  6
CONTINUOUS
 62
     7
 10
1008.9041298632
 20
2839.0284300989
 30
0.0
  0
VERTEX
  5
3A7
  8
0
  6
CONTINUOUS
 62
     7
 10
1001.8553441767
 20
2839.0365959353
 30
0.0
  0
VERTEX
  5
3A8
  8
0
  6
CONTINUOUS
 62
     7
 10
994.5791071657
 20
2839.044523353
 30
0.0
  0
VERTEX
  5
3A9
  8
0
  6
CONTINUOUS
 62
     7
 10
987.0822137598
 20
2839.0522123522
 30
0.0
  0
VERTEX
  5
3AA
  8
0
  6
CONTINUOUS
 62
     7
 10
979.3717569117
 20
2839.0596629328
 30
0.0
  0
VERTEX
  5
3AB
  8
0
  6
CONTINUOUS
 62
     7
 10
971.4548891787
 20
2839.0668750948
 30
0.0
  0
VERTEX
  5
3AC
  8
0
  6
CONTINUOUS
 62
     7
 10
963.3389419321
 20
2839.0737892336
 30
0.0
  0
VERTEX
  5
3AD
  8
0
  6
CONTINUOUS
 62
     7
 10
955.0316041712
 20
2839.0804053492
 30
0.0
  0
VERTEX
  5
3AE
  8
0
  6
CONTINUOUS
 62
     7
 10
946.5406244997
 20
2839.0867830462
 30
0.0
  0
VERTEX
  5
3AF
  8
0
  6
CONTINUOUS
 62
     7
 10
937.8739303354
 20
2839.0928627199
 30
0.0
  0
VERTEX
  5
3B0
  8
0
  6
CONTINUOUS
 62
     7
 10
929.0395683054
 20
2839.0986443705
 30
0.0
  0
VERTEX
  5
3B1
  8
0
  6
CONTINUOUS
 62
     7
 10
920.0459426646
 20
2839.1041279978
 30
0.0
  0
VERTEX
  5
3B2
  8
0
  6
CONTINUOUS
 62
     7
 10
910.9013384585
 20
2839.1093136019
 30
0.0
  0
VERTEX
  5
3B3
  8
0
  6
CONTINUOUS
 62
     7
 10
901.614338756
 20
2839.1142011828
 30
0.0
  0
VERTEX
  5
3B4
  8
0
  6
CONTINUOUS
 62
     7
 10
892.19370544
 20
2839.1187907404
 30
0.0
  0
VERTEX
  5
3B5
  8
0
  6
CONTINUOUS
 62
     7
 10
882.6481407885
 20
2839.1230226702
 30
0.0
  0
VERTEX
  5
3B6
  8
0
  6
CONTINUOUS
 62
     7
 10
872.9866451029
 20
2839.1270161814
 30
0.0
  0
VERTEX
  5
3B7
  8
0
  6
CONTINUOUS
 62
     7
 10
863.2182782892
 20
2839.1305924601
 30
0.0
  0
VERTEX
  5
3B8
  8
0
  6
CONTINUOUS
 62
     7
 10
853.3521002535
 20
2839.1339303202
 30
0.0
  0
VERTEX
  5
3B9
  8
0
  6
CONTINUOUS
 62
     7
 10
843.3974093203
 20
2839.1369105524
 30
0.0
  0
VERTEX
  5
3BA
  8
0
  6
CONTINUOUS
 62
     7
 10
833.3635038141
 20
2839.1395331568
 30
0.0
  0
VERTEX
  5
3BB
  8
0
  6
CONTINUOUS
 62
     7
 10
823.2597416643
 20
2839.1418577379
 30
0.0
  0
VERTEX
  5
3BC
  8
0
  6
CONTINUOUS
 62
     7
 10
813.095659614
 20
2839.1438246912
 30
0.0
  0
VERTEX
  5
3BD
  8
0
  6
CONTINUOUS
 62
     7
 10
802.8806751971
 20
2839.1454340166
 30
0.0
  0
VERTEX
  5
3BE
  8
0
  6
CONTINUOUS
 62
     7
 10
792.6243847613
 20
2839.1467453188
 30
0.0
  0
VERTEX
  5
3BF
  8
0
  6
CONTINUOUS
 62
     7
 10
782.3363846544
 20
2839.1476989931
 30
0.0
  0
VERTEX
  5
3C0
  8
0
  6
CONTINUOUS
 62
     7
 10
772.0262712244
 20
2839.1482950396
 30
0.0
  0
VERTEX
  5
3C1
  8
0
  6
CONTINUOUS
 62
     7
 10
761.7037600283
 20
2839.1485334582
 30
0.0
  0
VERTEX
  5
3C2
  8
0
  6
CONTINUOUS
 62
     7
 10
751.3784474138
 20
2839.1484738535
 30
0.0
  0
VERTEX
  5
3C3
  8
0
  6
CONTINUOUS
 62
     7
 10
741.0600489382
 20
2839.148056621
 30
0.0
  0
VERTEX
  5
3C4
  8
0
  6
CONTINUOUS
 62
     7
 10
730.7581609492
 20
2839.1472817606
 30
0.0
  0
VERTEX
  5
3C5
  8
0
  6
CONTINUOUS
 62
     7
 10
720.4824393992
 20
2839.146208877
 30
0.0
  0
VERTEX
  5
3C6
  8
0
  6
CONTINUOUS
 62
     7
 10
710.2425402407
 20
2839.1447783655
 30
0.0
  0
VERTEX
  5
3C7
  8
0
  6
CONTINUOUS
 62
     7
 10
700.0480002169
 20
2839.1429902262
 30
0.0
  0
VERTEX
  5
3C8
  8
0
  6
CONTINUOUS
 62
     7
 10
689.9084156756
 20
2839.1409040636
 30
0.0
  0
VERTEX
  5
3C9
  8
0
  6
CONTINUOUS
 62
     7
 10
679.8332041506
 20
2839.1384602732
 30
0.0
  0
VERTEX
  5
3CA
  8
0
  6
CONTINUOUS
 62
     7
 10
669.8318427805
 20
2839.1356588549
 30
0.0
  0
VERTEX
  5
3CB
  8
0
  6
CONTINUOUS
 62
     7
 10
659.9136894945
 20
2839.1325594134
 30
0.0
  0
VERTEX
  5
3CC
  8
0
  6
CONTINUOUS
 62
     7
 10
650.087923408
 20
2839.129102344
 30
0.0
  0
VERTEX
  5
3CD
  8
0
  6
CONTINUOUS
 62
     7
 10
640.36390245
 20
2839.1253472513
 30
0.0
  0
VERTEX
  5
3CE
  8
0
  6
CONTINUOUS
 62
     7
 10
630.7506269221
 20
2839.1212941355
 30
0.0
  0
VERTEX
  5
3CF
  8
0
  6
CONTINUOUS
 62
     7
 10
621.2570971255
 20
2839.1168833918
 30
0.0
  0
VERTEX
  5
3D0
  8
0
  6
CONTINUOUS
 62
     7
 10
611.8921941523
 20
2839.1121746248
 30
0.0
  0
VERTEX
  5
3D1
  8
0
  6
CONTINUOUS
 62
     7
 10
602.6646798853
 20
2839.1071678347
 30
0.0
  0
VERTEX
  5
3D2
  8
0
  6
CONTINUOUS
 62
     7
 10
593.5832566027
 20
2839.1018034167
 30
0.0
  0
VERTEX
  5
3D3
  8
0
  6
CONTINUOUS
 62
     7
 10
584.6563285593
 20
2839.09620058
 30
0.0
  0
VERTEX
  5
3D4
  8
0
  6
CONTINUOUS
 62
     7
 10
575.8923000101
 20
2839.0902997202
 30
0.0
  0
VERTEX
  5
3D5
  8
0
  6
CONTINUOUS
 62
     7
 10
567.2993367914
 20
2839.0841008372
 30
0.0
  0
VERTEX
  5
3D6
  8
0
  6
CONTINUOUS
 62
     7
 10
558.8854855303
 20
2839.0776039309
 30
0.0
  0
VERTEX
  5
3D7
  8
0
  6
CONTINUOUS
 62
     7
 10
550.6586140398
 20
2839.070868606
 30
0.0
  0
VERTEX
  5
3D8
  8
0
  6
CONTINUOUS
 62
     7
 10
542.6264113192
 20
2839.0638352579
 30
0.0
  0
VERTEX
  5
3D9
  8
0
  6
CONTINUOUS
 62
     7
 10
534.7963875536
 20
2839.0565634913
 30
0.0
  0
VERTEX
  5
3DA
  8
0
  6
CONTINUOUS
 62
     7
 10
527.1759337191
 20
2839.0489937014
 30
0.0
  0
VERTEX
  5
3DB
  8
0
  6
CONTINUOUS
 62
     7
 10
519.7720831637
 20
2839.0411854929
 30
0.0
  0
VERTEX
  5
3DC
  8
0
  6
CONTINUOUS
 62
     7
 10
512.5918692354
 20
2839.0331388659
 30
0.0
  0
VERTEX
  5
3DD
  8
0
  6
CONTINUOUS
 62
     7
 10
505.6418484453
 20
2839.0249134249
 30
0.0
  0
VERTEX
  5
3DE
  8
0
  6
CONTINUOUS
 62
     7
 10
498.9285773043
 20
2839.0163899607
 30
0.0
  0
VERTEX
  5
3DF
  8
0
  6
CONTINUOUS
 62
     7
 10
492.4583739046
 20
2839.0076876826
 30
0.0
  0
VERTEX
  5
3E0
  8
0
  6
CONTINUOUS
 62
     7
 10
486.2371987108
 20
2838.9987469858
 30
0.0
  0
VERTEX
  5
3E1
  8
0
  6
CONTINUOUS
 62
     7
 10
480.2708929781
 20
2838.9896274752
 30
0.0
  0
VERTEX
  5
3E2
  8
0
  6
CONTINUOUS
 62
     7
 10
474.5650595431
 20
2838.9803291506
 30
0.0
  0
VERTEX
  5
3E3
  8
0
  6
CONTINUOUS
 62
     7
 10
469.1248244051
 20
2838.9707924074
 30
0.0
  0
VERTEX
  5
3E4
  8
0
  6
CONTINUOUS
 62
     7
 10
463.9555519823
 20
2838.961136455
 30
0.0
  0
VERTEX
  5
3E5
  8
0
  6
CONTINUOUS
 62
     7
 10
459.0617722277
 20
2838.951242084
 30
0.0
  0
VERTEX
  5
3E6
  8
0
  6
CONTINUOUS
 62
     7
 10
454.4482535128
 20
2838.9412285036
 30
0.0
  0
VERTEX
  5
3E7
  8
0
  6
CONTINUOUS
 62
     7
 10
450.1189297442
 20
2838.931095714
 30
0.0
  0
VERTEX
  5
3E8
  8
0
  6
CONTINUOUS
 62
     7
 10
446.0780924563
 20
2838.9207841105
 30
0.0
  0
VERTEX
  5
3E9
  8
0
  6
CONTINUOUS
 62
     7
 10
442.3290795092
 20
2838.9103532976
 30
0.0
  0
VERTEX
  5
3EA
  8
0
  6
CONTINUOUS
 62
     7
 10
438.8755863909
 20
2838.8998032755
 30
0.0
  0
VERTEX
  5
3EB
  8
0
  6
CONTINUOUS
 62
     7
 10
435.7203549151
 20
2838.8891340441
 30
0.0
  0
VERTEX
  5
3EC
  8
0
  6
CONTINUOUS
 62
     7
 10
432.8661268954
 20
2838.8783456034
 30
0.0
  0
VERTEX
  5
3ED
  8
0
  6
CONTINUOUS
 62
     7
 10
430.315048099
 20
2838.8674379534
 30
0.0
  0
VERTEX
  5
3EE
  8
0
  6
CONTINUOUS
 62
     7
 10
428.0689066653
 20
2838.8564706988
 30
0.0
  0
VERTEX
  5
3EF
  8
0
  6
CONTINUOUS
 62
     7
 10
426.1282986407
 20
2838.8453842348
 30
0.0
  0
VERTEX
  5
3F0
  8
0
  6
CONTINUOUS
 62
     7
 10
424.4931048159
 20
2838.8341785616
 30
0.0
  0
VERTEX
  5
3F1
  8
0
  6
CONTINUOUS
 62
     7
 10
423.1597489123
 20
2838.8227344698
 30
0.0
  0
VERTEX
  5
3F2
  8
0
  6
CONTINUOUS
 62
     7
 10
422.117621303
 20
2838.8108135409
 30
0.0
  0
VERTEX
  5
3F3
  8
0
  6
CONTINUOUS
 62
     7
 10
421.3218992953
 20
2838.7970448679
 30
0.0
  0
VERTEX
  5
3F4
  8
0
  6
CONTINUOUS
 62
     7
 10
420.9147995714
 20
2838.7851835436
 30
0.0
  0
VERTEX
  5
3F5
  8
0
  6
CONTINUOUS
 62
     7
 10
420.6695860628
 20
2838.7743951029
 30
0.0
  0
VERTEX
  5
3F6
  8
0
  6
CONTINUOUS
 62
     7
 10
420.3286474947
 20
2838.7528778261
 30
0.0
  0
VERTEX
  5
3F7
  8
0
  6
CONTINUOUS
 62
     7
 10
419.9871128802
 20
2838.7226582712
 30
0.0
  0
VERTEX
  5
3F8
  8
0
  6
CONTINUOUS
 62
     7
 10
419.5949143175
 20
2838.6765242762
 30
0.0
  0
VERTEX
  5
3F9
  8
0
  6
CONTINUOUS
 62
     7
 10
419.0525120501
 20
2838.5922433085
 30
0.0
  0
VERTEX
  5
3FA
  8
0
  6
CONTINUOUS
 62
     7
 10
418.358356357
 20
2838.4484769053
 30
0.0
  0
VERTEX
  5
3FB
  8
0
  6
CONTINUOUS
 62
     7
 10
417.4279278521
 20
2838.1898523516
 30
0.0
  0
VERTEX
  5
3FC
  8
0
  6
CONTINUOUS
 62
     7
 10
416.2261790041
 20
2837.7361417956
 30
0.0
  0
VERTEX
  5
3FD
  8
0
  6
CONTINUOUS
 62
     7
 10
414.9227446322
 20
2837.0725036806
 30
0.0
  0
VERTEX
  5
3FE
  8
0
  6
CONTINUOUS
 62
     7
 10
413.6128729586
 20
2836.1905933565
 30
0.0
  0
VERTEX
  5
3FF
  8
0
  6
CONTINUOUS
 62
     7
 10
412.3428171877
 20
2835.0683571047
 30
0.0
  0
VERTEX
  5
400
  8
0
  6
CONTINUOUS
 62
     7
 10
411.1883944277
 20
2833.7205172724
 30
0.0
  0
VERTEX
  5
401
  8
0
  6
CONTINUOUS
 62
     7
 10
410.2130240206
 20
2832.1793199724
 30
0.0
  0
VERTEX
  5
402
  8
0
  6
CONTINUOUS
 62
     7
 10
409.4623631243
 20
2830.4848195261
 30
0.0
  0
VERTEX
  5
403
  8
0
  6
CONTINUOUS
 62
     7
 10
408.9671677355
 20
2828.6810041613
 30
0.0
  0
VERTEX
  5
404
  8
0
  6
CONTINUOUS
 62
     7
 10
408.7463921313
 20
2826.8140674776
 30
0.0
  0
VERTEX
  5
405
  8
0
  6
CONTINUOUS
 62
     7
 10
408.8229244951
 20
2824.8042584604
 30
0.0
  0
VERTEX
  5
406
  8
0
  6
CONTINUOUS
 62
     7
 10
409.1944998507
 20
2822.9254008478
 30
0.0
  0
VERTEX
  5
407
  8
0
  6
CONTINUOUS
 62
     7
 10
409.8129576449
 20
2821.205151195
 30
0.0
  0
VERTEX
  5
408
  8
0
  6
CONTINUOUS
 62
     7
 10
410.6334751848
 20
2819.6606160349
 30
0.0
  0
VERTEX
  5
409
  8
0
  6
CONTINUOUS
 62
     7
 10
411.6127794985
 20
2818.3041931338
 30
0.0
  0
VERTEX
  5
40A
  8
0
  6
CONTINUOUS
 62
     7
 10
412.7079552416
 20
2817.1429754442
 30
0.0
  0
VERTEX
  5
40B
  8
0
  6
CONTINUOUS
 62
     7
 10
413.8762062792
 20
2816.1785722918
 30
0.0
  0
VERTEX
  5
40C
  8
0
  6
CONTINUOUS
 62
     7
 10
415.0725907091
 20
2815.4074073977
 30
0.0
  0
VERTEX
  5
40D
  8
0
  6
CONTINUOUS
 62
     7
 10
416.2456101183
 20
2814.8216725535
 30
0.0
  0
VERTEX
  5
40E
  8
0
  6
CONTINUOUS
 62
     7
 10
417.3243349795
 20
2814.4100428766
 30
0.0
  0
VERTEX
  5
40F
  8
0
  6
CONTINUOUS
 62
     7
 10
418.2193583254
 20
2814.1515375323
 30
0.0
  0
VERTEX
  5
410
  8
0
  6
CONTINUOUS
 62
     7
 10
418.9008778338
 20
2814.0019894785
 30
0.0
  0
VERTEX
  5
411
  8
0
  6
CONTINUOUS
 62
     7
 10
419.4207495455
 20
2813.9141322321
 30
0.0
  0
VERTEX
  5
412
  8
0
  6
CONTINUOUS
 62
     7
 10
419.8323792223
 20
2813.8603092379
 30
0.0
  0
VERTEX
  5
413
  8
0
  6
CONTINUOUS
 62
     7
 10
420.1609200243
 20
2813.8271094507
 30
0.0
  0
VERTEX
  5
414
  8
0
  6
CONTINUOUS
 62
     7
 10
420.4391545061
 20
2813.8054729647
 30
0.0
  0
VERTEX
  5
415
  8
0
  6
CONTINUOUS
 62
     7
 10
420.6885403399
 20
2813.7908698267
 30
0.0
  0
VERTEX
  5
416
  8
0
  6
CONTINUOUS
 62
     7
 10
420.9381645922
 20
2813.7802005953
 30
0.0
  0
VERTEX
  5
417
  8
0
  6
CONTINUOUS
 62
     7
 10
421.2599104647
 20
2813.7707234568
 30
0.0
  0
VERTEX
  5
418
  8
0
  6
CONTINUOUS
 62
     7
 10
422.00067699
 20
2813.7570739931
 30
0.0
  0
VERTEX
  5
419
  8
0
  6
CONTINUOUS
 62
     7
 10
422.9729479555
 20
2813.7453914828
 30
0.0
  0
VERTEX
  5
41A
  8
0
  6
CONTINUOUS
 62
     7
 10
423.1962269549
 20
2813.7431861109
 30
0.0
  0
SEQEND
  5
9D8
  8
0
  6
CONTINUOUS
 62
     7
  0
ARC
  5
47
  8
0
  6
CONTINUOUS
 62
     7
 10
424.0919970924
 20
2944.1841562781
 30
0.0
 40
105.4441495929493
 50
268.7755694382
 51
269.6450760632
  0
POLYLINE
  5
48
  8
0
  6
CONTINUOUS
 62
     7
 66
     1
 10
0.0
 20
0.0
 30
0.0
  0
VERTEX
  5
41B
  8
0
  6
CONTINUOUS
 62
     7
 10
1095.6358319525
 20
2838.764143104
 30
0.0
  0
VERTEX
  5
41C
  8
0
  6
CONTINUOUS
 62
     7
 10
1095.6415539984
 20
2838.7643815226
 30
0.0
  0
VERTEX
  5
41D
  8
0
  6
CONTINUOUS
 62
     7
 10
1095.5428487067
 20
2838.7619377321
 30
0.0
  0
VERTEX
  5
41E
  8
0
  6
CONTINUOUS
 62
     7
 10
1095.2092713122
 20
2838.7559772677
 30
0.0
  0
VERTEX
  5
41F
  8
0
  6
CONTINUOUS
 62
     7
 10
1094.5510274176
 20
2838.7474538035
 30
0.0
  0
VERTEX
  5
420
  8
0
  6
CONTINUOUS
 62
     7
 10
1093.5370033983
 20
2838.7374998278
 30
0.0
  0
VERTEX
  5
421
  8
0
  6
CONTINUOUS
 62
     7
 10
1092.1779876951
 20
2838.7269498057
 30
0.0
  0
VERTEX
  5
422
  8
0
  6
CONTINUOUS
 62
     7
 10
1090.4887622599
 20
2838.7162209696
 30
0.0
  0
VERTEX
  5
423
  8
0
  6
CONTINUOUS
 62
     7
 10
1088.4788638357
 20
2838.7053729243
 30
0.0
  0
VERTEX
  5
424
  8
0
  6
CONTINUOUS
 62
     7
 10
1086.1542528872
 20
2838.6945844836
 30
0.0
  0
VERTEX
  5
425
  8
0
  6
CONTINUOUS
 62
     7
 10
1083.5193103556
 20
2838.6838556475
 30
0.0
  0
VERTEX
  5
426
  8
0
  6
CONTINUOUS
 62
     7
 10
1080.5777615313
 20
2838.6731864161
 30
0.0
  0
VERTEX
  5
427
  8
0
  6
CONTINUOUS
 62
     7
 10
1077.3331230883
 20
2838.662636394
 30
0.0
  0
VERTEX
  5
428
  8
0
  6
CONTINUOUS
 62
     7
 10
1073.7889117007
 20
2838.6521459765
 30
0.0
  0
VERTEX
  5
429
  8
0
  6
CONTINUOUS
 62
     7
 10
1069.9487632517
 20
2838.6417747683
 30
0.0
  0
VERTEX
  5
42A
  8
0
  6
CONTINUOUS
 62
     7
 10
1065.8165520434
 20
2838.6315227694
 30
0.0
  0
VERTEX
  5
42B
  8
0
  6
CONTINUOUS
 62
     7
 10
1061.3962715868
 20
2838.6214495844
 30
0.0
  0
VERTEX
  5
42C
  8
0
  6
CONTINUOUS
 62
     7
 10
1056.6922134165
 20
2838.6114956087
 30
0.0
  0
VERTEX
  5
42D
  8
0
  6
CONTINUOUS
 62
     7
 10
1051.7088478808
 20
2838.601720447
 30
0.0
  0
VERTEX
  5
42E
  8
0
  6
CONTINUOUS
 62
     7
 10
1046.4509433512
 20
2838.5921240992
 30
0.0
  0
VERTEX
  5
42F
  8
0
  6
CONTINUOUS
 62
     7
 10
1040.9234470133
 20
2838.5827065653
 30
0.0
  0
VERTEX
  5
430
  8
0
  6
CONTINUOUS
 62
     7
 10
1035.1315444712
 20
2838.5734082407
 30
0.0
  0
VERTEX
  5
431
  8
0
  6
CONTINUOUS
 62
     7
 10
1029.0807193522
 20
2838.5644079394
 30
0.0
  0
VERTEX
  5
432
  8
0
  6
CONTINUOUS
 62
     7
 10
1022.7767533068
 20
2838.5555268473
 30
0.0
  0
VERTEX
  5
433
  8
0
  6
CONTINUOUS
 62
     7
 10
1016.2254279856
 20
2838.5468841738
 30
0.0
  0
VERTEX
  5
434
  8
0
  6
CONTINUOUS
 62
     7
 10
1009.4329422716
 20
2838.5384799189
 30
0.0
  0
VERTEX
  5
435
  8
0
  6
CONTINUOUS
 62
     7
 10
1002.4057334666
 20
2838.5303140826
 30
0.0
  0
VERTEX
  5
436
  8
0
  6
CONTINUOUS
 62
     7
 10
995.1503580813
 20
2838.5223270602
 30
0.0
  0
VERTEX
  5
437
  8
0
  6
CONTINUOUS
 62
     7
 10
987.6735514406
 20
2838.514638061
 30
0.0
  0
VERTEX
  5
438
  8
0
  6
CONTINUOUS
 62
     7
 10
979.9824064974
 20
2838.5071874804
 30
0.0
  0
VERTEX
  5
439
  8
0
  6
CONTINUOUS
 62
     7
 10
972.0841354136
 20
2838.4999753184
 30
0.0
  0
VERTEX
  5
43A
  8
0
  6
CONTINUOUS
 62
     7
 10
963.9860695605
 20
2838.4930611796
 30
0.0
  0
VERTEX
  5
43B
  8
0
  6
CONTINUOUS
 62
     7
 10
955.6958383326
 20
2838.4863854594
 30
0.0
  0
VERTEX
  5
43C
  8
0
  6
CONTINUOUS
 62
     7
 10
947.2212499384
 20
2838.4800077624
 30
0.0
  0
VERTEX
  5
43D
  8
0
  6
CONTINUOUS
 62
     7
 10
938.5701125864
 20
2838.4738684839
 30
0.0
  0
VERTEX
  5
43E
  8
0
  6
CONTINUOUS
 62
     7
 10
929.7506517176
 20
2838.4680868334
 30
0.0
  0
VERTEX
  5
43F
  8
0
  6
CONTINUOUS
 62
     7
 10
920.7710927729
 20
2838.4625436014
 30
0.0
  0
VERTEX
  5
440
  8
0
  6
CONTINUOUS
 62
     7
 10
911.6398400072
 20
2838.4573579973
 30
0.0
  0
VERTEX
  5
441
  8
0
  6
CONTINUOUS
 62
     7
 10
902.3654168848
 20
2838.4524108118
 30
0.0
  0
VERTEX
  5
442
  8
0
  6
CONTINUOUS
 62
     7
 10
892.9565852885
 20
2838.4478212542
 30
0.0
  0
VERTEX
  5
443
  8
0
  6
CONTINUOUS
 62
     7
 10
883.4220474962
 20
2838.4435297198
 30
0.0
  0
VERTEX
  5
444
  8
0
  6
CONTINUOUS
 62
     7
 10
873.7708038096
 20
2838.4395958132
 30
0.0
  0
VERTEX
  5
445
  8
0
  6
CONTINUOUS
 62
     7
 10
864.0118545298
 20
2838.4359003252
 30
0.0
  0
VERTEX
  5
446
  8
0
  6
CONTINUOUS
 62
     7
 10
854.1543191675
 20
2838.4326220698
 30
0.0
  0
VERTEX
  5
447
  8
0
  6
CONTINUOUS
 62
     7
 10
844.2074960474
 20
2838.4295822329
 30
0.0
  0
VERTEX
  5
448
  8
0
  6
CONTINUOUS
 62
     7
 10
834.180683494
 20
2838.4269596285
 30
0.0
  0
VERTEX
  5
449
  8
0
  6
CONTINUOUS
 62
     7
 10
824.0831798319
 20
2838.4246350474
 30
0.0
  0
VERTEX
  5
44A
  8
0
  6
CONTINUOUS
 62
     7
 10
813.9245814089
 20
2838.4226084894
 30
0.0
  0
VERTEX
  5
44B
  8
0
  6
CONTINUOUS
 62
     7
 10
803.7142461542
 20
2838.4209395594
 30
0.0
  0
VERTEX
  5
44C
  8
0
  6
CONTINUOUS
 62
     7
 10
793.4618300204
 20
2838.4196282572
 30
0.0
  0
VERTEX
  5
44D
  8
0
  6
CONTINUOUS
 62
     7
 10
783.1769293551
 20
2838.4186745829
 30
0.0
  0
VERTEX
  5
44E
  8
0
  6
CONTINUOUS
 62
     7
 10
772.8690809016
 20
2838.4180189318
 30
0.0
  0
VERTEX
  5
44F
  8
0
  6
CONTINUOUS
 62
     7
 10
762.5480598215
 20
2838.4177209086
 30
0.0
  0
VERTEX
  5
450
  8
0
  6
CONTINUOUS
 62
     7
 10
752.2234624628
 20
2838.4177805132
 30
0.0
  0
VERTEX
  5
451
  8
0
  6
CONTINUOUS
 62
     7
 10
741.9049447779
 20
2838.4181381411
 30
0.0
  0
VERTEX
  5
452
  8
0
  6
CONTINUOUS
 62
     7
 10
731.6021627192
 20
2838.4188533968
 30
0.0
  0
VERTEX
  5
453
  8
0
  6
CONTINUOUS
 62
     7
 10
721.3248318438
 20
2838.4199262804
 30
0.0
  0
VERTEX
  5
454
  8
0
  6
CONTINUOUS
 62
     7
 10
711.0824888949
 20
2838.4213567919
 30
0.0
  0
VERTEX
  5
455
  8
0
  6
CONTINUOUS
 62
     7
 10
700.8847302202
 20
2838.4230853266
 30
0.0
  0
VERTEX
  5
456
  8
0
  6
CONTINUOUS
 62
     7
 10
690.7411521677
 20
2838.4251714892
 30
0.0
  0
VERTEX
  5
457
  8
0
  6
CONTINUOUS
 62
     7
 10
680.6612318758
 20
2838.4276152796
 30
0.0
  0
VERTEX
  5
458
  8
0
  6
CONTINUOUS
 62
     7
 10
670.6543868784
 20
2838.4303570933
 30
0.0
  0
VERTEX
  5
459
  8
0
  6
CONTINUOUS
 62
     7
 10
660.7300347094
 20
2838.4334565348
 30
0.0
  0
VERTEX
  5
45A
  8
0
  6
CONTINUOUS
 62
     7
 10
650.897354484
 20
2838.4368539995
 30
0.0
  0
VERTEX
  5
45B
  8
0
  6
CONTINUOUS
 62
     7
 10
641.1656445269
 20
2838.4406090922
 30
0.0
  0
VERTEX
  5
45C
  8
0
  6
CONTINUOUS
 62
     7
 10
631.5440243487
 20
2838.444662208
 30
0.0
  0
VERTEX
  5
45D
  8
0
  6
CONTINUOUS
 62
     7
 10
622.0414942507
 20
2838.4490133471
 30
0.0
  0
VERTEX
  5
45E
  8
0
  6
CONTINUOUS
 62
     7
 10
612.6668757204
 20
2838.453722114
 30
0.0
  0
VERTEX
  5
45F
  8
0
  6
CONTINUOUS
 62
     7
 10
603.4289902453
 20
2838.4586692995
 30
0.0
  0
VERTEX
  5
460
  8
0
  6
CONTINUOUS
 62
     7
 10
594.3365401034
 20
2838.4639741129
 30
0.0
  0
VERTEX
  5
461
  8
0
  6
CONTINUOUS
 62
     7
 10
585.3979891543
 20
2838.4695769495
 30
0.0
  0
VERTEX
  5
462
  8
0
  6
CONTINUOUS
 62
     7
 10
576.6216820482
 20
2838.4754778094
 30
0.0
  0
VERTEX
  5
463
  8
0
  6
CONTINUOUS
 62
     7
 10
568.0159038309
 20
2838.4816170878
 30
0.0
  0
VERTEX
  5
464
  8
0
  6
CONTINUOUS
 62
     7
 10
559.5887011294
 20
2838.488113994
 30
0.0
  0
VERTEX
  5
465
  8
0
  6
CONTINUOUS
 62
     7
 10
551.347882152
 20
2838.4948493189
 30
0.0
  0
VERTEX
  5
466
  8
0
  6
CONTINUOUS
 62
     7
 10
543.3012551073
 20
2838.5018230623
 30
0.0
  0
VERTEX
  5
467
  8
0
  6
CONTINUOUS
 62
     7
 10
535.4563301806
 20
2838.509094829
 30
0.0
  0
VERTEX
  5
468
  8
0
  6
CONTINUOUS
 62
     7
 10
527.8204983477
 20
2838.5166050143
 30
0.0
  0
VERTEX
  5
469
  8
0
  6
CONTINUOUS
 62
     7
 10
520.4007929568
 20
2838.5244132227
 30
0.0
  0
VERTEX
  5
46A
  8
0
  6
CONTINUOUS
 62
     7
 10
513.2042473559
 20
2838.5324002451
 30
0.0
  0
VERTEX
  5
46B
  8
0
  6
CONTINUOUS
 62
     7
 10
506.2376564745
 20
2838.5406852907
 30
0.0
  0
VERTEX
  5
46C
  8
0
  6
CONTINUOUS
 62
     7
 10
499.5074576143
 20
2838.5491491503
 30
0.0
  0
VERTEX
  5
46D
  8
0
  6
CONTINUOUS
 62
     7
 10
493.020088077
 20
2838.5578514284
 30
0.0
  0
VERTEX
  5
46E
  8
0
  6
CONTINUOUS
 62
     7
 10
486.7815083269
 20
2838.5667325205
 30
0.0
  0
VERTEX
  5
46F
  8
0
  6
CONTINUOUS
 62
     7
 10
480.7975596194
 20
2838.5758520312
 30
0.0
  0
VERTEX
  5
470
  8
0
  6
CONTINUOUS
 62
     7
 10
475.0740832094
 20
2838.5851503557
 30
0.0
  0
VERTEX
  5
471
  8
0
  6
CONTINUOUS
 62
     7
 10
469.6162050966
 20
2838.5946274943
 30
0.0
  0
VERTEX
  5
472
  8
0
  6
CONTINUOUS
 62
     7
 10
464.4291704897
 20
2838.6042834467
 30
0.0
  0
VERTEX
  5
473
  8
0
  6
CONTINUOUS
 62
     7
 10
459.5179861788
 20
2838.6141182131
 30
0.0
  0
VERTEX
  5
474
  8
0
  6
CONTINUOUS
 62
     7
 10
454.8871821169
 20
2838.6240721888
 30
0.0
  0
VERTEX
  5
475
  8
0
  6
CONTINUOUS
 62
     7
 10
450.5410498385
 20
2838.6342049784
 30
0.0
  0
VERTEX
  5
476
  8
0
  6
CONTINUOUS
 62
     7
 10
446.4840000872
 20
2838.6445165819
 30
0.0
  0
VERTEX
  5
477
  8
0
  6
CONTINUOUS
 62
     7
 10
442.7198475603
 20
2838.6548877901
 30
0.0
  0
VERTEX
  5
478
  8
0
  6
CONTINUOUS
 62
     7
 10
439.2521685366
 20
2838.6653782076
 30
0.0
  0
VERTEX
  5
479
  8
0
  6
CONTINUOUS
 62
     7
 10
436.0846585039
 20
2838.6759878344
 30
0.0
  0
VERTEX
  5
47A
  8
0
  6
CONTINUOUS
 62
     7
 10
433.2202976946
 20
2838.6867166704
 30
0.0
  0
VERTEX
  5
47B
  8
0
  6
CONTINUOUS
 62
     7
 10
430.662543178
 20
2838.6975051111
 30
0.0
  0
VERTEX
  5
47C
  8
0
  6
CONTINUOUS
 62
     7
 10
428.4142559771
 20
2838.7083531565
 30
0.0
  0
VERTEX
  5
47D
  8
0
  6
CONTINUOUS
 62
     7
 10
426.4788931612
 20
2838.7192012018
 30
0.0
  0
VERTEX
  5
47E
  8
0
  6
CONTINUOUS
 62
     7
 10
424.860388637
 20
2838.7300492472
 30
0.0
  0
VERTEX
  5
47F
  8
0
  6
CONTINUOUS
 62
     7
 10
423.6365860705
 20
2838.7401224322
 30
0.0
  0
VERTEX
  5
480
  8
0
  6
CONTINUOUS
 62
     7
 10
423.4388178591
 20
2838.7420297808
 30
0.0
  0
SEQEND
  5
9D7
  8
0
  6
CONTINUOUS
 62
     7
  0
LINE
  5
49
  8
0
  6
CONTINUOUS
 62
     7
 10
771.0522121195
 20
2737.4895037359
 30
0.0
 11
799.7225230936
 21
2813.4204269594
 31
0.0
  0
LINE
  5
4A
  8
0
  6
CONTINUOUS
 62
     7
 10
782.6192682986
 20
2813.4186388201
 30
0.0
 11
756.2660878901
 21
2743.6244608111
 31
0.0
  0
LINE
  5
4B
  8
0
  6
CONTINUOUS
 62
     7
 10
821.5523666147
 20
2521.7710108704
 30
0.0
 11
821.3745063547
 21
2526.8654645628
 31
0.0
  0
LINE
  5
4C
  8
0
  6
CONTINUOUS
 62
     7
 10
696.0956758265
 20
2526.8654645628
 30
0.0
 11
695.9177559618
 21
2521.7710108704
 31
0.0
  0
LINE
  5
4D
  8
0
  6
CONTINUOUS
 62
     7
 10
695.9177559618
 20
2521.7710108704
 30
0.0
 11
697.8450721506
 21
2466.5802986569
 31
0.0
  0
LINE
  5
4E
  8
0
  6
CONTINUOUS
 62
     7
 10
819.6251100306
 20
2466.5802986569
 30
0.0
 11
821.5523666147
 21
2521.7710108704
 31
0.0
  0
ARC
  5
4F
  8
0
  6
CONTINUOUS
 62
     7
 10
698.0692616969
 20
2526.8499574733
 30
0.0
 40
1.943431192131499
 50
94.4137904381
 51
179.5318356267
  0
ARC
  5
50
  8
0
  6
CONTINUOUS
 62
     7
 10
819.3836972236
 20
2526.8020807696
 30
0.0
 40
1.99201154775668
 50
359.815536936
 51
81.0379571816
  0
ARC
  5
51
  8
0
  6
CONTINUOUS
 62
     7
 10
810.1784413602
 20
2463.2878580895
 30
0.0
 40
10.00576125743082
 50
270.9020590448
 51
359.9741409676
  0
ARC
  5
52
  8
0
  6
CONTINUOUS
 62
     7
 10
707.284039412
 20
2463.2555697423
 30
0.0
 40
9.974264527109378
 50
160.3107124604
 51
269.4916827693
  0
POLYLINE
  5
53
  8
0
  6
CONTINUOUS
 62
     7
 66
     1
 10
0.0
 20
0.0
 30
0.0
  0
VERTEX
  5
481
  8
0
  6
CONTINUOUS
 62
     7
 10
820.1842015986
 20
2463.2833422369
 30
0.0
  0
VERTEX
  5
482
  8
0
  6
CONTINUOUS
 62
     7
 10
820.0172489886
 20
2465.1029826349
 30
0.0
  0
VERTEX
  5
483
  8
0
  6
CONTINUOUS
 62
     7
 10
819.6132487063
 20
2466.5830702729
 30
0.0
  0
SEQEND
  5
9D6
  8
0
  6
CONTINUOUS
 62
     7
  0
LINE
  5
54
  8
0
  6
CONTINUOUS
 62
     7
 10
805.6349462275
 20
2528.7957907862
 30
0.0
 11
784.4550913576
 21
2537.5556917137
 31
0.0
  0
LINE
  5
55
  8
0
  6
CONTINUOUS
 62
     7
 10
733.0150908236
 20
2537.5556917137
 30
0.0
 11
711.8352359537
 21
2528.7957907862
 31
0.0
  0
LINE
  5
56
  8
0
  6
CONTINUOUS
 62
     7
 10
803.7351077799
 20
2747.0686854071
 30
0.0
 11
803.7351077799
 21
2755.7831824965
 31
0.0
  0
LINE
  5
57
  8
0
  6
CONTINUOUS
 62
     7
 10
803.7351077799
 20
2682.4432135767
 30
0.0
 11
803.7351077799
 21
2734.325480575
 31
0.0
  0
LINE
  5
58
  8
0
  6
CONTINUOUS
 62
     7
 10
713.7350744013
 20
2732.5157941527
 30
0.0
 11
713.7350744013
 21
2682.4432135767
 31
0.0
  0
LINE
  5
59
  8
0
  6
CONTINUOUS
 62
     7
 10
713.7350744013
 20
2755.7831824965
 30
0.0
 11
713.7350744013
 21
2749.2044390387
 31
0.0
  0
LINE
  5
5A
  8
0
  6
CONTINUOUS
 62
     7
 10
714.0558665995
 20
2749.1093100256
 30
0.0
 11
496.735722423
 21
2813.5528088755
 31
0.0
  0
LINE
  5
5B
  8
0
  6
CONTINUOUS
 62
     7
 10
440.0863951449
 20
2813.6627198405
 30
0.0
 11
713.9745062594
 21
2732.4448050207
 31
0.0
  0
LINE
  5
5C
  8
0
  6
CONTINUOUS
 62
     7
 10
733.0150908236
 20
2558.9396477885
 30
0.0
 11
733.0150908236
 21
2537.5556619114
 31
0.0
  0
LINE
  5
5D
  8
0
  6
CONTINUOUS
 62
     7
 10
784.4550913576
 20
2537.5556619114
 30
0.0
 11
784.4550913576
 21
2558.9396477885
 31
0.0
  0
ARC
  5
5E
  8
0
  6
CONTINUOUS
 62
     7
 10
782.7320083742
 20
2560.9217941361
 30
0.0
 40
1.977015598583565
 50
179.4824597882
 51
259.9477956347
  0
ARC
  5
5F
  8
0
  6
CONTINUOUS
 62
     7
 10
734.7563326293
 20
2560.8821492293
 30
0.0
 40
1.935450175584893
 50
279.6261007773
 51
2.1871544452
  0
LINE
  5
60
  8
0
  6
CONTINUOUS
 62
     7
 10
768.7350815539
 20
2560.9396518416
 30
0.0
 11
768.7350815539
 21
2682.3957086748
 31
0.0
  0
LINE
  5
61
  8
0
  6
CONTINUOUS
 62
     7
 10
748.7351006274
 20
2682.3957086748
 30
0.0
 11
748.7351006274
 21
2560.9396518416
 31
0.0
  0
LINE
  5
62
  8
0
  6
CONTINUOUS
 62
     7
 10
2314.7350853686
 20
2162.4350221104
 30
0.0
 11
2334.7350662951
 21
2162.4350221104
 31
0.0
  0
LINE
  5
63
  8
0
  6
CONTINUOUS
 62
     7
 10
2334.7350662951
 20
2462.4350191302
 30
0.0
 11
2314.7350853686
 21
2462.4350191302
 31
0.0
  0
LINE
  5
64
  8
0
  6
CONTINUOUS
 62
     7
 10
2314.7350853686
 20
2462.4350191302
 30
0.0
 11
2282.7350801234
 21
2462.4350191302
 31
0.0
  0
LINE
  5
65
  8
0
  6
CONTINUOUS
 62
     7
 10
2282.7350801234
 20
2162.4350221104
 30
0.0
 11
2314.7350853686
 21
2162.4350221104
 31
0.0
  0
LINE
  5
66
  8
0
  6
CONTINUOUS
 62
     7
 10
814.7350853686
 20
2162.4350221104
 30
0.0
 11
846.7350906138
 21
2162.4350221104
 31
0.0
  0
LINE
  5
67
  8
0
  6
CONTINUOUS
 62
     7
 10
846.7350906138
 20
2462.4350191302
 30
0.0
 11
820.1126164202
 21
2462.4350191302
 31
0.0
  0
LINE
  5
68
  8
0
  6
CONTINUOUS
 62
     7
 10
702.7350968127
 20
2165.9350217528
 30
0.0
 11
814.7350853686
 21
2165.9350217528
 31
0.0
  0
LINE
  5
69
  8
0
  6
CONTINUOUS
 62
     7
 10
803.7351077799
 20
2732.5261057562
 30
0.0
 11
1077.1234935526
 21
2813.6619449801
 31
0.0
  0
LINE
  5
6A
  8
0
  6
CONTINUOUS
 62
     7
 10
1020.5182737116
 20
2813.5525108523
 30
0.0
 11
803.7351077799
 21
2749.2158533282
 31
0.0
  0
LINE
  5
6B
  8
0
  6
CONTINUOUS
 62
     7
 10
756.664783359
 20
2755.8318496889
 30
0.0
 11
735.0790804629
 21
2813.4186388201
 31
0.0
  0
LINE
  5
6C
  8
0
  6
CONTINUOUS
 62
     7
 10
717.9913228754
 20
2813.4203673548
 30
0.0
 11
739.5794099573
 21
2755.8272601313
 31
0.0
  0
LINE
  5
6D
  8
0
  6
CONTINUOUS
 62
     7
 10
702.7350968127
 20
2389.435020203
 30
0.0
 11
693.7350934748
 21
2389.435020203
 31
0.0
  0
LINE
  5
6E
  8
0
  6
CONTINUOUS
 62
     7
 10
693.7350934748
 20
2235.4350210375
 30
0.0
 11
702.7350968127
 21
2235.4350210375
 31
0.0
  0
ARC
  5
6F
  8
0
  6
CONTINUOUS
 62
     7
 10
763.9237917231
 20
2739.7726157972
 30
0.0
 40
7.380939467043645
 50
268.4664813419
 51
342.3037110439
  0
ARC
  5
70
  8
0
  6
CONTINUOUS
 62
     7
 10
763.7825848739
 20
2740.5027329664
 30
0.0
 40
8.108608673431613
 50
157.4071105767
 51
269.6020369686
  0
CIRCLE
  5
71
  8
0
  6
CONTINUOUS
 62
     7
 10
1564.7350853686
 20
2309.4350219912
 30
0.0
 40
556.0000000000001
  0
CIRCLE
  5
72
  8
0
  6
CONTINUOUS
 62
     7
 10
1564.7350853686
 20
2309.4350219912
 30
0.0
 40
487.0
  0
ARC
  5
73
  8
0
  6
CONTINUOUS
 62
     7
 10
1827.7350853686
 20
1709.5550339936
 30
0.0
 40
40.00000000000023
 50
113.6736557156
 51
180.0
  0
LINE
  5
74
  8
0
  6
CONTINUOUS
 62
     7
 10
1787.7350902561
 20
1709.5550419039
 30
0.0
 11
1787.7350902561
 21
1694.4350124544
 31
0.0
  0
LINE
  5
75
  8
0
  6
CONTINUOUS
 62
     7
 10
1787.7350902561
 20
1694.4350124544
 30
0.0
 11
1341.735080481
 21
1694.4350124544
 31
0.0
  0
LINE
  5
76
  8
0
  6
CONTINUOUS
 62
     7
 10
1341.735080481
 20
1709.5550419039
 30
0.0
 11
1341.735080481
 21
1694.4350124544
 31
0.0
  0
ARC
  5
77
  8
0
  6
CONTINUOUS
 62
     7
 10
1301.7350853686
 20
1709.5550339936
 30
0.0
 40
40.00000000000023
 50
360.0
 51
66.3263442844
  0
ARC
  5
78
  8
0
  6
CONTINUOUS
 62
     7
 10
1564.7350853686
 20
2309.4350219912
 30
0.0
 40
615.0000000000003
 50
113.6736557156
 51
246.3263442844
  0
LINE
  5
79
  8
0
  6
CONTINUOUS
 62
     7
 10
1341.735080481
 20
2909.3150020785
 30
0.0
 11
1341.735080481
 21
2924.4350315279
 31
0.0
  0
LINE
  5
7A
  8
0
  6
CONTINUOUS
 62
     7
 10
1341.735080481
 20
2924.4350315279
 30
0.0
 11
1787.7350902561
 21
2924.4350315279
 31
0.0
  0
LINE
  5
7B
  8
0
  6
CONTINUOUS
 62
     7
 10
1787.7350902561
 20
2909.3150020785
 30
0.0
 11
1787.7350902561
 21
2924.4350315279
 31
0.0
  0
ARC
  5
7C
  8
0
  6
CONTINUOUS
 62
     7
 10
1827.7350853686
 20
2909.3150099888
 30
0.0
 40
40.00000000000023
 50
180.0
 51
246.3263442844
  0
ARC
  5
7D
  8
0
  6
CONTINUOUS
 62
     7
 10
1564.7350853686
 20
2309.4350219912
 30
0.0
 40
615.0000000000003
 50
293.6736557156
 51
66.3263442844
  0
CIRCLE
  5
7E
  8
0
  6
CONTINUOUS
 62
     7
 10
1499.7813188789
 20
2885.7864843983
 30
0.0
 40
18.5
  0
CIRCLE
  5
7F
  8
0
  6
CONTINUOUS
 62
     7
 10
1629.6601111184
 20
2885.7897227019
 30
0.0
 40
18.5
  0
CIRCLE
  5
80
  8
0
  6
CONTINUOUS
 62
     7
 10
1756.2832914635
 20
2856.8921296643
 30
0.0
 40
18.5
  0
CIRCLE
  5
81
  8
0
  6
CONTINUOUS
 62
     7
 10
1873.3014449193
 20
2800.5427512661
 30
0.0
 40
18.5
  0
CIRCLE
  5
82
  8
0
  6
CONTINUOUS
 62
     7
 10
1974.8467926463
 20
2719.5671806348
 30
0.0
 40
18.50000000000023
  0
CIRCLE
  5
83
  8
0
  6
CONTINUOUS
 62
     7
 10
2055.8274268931
 20
2618.0258710064
 30
0.0
 40
18.50000000000023
  0
CIRCLE
  5
84
  8
0
  6
CONTINUOUS
 62
     7
 10
2112.1826405128
 20
2501.0105276452
 30
0.0
 40
18.49999999999955
  0
CIRCLE
  5
85
  8
0
  6
CONTINUOUS
 62
     7
 10
2141.0865477757
 20
2374.3887884808
 30
0.0
 40
18.49999999999955
  0
CIRCLE
  5
86
  8
0
  6
CONTINUOUS
 62
     7
 10
2141.0897860793
 20
2244.5099962413
 30
0.0
 40
18.49999999999955
  0
CIRCLE
  5
87
  8
0
  6
CONTINUOUS
 62
     7
 10
2112.1921930417
 20
2117.8868158963
 30
0.0
 40
18.49999999999955
  0
CIRCLE
  5
88
  8
0
  6
CONTINUOUS
 62
     7
 10
2055.8428146435
 20
2000.8686624404
 30
0.0
 40
18.50000000000045
  0
CIRCLE
  5
89
  8
0
  6
CONTINUOUS
 62
     7
 10
1756.3105910226
 20
1761.9874668469
 30
0.0
 40
18.50000000000023
  0
CIRCLE
  5
8A
  8
0
  6
CONTINUOUS
 62
     7
 10
1629.6888518582
 20
1733.0835595841
 30
0.0
 40
18.5
  0
CIRCLE
  5
8B
  8
0
  6
CONTINUOUS
 62
     7
 10
1499.8100596187
 20
1733.0803212804
 30
0.0
 40
18.5
  0
CIRCLE
  5
8C
  8
0
  6
CONTINUOUS
 62
     7
 10
1373.1868792736
 20
1761.9779143181
 30
0.0
 40
18.5
  0
CIRCLE
  5
8D
  8
0
  6
CONTINUOUS
 62
     7
 10
1256.1687258178
 20
1818.3272927162
 30
0.0
 40
18.50000000000023
  0
CIRCLE
  5
8E
  8
0
  6
CONTINUOUS
 62
     7
 10
1154.6233780908
 20
1899.3028633475
 30
0.0
 40
18.5
  0
CIRCLE
  5
8F
  8
0
  6
CONTINUOUS
 62
     7
 10
1017.2875302243
 20
2117.8595163372
 30
0.0
 40
18.50000000000011
  0
CIRCLE
  5
90
  8
0
  6
CONTINUOUS
 62
     7
 10
988.3836229615
 20
2244.4812555016
 30
0.0
 40
18.49999999999989
  0
CIRCLE
  5
91
  8
0
  6
CONTINUOUS
 62
     7
 10
988.3803846578
 20
2374.360047741
 30
0.0
 40
18.5
  0
CIRCLE
  5
92
  8
0
  6
CONTINUOUS
 62
     7
 10
1017.2779776954
 20
2500.9832280861
 30
0.0
 40
18.49999999999989
  0
CIRCLE
  5
93
  8
0
  6
CONTINUOUS
 62
     7
 10
1073.6273560936
 20
2618.0013815419
 30
0.0
 40
18.50000000000023
  0
CIRCLE
  5
94
  8
0
  6
CONTINUOUS
 62
     7
 10
1154.6029267249
 20
2719.546729269
 30
0.0
 40
18.5
  0
CIRCLE
  5
95
  8
0
  6
CONTINUOUS
 62
     7
 10
1256.1442363533
 20
2800.5273635157
 30
0.0
 40
18.50000000000023
  0
CIRCLE
  5
96
  8
0
  6
CONTINUOUS
 62
     7
 10
1373.1595797146
 20
2856.8825771354
 30
0.0
 40
18.5
  0
CIRCLE
  5
97
  8
0
  6
CONTINUOUS
 62
     7
 10
1873.3259343838
 20
1818.3426804666
 30
0.0
 40
18.5
  0
CIRCLE
  5
98
  8
0
  6
CONTINUOUS
 62
     7
 10
1073.642743844
 20
2000.844172976
 30
0.0
 40
18.5
  0
CIRCLE
  5
99
  8
0
  6
CONTINUOUS
 62
     7
 10
1974.8672440122
 20
1899.3233147134
 30
0.0
 40
18.5
  0
ARC
  5
9A
  8
0
  6
CONTINUOUS
 62
     7
 10
1301.7350853686
 20
2909.3150099888
 30
0.0
 40
40.00000000000023
 50
293.6736557156
 51
0.0
  0
POLYLINE
  5
9B
  8
0
  6
CONTINUOUS
 62
     7
 66
     1
 10
0.0
 20
0.0
 30
0.0
  0
VERTEX
  5
484
  8
0
  6
CONTINUOUS
 62
     7
 10
695.9177559618
 20
2521.7710108704
 30
0.0
  0
VERTEX
  5
485
  8
0
  6
CONTINUOUS
 62
     7
 10
695.9177559618
 20
2521.7710108704
 30
0.0
  0
VERTEX
  5
486
  8
0
  6
CONTINUOUS
 62
     7
 10
696.09341085
 20
2521.7659295744
 30
0.0
  0
VERTEX
  5
487
  8
0
  6
CONTINUOUS
 62
     7
 10
696.6194218401
 20
2521.7608780808
 30
0.0
  0
VERTEX
  5
488
  8
0
  6
CONTINUOUS
 62
     7
 10
697.4927490954
 20
2521.7558712906
 30
0.0
  0
VERTEX
  5
489
  8
0
  6
CONTINUOUS
 62
     7
 10
698.7085646395
 20
2521.7509688086
 30
0.0
  0
VERTEX
  5
48A
  8
0
  6
CONTINUOUS
 62
     7
 10
700.2601331476
 20
2521.7461557335
 30
0.0
  0
VERTEX
  5
48B
  8
0
  6
CONTINUOUS
 62
     7
 10
702.1386331324
 20
2521.7415065712
 30
0.0
  0
VERTEX
  5
48C
  8
0
  6
CONTINUOUS
 62
     7
 10
704.3336933855
 20
2521.7370064205
 30
0.0
  0
VERTEX
  5
48D
  8
0
  6
CONTINUOUS
 62
     7
 10
706.8329757456
 20
2521.732699985
 30
0.0
  0
VERTEX
  5
48E
  8
0
  6
CONTINUOUS
 62
     7
 10
709.6225327257
 20
2521.7286021656
 30
0.0
  0
VERTEX
  5
48F
  8
0
  6
CONTINUOUS
 62
     7
 10
712.686747909
 20
2521.7247427649
 30
0.0
  0
VERTEX
  5
490
  8
0
  6
CONTINUOUS
 62
     7
 10
716.0084551577
 20
2521.721151585
 30
0.0
  0
VERTEX
  5
491
  8
0
  6
CONTINUOUS
 62
     7
 10
719.5691174273
 20
2521.7178286261
 30
0.0
  0
VERTEX
  5
492
  8
0
  6
CONTINUOUS
 62
     7
 10
723.3488267664
 20
2521.7148185915
 30
0.0
  0
VERTEX
  5
493
  8
0
  6
CONTINUOUS
 62
     7
 10
727.3264235262
 20
2521.7121065802
 30
0.0
  0
VERTEX
  5
494
  8
0
  6
CONTINUOUS
 62
     7
 10
731.4796751742
 20
2521.7097372956
 30
0.0
  0
VERTEX
  5
495
  8
0
  6
CONTINUOUS
 62
     7
 10
735.7853358988
 20
2521.7076958365
 30
0.0
  0
VERTEX
  5
496
  8
0
  6
CONTINUOUS
 62
     7
 10
740.2193850283
 20
2521.7060120053
 30
0.0
  0
VERTEX
  5
497
  8
0
  6
CONTINUOUS
 62
     7
 10
744.7569078211
 20
2521.7047007031
 30
0.0
  0
VERTEX
  5
498
  8
0
  6
CONTINUOUS
 62
     7
 10
749.3726319079
 20
2521.7037470288
 30
0.0
  0
VERTEX
  5
499
  8
0
  6
CONTINUOUS
 62
     7
 10
754.0407484774
 20
2521.7031807846
 30
0.0
  0
VERTEX
  5
49A
  8
0
  6
CONTINUOUS
 62
     7
 10
758.7350910906
 20
2521.7030019707
 30
0.0
  0
VERTEX
  5
49B
  8
0
  6
CONTINUOUS
 62
     7
 10
763.4294337038
 20
2521.7031807846
 30
0.0
  0
VERTEX
  5
49C
  8
0
  6
CONTINUOUS
 62
     7
 10
768.0974906687
 20
2521.7037470288
 30
0.0
  0
VERTEX
  5
49D
  8
0
  6
CONTINUOUS
 62
     7
 10
772.7132743601
 20
2521.7047007031
 30
0.0
  0
VERTEX
  5
49E
  8
0
  6
CONTINUOUS
 62
     7
 10
777.2507971529
 20
2521.7060120053
 30
0.0
  0
VERTEX
  5
49F
  8
0
  6
CONTINUOUS
 62
     7
 10
781.6848462824
 20
2521.7076958365
 30
0.0
  0
VERTEX
  5
4A0
  8
0
  6
CONTINUOUS
 62
     7
 10
785.990507007
 20
2521.7097372956
 30
0.0
  0
VERTEX
  5
4A1
  8
0
  6
CONTINUOUS
 62
     7
 10
790.143758655
 20
2521.7121065802
 30
0.0
  0
VERTEX
  5
4A2
  8
0
  6
CONTINUOUS
 62
     7
 10
794.1213554148
 20
2521.7148185915
 30
0.0
  0
VERTEX
  5
4A3
  8
0
  6
CONTINUOUS
 62
     7
 10
797.9010051493
 20
2521.7178286261
 30
0.0
  0
VERTEX
  5
4A4
  8
0
  6
CONTINUOUS
 62
     7
 10
801.4617270235
 20
2521.721151585
 30
0.0
  0
VERTEX
  5
4A5
  8
0
  6
CONTINUOUS
 62
     7
 10
804.7834342722
 20
2521.7247427649
 30
0.0
  0
VERTEX
  5
4A6
  8
0
  6
CONTINUOUS
 62
     7
 10
807.8476494555
 20
2521.7286021656
 30
0.0
  0
VERTEX
  5
4A7
  8
0
  6
CONTINUOUS
 62
     7
 10
810.6372064356
 20
2521.732699985
 30
0.0
  0
VERTEX
  5
4A8
  8
0
  6
CONTINUOUS
 62
     7
 10
813.1364887957
 20
2521.7370064205
 30
0.0
  0
VERTEX
  5
4A9
  8
0
  6
CONTINUOUS
 62
     7
 10
815.3315490488
 20
2521.7415065712
 30
0.0
  0
VERTEX
  5
4AA
  8
0
  6
CONTINUOUS
 62
     7
 10
817.2100490336
 20
2521.7461557335
 30
0.0
  0
VERTEX
  5
4AB
  8
0
  6
CONTINUOUS
 62
     7
 10
818.7616175417
 20
2521.7509688086
 30
0.0
  0
VERTEX
  5
4AC
  8
0
  6
CONTINUOUS
 62
     7
 10
819.9774330858
 20
2521.7558712906
 30
0.0
  0
VERTEX
  5
4AD
  8
0
  6
CONTINUOUS
 62
     7
 10
820.8507603411
 20
2521.7608780808
 30
0.0
  0
VERTEX
  5
4AE
  8
0
  6
CONTINUOUS
 62
     7
 10
821.3767117266
 20
2521.7659295744
 30
0.0
  0
VERTEX
  5
4AF
  8
0
  6
CONTINUOUS
 62
     7
 10
821.5523666147
 20
2521.7710108704
 30
0.0
  0
VERTEX
  5
4B0
  8
0
  6
CONTINUOUS
 62
     7
 10
821.5523666147
 20
2521.7710108704
 30
0.0
  0
SEQEND
  5
9D5
  8
0
  6
CONTINUOUS
 62
     7
  0
POLYLINE
  5
9C
  8
0
  6
CONTINUOUS
 62
     7
 66
     1
 10
0.0
 20
0.0
 30
0.0
  0
VERTEX
  5
4B1
  8
0
  6
CONTINUOUS
 62
     7
 10
697.8450721506
 20
2466.5802986569
 30
0.0
  0
VERTEX
  5
4B2
  8
0
  6
CONTINUOUS
 62
     7
 10
698.0237668757
 20
2466.5752620644
 30
0.0
  0
VERTEX
  5
4B3
  8
0
  6
CONTINUOUS
 62
     7
 10
698.5587185625
 20
2466.5702403731
 30
0.0
  0
VERTEX
  5
4B4
  8
0
  6
CONTINUOUS
 62
     7
 10
699.446768165
 20
2466.5652782864
 30
0.0
  0
VERTEX
  5
4B5
  8
0
  6
CONTINUOUS
 62
     7
 10
700.6827896837
 20
2466.5604056067
 30
0.0
  0
VERTEX
  5
4B6
  8
0
  6
CONTINUOUS
 62
     7
 10
702.2594517473
 20
2466.5556521363
 30
0.0
  0
VERTEX
  5
4B7
  8
0
  6
CONTINUOUS
 62
     7
 10
704.1675752405
 20
2466.5510476774
 30
0.0
  0
VERTEX
  5
4B8
  8
0
  6
CONTINUOUS
 62
     7
 10
706.3958948855
 20
2466.5466071314
 30
0.0
  0
VERTEX
  5
4B9
  8
0
  6
CONTINUOUS
 62
     7
 10
708.9313572649
 20
2466.5423752016
 30
0.0
  0
VERTEX
  5
4BA
  8
0
  6
CONTINUOUS
 62
     7
 10
711.7591208224
 20
2466.5383518881
 30
0.0
  0
VERTEX
  5
4BB
  8
0
  6
CONTINUOUS
 62
     7
 10
714.8624962572
 20
2466.5345818943
 30
0.0
  0
VERTEX
  5
4BC
  8
0
  6
CONTINUOUS
 62
     7
 10
718.2234233622
 20
2466.5310801214
 30
0.0
  0
VERTEX
  5
4BD
  8
0
  6
CONTINUOUS
 62
     7
 10
721.8219941859
 20
2466.5278763718
 30
0.0
  0
VERTEX
  5
4BE
  8
0
  6
CONTINUOUS
 62
     7
 10
725.6372278933
 20
2466.5249706454
 30
0.0
  0
VERTEX
  5
4BF
  8
0
  6
CONTINUOUS
 62
     7
 10
729.646713138
 20
2466.5223778433
 30
0.0
  0
VERTEX
  5
4C0
  8
0
  6
CONTINUOUS
 62
     7
 10
733.8269060854
 20
2466.5201426691
 30
0.0
  0
VERTEX
  5
4C1
  8
0
  6
CONTINUOUS
 62
     7
 10
738.1532496218
 20
2466.5182502217
 30
0.0
  0
VERTEX
  5
4C2
  8
0
  6
CONTINUOUS
 62
     7
 10
742.6003521685
 20
2466.5167303032
 30
0.0
  0
VERTEX
  5
4C3
  8
0
  6
CONTINUOUS
 62
     7
 10
747.1421664957
 20
2466.5155829138
 30
0.0
  0
VERTEX
  5
4C4
  8
0
  6
CONTINUOUS
 62
     7
 10
751.7519897227
 20
2466.5148080534
 30
0.0
  0
VERTEX
  5
4C5
  8
0
  6
CONTINUOUS
 62
     7
 10
756.4028209452
 20
2466.5144206232
 30
0.0
  0
VERTEX
  5
4C6
  8
0
  6
CONTINUOUS
 62
     7
 10
761.067361236
 20
2466.5144206232
 30
0.0
  0
VERTEX
  5
4C7
  8
0
  6
CONTINUOUS
 62
     7
 10
765.7181328539
 20
2466.5148080534
 30
0.0
  0
VERTEX
  5
4C8
  8
0
  6
CONTINUOUS
 62
     7
 10
770.3280156855
 20
2466.5155829138
 30
0.0
  0
VERTEX
  5
4C9
  8
0
  6
CONTINUOUS
 62
     7
 10
774.8698300127
 20
2466.5167303032
 30
0.0
  0
VERTEX
  5
4CA
  8
0
  6
CONTINUOUS
 62
     7
 10
779.3169325594
 20
2466.5182502217
 30
0.0
  0
VERTEX
  5
4CB
  8
0
  6
CONTINUOUS
 62
     7
 10
783.6432760958
 20
2466.5201426691
 30
0.0
  0
VERTEX
  5
4CC
  8
0
  6
CONTINUOUS
 62
     7
 10
787.8234690432
 20
2466.5223778433
 30
0.0
  0
VERTEX
  5
4CD
  8
0
  6
CONTINUOUS
 62
     7
 10
791.8328946833
 20
2466.5249706454
 30
0.0
  0
VERTEX
  5
4CE
  8
0
  6
CONTINUOUS
 62
     7
 10
795.6481283907
 20
2466.5278763718
 30
0.0
  0
VERTEX
  5
4CF
  8
0
  6
CONTINUOUS
 62
     7
 10
799.246758819
 20
2466.5310801214
 30
0.0
  0
VERTEX
  5
4D0
  8
0
  6
CONTINUOUS
 62
     7
 10
802.6076263193
 20
2466.5345818943
 30
0.0
  0
VERTEX
  5
4D1
  8
0
  6
CONTINUOUS
 62
     7
 10
805.7110613589
 20
2466.5383518881
 30
0.0
  0
VERTEX
  5
4D2
  8
0
  6
CONTINUOUS
 62
     7
 10
808.5388249163
 20
2466.5423752016
 30
0.0
  0
VERTEX
  5
4D3
  8
0
  6
CONTINUOUS
 62
     7
 10
811.0742872957
 20
2466.5466071314
 30
0.0
  0
VERTEX
  5
4D4
  8
0
  6
CONTINUOUS
 62
     7
 10
813.3026069407
 20
2466.5510476774
 30
0.0
  0
VERTEX
  5
4D5
  8
0
  6
CONTINUOUS
 62
     7
 10
815.2107304339
 20
2466.5556521363
 30
0.0
  0
VERTEX
  5
4D6
  8
0
  6
CONTINUOUS
 62
     7
 10
816.7873924975
 20
2466.5604056067
 30
0.0
  0
VERTEX
  5
4D7
  8
0
  6
CONTINUOUS
 62
     7
 10
818.0234140162
 20
2466.5652782864
 30
0.0
  0
VERTEX
  5
4D8
  8
0
  6
CONTINUOUS
 62
     7
 10
818.9114636187
 20
2466.5702403731
 30
0.0
  0
VERTEX
  5
4D9
  8
0
  6
CONTINUOUS
 62
     7
 10
819.4464153055
 20
2466.5752620644
 30
0.0
  0
VERTEX
  5
4DA
  8
0
  6
CONTINUOUS
 62
     7
 10
819.6251100306
 20
2466.5802986569
 30
0.0
  0
SEQEND
  5
9D4
  8
0
  6
CONTINUOUS
 62
     7
  0
POLYLINE
  5
9D
  8
0
  6
CONTINUOUS
 62
     7
 66
     1
 10
0.0
 20
0.0
 30
0.0
  0
VERTEX
  5
4DB
  8
0
  6
CONTINUOUS
 62
     7
 10
819.3744128947
 20
2528.7960888094
 30
0.0
  0
VERTEX
  5
4DC
  8
0
  6
CONTINUOUS
 62
     7
 10
819.1977447275
 20
2528.8006932682
 30
0.0
  0
VERTEX
  5
4DD
  8
0
  6
CONTINUOUS
 62
     7
 10
818.6649984125
 20
2528.8056851572
 30
0.0
  0
VERTEX
  5
4DE
  8
0
  6
CONTINUOUS
 62
     7
 10
817.7805846934
 20
2528.8106323427
 30
0.0
  0
VERTEX
  5
4DF
  8
0
  6
CONTINUOUS
 62
     7
 10
816.5496295695
 20
2528.8154752201
 30
0.0
  0
VERTEX
  5
4E0
  8
0
  6
CONTINUOUS
 62
     7
 10
814.9794048075
 20
2528.8202137894
 30
0.0
  0
VERTEX
  5
4E1
  8
0
  6
CONTINUOUS
 62
     7
 10
813.0791491274
 20
2528.824803347
 30
0.0
  0
VERTEX
  5
4E2
  8
0
  6
CONTINUOUS
 62
     7
 10
810.8598893885
 20
2528.8292140908
 30
0.0
  0
VERTEX
  5
4E3
  8
0
  6
CONTINUOUS
 62
     7
 10
808.3348578219
 20
2528.8334460205
 30
0.0
  0
VERTEX
  5
4E4
  8
0
  6
CONTINUOUS
 62
     7
 10
805.5342739825
 20
2528.8374246306
 30
0.0
  0
SEQEND
  5
9D3
  8
0
  6
CONTINUOUS
 62
     7
  0
POLYLINE
  5
9E
  8
0
  6
CONTINUOUS
 62
     7
 66
     1
 10
0.0
 20
0.0
 30
0.0
  0
VERTEX
  5
4E5
  8
0
  6
CONTINUOUS
 62
     7
 10
711.9359081988
 20
2528.8374246306
 30
0.0
  0
VERTEX
  5
4E6
  8
0
  6
CONTINUOUS
 62
     7
 10
709.1353243593
 20
2528.8334460205
 30
0.0
  0
VERTEX
  5
4E7
  8
0
  6
CONTINUOUS
 62
     7
 10
706.6102331881
 20
2528.8292140908
 30
0.0
  0
VERTEX
  5
4E8
  8
0
  6
CONTINUOUS
 62
     7
 10
704.3910330538
 20
2528.824803347
 30
0.0
  0
VERTEX
  5
4E9
  8
0
  6
CONTINUOUS
 62
     7
 10
702.4907773737
 20
2528.8202137894
 30
0.0
  0
VERTEX
  5
4EA
  8
0
  6
CONTINUOUS
 62
     7
 10
700.9205526118
 20
2528.8154752201
 30
0.0
  0
VERTEX
  5
4EB
  8
0
  6
CONTINUOUS
 62
     7
 10
699.6895974879
 20
2528.8106323427
 30
0.0
  0
VERTEX
  5
4EC
  8
0
  6
CONTINUOUS
 62
     7
 10
698.805124164
 20
2528.8056851572
 30
0.0
  0
VERTEX
  5
4ED
  8
0
  6
CONTINUOUS
 62
     7
 10
698.272377849
 20
2528.8006932682
 30
0.0
  0
VERTEX
  5
4EE
  8
0
  6
CONTINUOUS
 62
     7
 10
698.0996435885
 20
2528.7965209431
 30
0.0
  0
SEQEND
  5
9D2
  8
0
  6
CONTINUOUS
 62
     7
  0
POLYLINE
  5
9F
  8
0
  6
CONTINUOUS
 62
     7
 66
     1
 10
0.0
 20
0.0
 30
0.0
  0
VERTEX
  5
4EF
  8
0
  6
CONTINUOUS
 62
     7
 10
698.0949944262
 20
2528.7953884548
 30
0.0
  0
VERTEX
  5
4F0
  8
0
  6
CONTINUOUS
 62
     7
 10
698.272377849
 20
2528.7906349844
 30
0.0
  0
VERTEX
  5
4F1
  8
0
  6
CONTINUOUS
 62
     7
 10
698.805124164
 20
2528.7856430954
 30
0.0
  0
VERTEX
  5
4F2
  8
0
  6
CONTINUOUS
 62
     7
 10
699.6895974879
 20
2528.7807108111
 30
0.0
  0
VERTEX
  5
4F3
  8
0
  6
CONTINUOUS
 62
     7
 10
700.9205526118
 20
2528.7758530325
 30
0.0
  0
VERTEX
  5
4F4
  8
0
  6
CONTINUOUS
 62
     7
 10
702.4907773737
 20
2528.7711144633
 30
0.0
  0
VERTEX
  5
4F5
  8
0
  6
CONTINUOUS
 62
     7
 10
704.3910330538
 20
2528.7665249056
 30
0.0
  0
VERTEX
  5
4F6
  8
0
  6
CONTINUOUS
 62
     7
 10
706.6102331881
 20
2528.7621141619
 30
0.0
  0
VERTEX
  5
4F7
  8
0
  6
CONTINUOUS
 62
     7
 10
709.1353243593
 20
2528.7578822321
 30
0.0
  0
VERTEX
  5
4F8
  8
0
  6
CONTINUOUS
 62
     7
 10
711.9515246157
 20
2528.7538887209
 30
0.0
  0
VERTEX
  5
4F9
  8
0
  6
CONTINUOUS
 62
     7
 10
715.0422042612
 20
2528.7501336283
 30
0.0
  0
VERTEX
  5
4FA
  8
0
  6
CONTINUOUS
 62
     7
 10
718.3893030886
 20
2528.7466467566
 30
0.0
  0
VERTEX
  5
4FB
  8
0
  6
CONTINUOUS
 62
     7
 10
721.9732111696
 20
2528.7434430069
 30
0.0
  0
VERTEX
  5
4FC
  8
0
  6
CONTINUOUS
 62
     7
 10
725.7728284601
 20
2528.7405521816
 30
0.0
  0
VERTEX
  5
4FD
  8
0
  6
CONTINUOUS
 62
     7
 10
729.7658628229
 20
2528.7379742808
 30
0.0
  0
VERTEX
  5
4FE
  8
0
  6
CONTINUOUS
 62
     7
 10
733.9288896326
 20
2528.7357540077
 30
0.0
  0
VERTEX
  5
4FF
  8
0
  6
CONTINUOUS
 62
     7
 10
738.2375305895
 20
2528.7338615603
 30
0.0
  0
VERTEX
  5
500
  8
0
  6
CONTINUOUS
 62
     7
 10
742.6664537195
 20
2528.732356543
 30
0.0
  0
VERTEX
  5
501
  8
0
  6
CONTINUOUS
 62
     7
 10
747.1896713976
 20
2528.7312091536
 30
0.0
  0
VERTEX
  5
502
  8
0
  6
CONTINUOUS
 62
     7
 10
751.7805999521
 20
2528.7304342932
 30
0.0
  0
VERTEX
  5
503
  8
0
  6
CONTINUOUS
 62
     7
 10
756.4123576884
 20
2528.730046863
 30
0.0
  0
VERTEX
  5
504
  8
0
  6
CONTINUOUS
 62
     7
 10
761.0577648882
 20
2528.730046863
 30
0.0
  0
VERTEX
  5
505
  8
0
  6
CONTINUOUS
 62
     7
 10
765.6895822291
 20
2528.7304342932
 30
0.0
  0
VERTEX
  5
506
  8
0
  6
CONTINUOUS
 62
     7
 10
770.2805107836
 20
2528.7312091536
 30
0.0
  0
VERTEX
  5
507
  8
0
  6
CONTINUOUS
 62
     7
 10
774.8037284617
 20
2528.732356543
 30
0.0
  0
VERTEX
  5
508
  8
0
  6
CONTINUOUS
 62
     7
 10
779.2326515917
 20
2528.7338615603
 30
0.0
  0
VERTEX
  5
509
  8
0
  6
CONTINUOUS
 62
     7
 10
783.5412329439
 20
2528.7357540077
 30
0.0
  0
VERTEX
  5
50A
  8
0
  6
CONTINUOUS
 62
     7
 10
787.7043193583
 20
2528.7379742808
 30
0.0
  0
VERTEX
  5
50B
  8
0
  6
CONTINUOUS
 62
     7
 10
791.6973537211
 20
2528.7405521816
 30
0.0
  0
VERTEX
  5
50C
  8
0
  6
CONTINUOUS
 62
     7
 10
795.4969710116
 20
2528.7434430069
 30
0.0
  0
VERTEX
  5
50D
  8
0
  6
CONTINUOUS
 62
     7
 10
799.080819488
 20
2528.7466467566
 30
0.0
  0
VERTEX
  5
50E
  8
0
  6
CONTINUOUS
 62
     7
 10
802.42797792
 20
2528.7501336283
 30
0.0
  0
VERTEX
  5
50F
  8
0
  6
CONTINUOUS
 62
     7
 10
805.5186575655
 20
2528.7538887209
 30
0.0
  0
VERTEX
  5
510
  8
0
  6
CONTINUOUS
 62
     7
 10
808.3348578219
 20
2528.7578822321
 30
0.0
  0
VERTEX
  5
511
  8
0
  6
CONTINUOUS
 62
     7
 10
810.8598893885
 20
2528.7621141619
 30
0.0
  0
VERTEX
  5
512
  8
0
  6
CONTINUOUS
 62
     7
 10
813.0791491274
 20
2528.7665249056
 30
0.0
  0
VERTEX
  5
513
  8
0
  6
CONTINUOUS
 62
     7
 10
814.9794048075
 20
2528.7711144633
 30
0.0
  0
VERTEX
  5
514
  8
0
  6
CONTINUOUS
 62
     7
 10
816.5496295695
 20
2528.7758530325
 30
0.0
  0
VERTEX
  5
515
  8
0
  6
CONTINUOUS
 62
     7
 10
817.7805846934
 20
2528.7807108111
 30
0.0
  0
VERTEX
  5
516
  8
0
  6
CONTINUOUS
 62
     7
 10
818.6649984125
 20
2528.7856430954
 30
0.0
  0
VERTEX
  5
517
  8
0
  6
CONTINUOUS
 62
     7
 10
819.1977447275
 20
2528.7906349844
 30
0.0
  0
VERTEX
  5
518
  8
0
  6
CONTINUOUS
 62
     7
 10
819.3745321039
 20
2528.7952543444
 30
0.0
  0
SEQEND
  5
9D1
  8
0
  6
CONTINUOUS
 62
     7
  0
POLYLINE
  5
A0
  8
0
  6
CONTINUOUS
 62
     7
 66
     1
 10
0.0
 20
0.0
 30
0.0
  0
VERTEX
  5
519
  8
0
  6
CONTINUOUS
 62
     7
 10
707.3769873385
 20
2453.2800437159
 30
0.0
  0
VERTEX
  5
51A
  8
0
  6
CONTINUOUS
 62
     7
 10
707.4616855387
 20
2453.2787473149
 30
0.0
  0
VERTEX
  5
51B
  8
0
  6
CONTINUOUS
 62
     7
 10
707.9876369242
 20
2453.2741875595
 30
0.0
  0
VERTEX
  5
51C
  8
0
  6
CONTINUOUS
 62
     7
 10
708.8603085284
 20
2453.2696725077
 30
0.0
  0
VERTEX
  5
51D
  8
0
  6
CONTINUOUS
 62
     7
 10
710.0736206774
 20
2453.265261764
 30
0.0
  0
VERTEX
  5
51E
  8
0
  6
CONTINUOUS
 62
     7
 10
711.6193479304
 20
2453.2609702296
 30
0.0
  0
VERTEX
  5
51F
  8
0
  6
CONTINUOUS
 62
     7
 10
713.4869402651
 20
2453.2568426079
 30
0.0
  0
VERTEX
  5
520
  8
0
  6
CONTINUOUS
 62
     7
 10
715.663582683
 20
2453.252878899
 30
0.0
  0
VERTEX
  5
521
  8
0
  6
CONTINUOUS
 62
     7
 10
718.1344932322
 20
2453.2491387076
 30
0.0
  0
VERTEX
  5
522
  8
0
  6
CONTINUOUS
 62
     7
 10
720.8827441935
 20
2453.2456220335
 30
0.0
  0
VERTEX
  5
523
  8
0
  6
CONTINUOUS
 62
     7
 10
723.8895601038
 20
2453.2423586792
 30
0.0
  0
VERTEX
  5
524
  8
0
  6
CONTINUOUS
 62
     7
 10
727.1343773607
 20
2453.2393933481
 30
0.0
  0
VERTEX
  5
525
  8
0
  6
CONTINUOUS
 62
     7
 10
730.5950826411
 20
2453.2367111391
 30
0.0
  0
VERTEX
  5
526
  8
0
  6
CONTINUOUS
 62
     7
 10
734.2480129008
 20
2453.2343567557
 30
0.0
  0
VERTEX
  5
527
  8
0
  6
CONTINUOUS
 62
     7
 10
738.0681937937
 20
2453.2323301977
 30
0.0
  0
VERTEX
  5
528
  8
0
  6
CONTINUOUS
 62
     7
 10
742.0295780901
 20
2453.2306612677
 30
0.0
  0
VERTEX
  5
529
  8
0
  6
CONTINUOUS
 62
     7
 10
746.1050456766
 20
2453.2293499655
 30
0.0
  0
VERTEX
  5
52A
  8
0
  6
CONTINUOUS
 62
     7
 10
750.2668207888
 20
2453.2283962912
 30
0.0
  0
VERTEX
  5
52B
  8
0
  6
CONTINUOUS
 62
     7
 10
754.486472011
 20
2453.2278300471
 30
0.0
  0
VERTEX
  5
52C
  8
0
  6
CONTINUOUS
 62
     7
 10
758.7350910906
 20
2453.227636332
 30
0.0
  0
VERTEX
  5
52D
  8
0
  6
CONTINUOUS
 62
     7
 10
762.9837101702
 20
2453.2278300471
 30
0.0
  0
VERTEX
  5
52E
  8
0
  6
CONTINUOUS
 62
     7
 10
767.2033613924
 20
2453.2283962912
 30
0.0
  0
VERTEX
  5
52F
  8
0
  6
CONTINUOUS
 62
     7
 10
771.3650768999
 20
2453.2293499655
 30
0.0
  0
VERTEX
  5
530
  8
0
  6
CONTINUOUS
 62
     7
 10
775.4406040911
 20
2453.2306612677
 30
0.0
  0
VERTEX
  5
531
  8
0
  6
CONTINUOUS
 62
     7
 10
779.4019883875
 20
2453.2323301977
 30
0.0
  0
VERTEX
  5
532
  8
0
  6
CONTINUOUS
 62
     7
 10
783.2221692805
 20
2453.2343567557
 30
0.0
  0
VERTEX
  5
533
  8
0
  6
CONTINUOUS
 62
     7
 10
786.8750995402
 20
2453.2367111391
 30
0.0
  0
VERTEX
  5
534
  8
0
  6
CONTINUOUS
 62
     7
 10
790.3358048205
 20
2453.2393933481
 30
0.0
  0
VERTEX
  5
535
  8
0
  6
CONTINUOUS
 62
     7
 10
793.5806220774
 20
2453.2423586792
 30
0.0
  0
VERTEX
  5
536
  8
0
  6
CONTINUOUS
 62
     7
 10
796.5874379877
 20
2453.2456220335
 30
0.0
  0
VERTEX
  5
537
  8
0
  6
CONTINUOUS
 62
     7
 10
799.335688949
 20
2453.2491387076
 30
0.0
  0
VERTEX
  5
538
  8
0
  6
CONTINUOUS
 62
     7
 10
801.8065994982
 20
2453.252878899
 30
0.0
  0
VERTEX
  5
539
  8
0
  6
CONTINUOUS
 62
     7
 10
803.9832419161
 20
2453.2568426079
 30
0.0
  0
VERTEX
  5
53A
  8
0
  6
CONTINUOUS
 62
     7
 10
805.8508342509
 20
2453.2609702296
 30
0.0
  0
VERTEX
  5
53B
  8
0
  6
CONTINUOUS
 62
     7
 10
807.3965615038
 20
2453.265261764
 30
0.0
  0
VERTEX
  5
53C
  8
0
  6
CONTINUOUS
 62
     7
 10
808.6098736529
 20
2453.2696725077
 30
0.0
  0
VERTEX
  5
53D
  8
0
  6
CONTINUOUS
 62
     7
 10
809.4824856524
 20
2453.2741875595
 30
0.0
  0
VERTEX
  5
53E
  8
0
  6
CONTINUOUS
 62
     7
 10
810.0084966425
 20
2453.2787473149
 30
0.0
  0
VERTEX
  5
53F
  8
0
  6
CONTINUOUS
 62
     7
 10
810.1140564684
 20
2453.2804460472
 30
0.0
  0
SEQEND
  5
9D0
  8
0
  6
CONTINUOUS
 62
     7
  0
POLYLINE
  5
A1
  8
0
  6
CONTINUOUS
 62
     7
 66
     1
 10
0.0
 20
0.0
 30
0.0
  0
VERTEX
  5
540
  8
0
  6
CONTINUOUS
 62
     7
 10
711.8352359537
 20
2528.7957907862
 30
0.0
  0
VERTEX
  5
541
  8
0
  6
CONTINUOUS
 62
     7
 10
711.8350571398
 20
2528.7956715769
 30
0.0
  0
VERTEX
  5
542
  8
0
  6
CONTINUOUS
 62
     7
 10
712.0135730509
 20
2528.791245932
 30
0.0
  0
VERTEX
  5
543
  8
0
  6
CONTINUOUS
 62
     7
 10
712.5476306681
 20
2528.7868500895
 30
0.0
  0
VERTEX
  5
544
  8
0
  6
CONTINUOUS
 62
     7
 10
713.4331768755
 20
2528.7825138516
 30
0.0
  0
VERTEX
  5
545
  8
0
  6
CONTINUOUS
 62
     7
 10
714.6634763483
 20
2528.778296823
 30
0.0
  0
VERTEX
  5
546
  8
0
  6
CONTINUOUS
 62
     7
 10
716.2292307619
 20
2528.7741990036
 30
0.0
  0
VERTEX
  5
547
  8
0
  6
CONTINUOUS
 62
     7
 10
718.1185191874
 20
2528.7702799982
 30
0.0
  0
VERTEX
  5
548
  8
0
  6
CONTINUOUS
 62
     7
 10
720.316857696
 20
2528.7665398068
 30
0.0
  0
VERTEX
  5
549
  8
0
  6
CONTINUOUS
 62
     7
 10
722.8076165919
 20
2528.7630231327
 30
0.0
  0
VERTEX
  5
54A
  8
0
  6
CONTINUOUS
 62
     7
 10
725.5717819933
 20
2528.7597597784
 30
0.0
  0
VERTEX
  5
54B
  8
0
  6
CONTINUOUS
 62
     7
 10
728.5883730654
 20
2528.756764645
 30
0.0
  0
VERTEX
  5
54C
  8
0
  6
CONTINUOUS
 62
     7
 10
731.8343228106
 20
2528.7540675349
 30
0.0
  0
VERTEX
  5
54D
  8
0
  6
CONTINUOUS
 62
     7
 10
735.2850741152
 20
2528.7516833491
 30
0.0
  0
VERTEX
  5
54E
  8
0
  6
CONTINUOUS
 62
     7
 10
738.9142817263
 20
2528.74964189
 30
0.0
  0
VERTEX
  5
54F
  8
0
  6
CONTINUOUS
 62
     7
 10
742.6943486933
 20
2528.7479431576
 30
0.0
  0
VERTEX
  5
550
  8
0
  6
CONTINUOUS
 62
     7
 10
746.5964859728
 20
2528.7466169543
 30
0.0
  0
VERTEX
  5
551
  8
0
  6
CONTINUOUS
 62
     7
 10
750.5910104517
 20
2528.7456483788
 30
0.0
  0
VERTEX
  5
552
  8
0
  6
CONTINUOUS
 62
     7
 10
754.6474641566
 20
2528.7450821347
 30
0.0
  0
VERTEX
  5
553
  8
0
  6
CONTINUOUS
 62
     7
 10
758.7350910906
 20
2528.7448884196
 30
0.0
  0
VERTEX
  5
554
  8
0
  6
CONTINUOUS
 62
     7
 10
762.8227180247
 20
2528.7450821347
 30
0.0
  0
VERTEX
  5
555
  8
0
  6
CONTINUOUS
 62
     7
 10
766.8791717295
 20
2528.7456483788
 30
0.0
  0
VERTEX
  5
556
  8
0
  6
CONTINUOUS
 62
     7
 10
770.8736962084
 20
2528.7466169543
 30
0.0
  0
VERTEX
  5
557
  8
0
  6
CONTINUOUS
 62
     7
 10
774.7758334879
 20
2528.7479431576
 30
0.0
  0
VERTEX
  5
558
  8
0
  6
CONTINUOUS
 62
     7
 10
778.5559004549
 20
2528.74964189
 30
0.0
  0
VERTEX
  5
559
  8
0
  6
CONTINUOUS
 62
     7
 10
782.185108066
 20
2528.7516833491
 30
0.0
  0
VERTEX
  5
55A
  8
0
  6
CONTINUOUS
 62
     7
 10
785.635799766
 20
2528.7540675349
 30
0.0
  0
VERTEX
  5
55B
  8
0
  6
CONTINUOUS
 62
     7
 10
788.8818091158
 20
2528.756764645
 30
0.0
  0
VERTEX
  5
55C
  8
0
  6
CONTINUOUS
 62
     7
 10
791.8984001879
 20
2528.7597597784
 30
0.0
  0
VERTEX
  5
55D
  8
0
  6
CONTINUOUS
 62
     7
 10
794.6625655894
 20
2528.7630231327
 30
0.0
  0
VERTEX
  5
55E
  8
0
  6
CONTINUOUS
 62
     7
 10
797.1533244852
 20
2528.7665398068
 30
0.0
  0
VERTEX
  5
55F
  8
0
  6
CONTINUOUS
 62
     7
 10
799.3516629938
 20
2528.7702799982
 30
0.0
  0
VERTEX
  5
560
  8
0
  6
CONTINUOUS
 62
     7
 10
801.2408918146
 20
2528.7741990036
 30
0.0
  0
VERTEX
  5
561
  8
0
  6
CONTINUOUS
 62
     7
 10
802.8066462282
 20
2528.778296823
 30
0.0
  0
VERTEX
  5
562
  8
0
  6
CONTINUOUS
 62
     7
 10
804.0370053057
 20
2528.7825138516
 30
0.0
  0
VERTEX
  5
563
  8
0
  6
CONTINUOUS
 62
     7
 10
804.9225515131
 20
2528.7868500895
 30
0.0
  0
VERTEX
  5
564
  8
0
  6
CONTINUOUS
 62
     7
 10
805.4566091303
 20
2528.791245932
 30
0.0
  0
VERTEX
  5
565
  8
0
  6
CONTINUOUS
 62
     7
 10
805.6350654368
 20
2528.7956715769
 30
0.0
  0
VERTEX
  5
566
  8
0
  6
CONTINUOUS
 62
     7
 10
805.6350654368
 20
2528.7956715769
 30
0.0
  0
SEQEND
  5
9CF
  8
0
  6
CONTINUOUS
 62
     7
  0
LINE
  5
A2
  8
0
  6
CONTINUOUS
 62
     7
 10
702.7350968127
 20
2392.0138300604
 30
0.0
 11
702.7350968127
 21
2397.0192418641
 31
0.0
  0
LINE
  5
A3
  8
0
  6
CONTINUOUS
 62
     7
 10
720.9850853686
 20
2397.0192418641
 30
0.0
 11
720.9850853686
 21
2392.0138300604
 31
0.0
  0
LINE
  5
A4
  8
0
  6
CONTINUOUS
 62
     7
 10
702.7350968127
 20
2232.4339271731
 30
0.0
 11
702.7350968127
 21
2392.0138300604
 31
0.0
  0
LINE
  5
A5
  8
0
  6
CONTINUOUS
 62
     7
 10
720.9850853686
 20
2392.0138300604
 30
0.0
 11
720.9850853686
 21
2232.4339271731
 31
0.0
  0
LINE
  5
A6
  8
0
  6
CONTINUOUS
 62
     7
 10
775.1434749369
 20
2227.4380372113
 30
0.0
 11
702.7350968127
 21
2227.4339319414
 31
0.0
  0
POLYLINE
  5
A7
  8
0
  6
CONTINUOUS
 62
     7
 66
     1
 10
0.0
 20
0.0
 30
0.0
  0
VERTEX
  5
567
  8
0
  6
CONTINUOUS
 62
     7
 10
702.7350968127
 20
2232.4339271731
 30
0.0
  0
VERTEX
  5
568
  8
0
  6
CONTINUOUS
 62
     7
 10
702.9236859087
 20
2232.1197287387
 30
0.0
  0
VERTEX
  5
569
  8
0
  6
CONTINUOUS
 62
     7
 10
703.4886187319
 20
2231.8067894525
 30
0.0
  0
VERTEX
  5
56A
  8
0
  6
CONTINUOUS
 62
     7
 10
704.427749515
 20
2231.4963535613
 30
0.0
  0
VERTEX
  5
56B
  8
0
  6
CONTINUOUS
 62
     7
 10
705.73738277
 20
2231.1896429605
 30
0.0
  0
VERTEX
  5
56C
  8
0
  6
CONTINUOUS
 62
     7
 10
707.4122136835
 20
2230.8878720946
 30
0.0
  0
VERTEX
  5
56D
  8
0
  6
CONTINUOUS
 62
     7
 10
709.4457453493
 20
2230.5922405071
 30
0.0
  0
VERTEX
  5
56E
  8
0
  6
CONTINUOUS
 62
     7
 10
711.8298715357
 20
2230.303903038
 30
0.0
  0
VERTEX
  5
56F
  8
0
  6
CONTINUOUS
 62
     7
 10
714.5552343134
 20
2230.0240070767
 30
0.0
  0
VERTEX
  5
570
  8
0
  6
CONTINUOUS
 62
     7
 10
717.6109856371
 20
2229.7536627597
 30
0.0
  0
VERTEX
  5
571
  8
0
  6
CONTINUOUS
 62
     7
 10
720.9850853686
 20
2229.4939355201
 30
0.0
  0
SEQEND
  5
9CE
  8
0
  6
CONTINUOUS
 62
     7
  0
LINE
  5
A8
  8
0
  6
CONTINUOUS
 62
     7
 10
775.1434749369
 20
2388.4379462547
 30
0.0
 11
720.9850853686
 21
2388.4348691649
 31
0.0
  0
LINE
  5
A9
  8
0
  6
CONTINUOUS
 62
     7
 10
702.7350968127
 20
2232.4339271731
 30
0.0
 11
702.7350968127
 21
2227.4339319414
 31
0.0
  0
LINE
  5
AA
  8
0
  6
CONTINUOUS
 62
     7
 10
720.9850853686
 20
2232.4339271731
 30
0.0
 11
720.9850853686
 21
2229.4939355201
 31
0.0
  0
POLYLINE
  5
AB
  8
0
  6
CONTINUOUS
 62
     7
 66
     1
 10
0.0
 20
0.0
 30
0.0
  0
VERTEX
  5
572
  8
0
  6
CONTINUOUS
 62
     7
 10
798.8350695376
 20
2388.4649769611
 30
0.0
  0
VERTEX
  5
573
  8
0
  6
CONTINUOUS
 62
     7
 10
798.6352151636
 20
2388.4615571446
 30
0.0
  0
VERTEX
  5
574
  8
0
  6
CONTINUOUS
 62
     7
 10
798.0387514834
 20
2388.4581969327
 30
0.0
  0
VERTEX
  5
575
  8
0
  6
CONTINUOUS
 62
     7
 10
797.0553344492
 20
2388.4549484796
 30
0.0
  0
VERTEX
  5
576
  8
0
  6
CONTINUOUS
 62
     7
 10
795.7005804781
 20
2388.4518564886
 30
0.0
  0
VERTEX
  5
577
  8
0
  6
CONTINUOUS
 62
     7
 10
793.9961856608
 20
2388.4489731139
 30
0.0
  0
VERTEX
  5
578
  8
0
  6
CONTINUOUS
 62
     7
 10
791.9694489245
 20
2388.446343059
 30
0.0
  0
VERTEX
  5
579
  8
0
  6
CONTINUOUS
 62
     7
 10
789.6527355913
 20
2388.4440110273
 30
0.0
  0
VERTEX
  5
57A
  8
0
  6
CONTINUOUS
 62
     7
 10
787.0830601458
 20
2388.4420217222
 30
0.0
  0
VERTEX
  5
57B
  8
0
  6
CONTINUOUS
 62
     7
 10
784.3015497927
 20
2388.4403974957
 30
0.0
  0
VERTEX
  5
57C
  8
0
  6
CONTINUOUS
 62
     7
 10
781.3527292017
 20
2388.4391606993
 30
0.0
  0
VERTEX
  5
57D
  8
0
  6
CONTINUOUS
 62
     7
 10
778.2836860422
 20
2388.4383411354
 30
0.0
  0
VERTEX
  5
57E
  8
0
  6
CONTINUOUS
 62
     7
 10
775.1434749369
 20
2388.4379462547
 30
0.0
  0
SEQEND
  5
9CD
  8
0
  6
CONTINUOUS
 62
     7
  0
LINE
  5
AC
  8
0
  6
CONTINUOUS
 62
     7
 10
782.2701042895
 20
2388.4539426512
 30
0.0
 11
720.9850853686
 21
2388.4504632301
 31
0.0
  0
POLYLINE
  5
AD
  8
0
  6
CONTINUOUS
 62
     7
 66
     1
 10
0.0
 20
0.0
 30
0.0
  0
VERTEX
  5
57F
  8
0
  6
CONTINUOUS
 62
     7
 10
796.4850968127
 20
2388.4701625652
 30
0.0
  0
VERTEX
  5
580
  8
0
  6
CONTINUOUS
 62
     7
 10
796.2721294169
 20
2388.4674282021
 30
0.0
  0
VERTEX
  5
581
  8
0
  6
CONTINUOUS
 62
     7
 10
795.639187694
 20
2388.464783246
 30
0.0
  0
VERTEX
  5
582
  8
0
  6
CONTINUOUS
 62
     7
 10
794.6043914561
 20
2388.4622873015
 30
0.0
  0
VERTEX
  5
583
  8
0
  6
CONTINUOUS
 62
     7
 10
793.1970065836
 20
2388.4600148744
 30
0.0
  0
VERTEX
  5
584
  8
0
  6
CONTINUOUS
 62
     7
 10
791.4570277933
 20
2388.4580255694
 30
0.0
  0
VERTEX
  5
585
  8
0
  6
CONTINUOUS
 62
     7
 10
789.4338673357
 20
2388.4563864416
 30
0.0
  0
VERTEX
  5
586
  8
0
  6
CONTINUOUS
 62
     7
 10
787.1849840883
 20
2388.4551347441
 30
0.0
  0
VERTEX
  5
587
  8
0
  6
CONTINUOUS
 62
     7
 10
784.7742742304
 20
2388.4543151802
 30
0.0
  0
VERTEX
  5
588
  8
0
  6
CONTINUOUS
 62
     7
 10
782.2701042895
 20
2388.4539426512
 30
0.0
  0
SEQEND
  5
9CC
  8
0
  6
CONTINUOUS
 62
     7
  0
LINE
  5
AE
  8
0
  6
CONTINUOUS
 62
     7
 10
798.8350695376
 20
2388.5095016307
 30
0.0
 11
796.4850968127
 21
2388.5095016307
 31
0.0
  0
LINE
  5
AF
  8
0
  6
CONTINUOUS
 62
     7
 10
798.8350695376
 20
2388.5095016307
 30
0.0
 11
798.8350695376
 21
2388.4649769611
 31
0.0
  0
LINE
  5
B0
  8
0
  6
CONTINUOUS
 62
     7
 10
798.8350695376
 20
2388.4649769611
 30
0.0
 11
798.8350695376
 21
2227.4650679178
 31
0.0
  0
POLYLINE
  5
B1
  8
0
  6
CONTINUOUS
 62
     7
 66
     1
 10
0.0
 20
0.0
 30
0.0
  0
VERTEX
  5
589
  8
0
  6
CONTINUOUS
 62
     7
 10
798.8350695376
 20
2227.4650679178
 30
0.0
  0
VERTEX
  5
58A
  8
0
  6
CONTINUOUS
 62
     7
 10
798.6352151636
 20
2227.4616555518
 30
0.0
  0
VERTEX
  5
58B
  8
0
  6
CONTINUOUS
 62
     7
 10
798.0387514834
 20
2227.45829534
 30
0.0
  0
VERTEX
  5
58C
  8
0
  6
CONTINUOUS
 62
     7
 10
797.0553344492
 20
2227.4550394363
 30
0.0
  0
VERTEX
  5
58D
  8
0
  6
CONTINUOUS
 62
     7
 10
795.7005804781
 20
2227.4519474453
 30
0.0
  0
VERTEX
  5
58E
  8
0
  6
CONTINUOUS
 62
     7
 10
793.9961856608
 20
2227.4490640706
 30
0.0
  0
VERTEX
  5
58F
  8
0
  6
CONTINUOUS
 62
     7
 10
791.9694489245
 20
2227.4464414663
 30
0.0
  0
VERTEX
  5
590
  8
0
  6
CONTINUOUS
 62
     7
 10
789.6527355913
 20
2227.4441094345
 30
0.0
  0
VERTEX
  5
591
  8
0
  6
CONTINUOUS
 62
     7
 10
787.0830601458
 20
2227.4421126789
 30
0.0
  0
VERTEX
  5
592
  8
0
  6
CONTINUOUS
 62
     7
 10
784.3015497927
 20
2227.4404884524
 30
0.0
  0
VERTEX
  5
593
  8
0
  6
CONTINUOUS
 62
     7
 10
781.3527292017
 20
2227.439251656
 30
0.0
  0
VERTEX
  5
594
  8
0
  6
CONTINUOUS
 62
     7
 10
778.2836860422
 20
2227.4384320921
 30
0.0
  0
VERTEX
  5
595
  8
0
  6
CONTINUOUS
 62
     7
 10
775.1434749369
 20
2227.4380372113
 30
0.0
  0
SEQEND
  5
9CB
  8
0
  6
CONTINUOUS
 62
     7
  0
LINE
  5
B2
  8
0
  6
CONTINUOUS
 62
     7
 10
702.7350968127
 20
2397.0192418641
 30
0.0
 11
702.7350968127
 21
2397.0483289308
 31
0.0
  0
LINE
  5
B3
  8
0
  6
CONTINUOUS
 62
     7
 10
720.9850853686
 20
2397.0304549879
 30
0.0
 11
720.9850853686
 21
2397.0192418641
 31
0.0
  0
POLYLINE
  5
B4
  8
0
  6
CONTINUOUS
 62
     7
 66
     1
 10
0.0
 20
0.0
 30
0.0
  0
VERTEX
  5
596
  8
0
  6
CONTINUOUS
 62
     7
 10
733.0151504282
 20
2537.5557364172
 30
0.0
  0
VERTEX
  5
597
  8
0
  6
CONTINUOUS
 62
     7
 10
733.0602711443
 20
2537.5540078825
 30
0.0
  0
VERTEX
  5
598
  8
0
  6
CONTINUOUS
 62
     7
 10
733.4207004313
 20
2537.5507296271
 30
0.0
  0
VERTEX
  5
599
  8
0
  6
CONTINUOUS
 62
     7
 10
734.1364330057
 20
2537.5475258774
 30
0.0
  0
VERTEX
  5
59A
  8
0
  6
CONTINUOUS
 62
     7
 10
735.197514892
 20
2537.5444264359
 30
0.0
  0
VERTEX
  5
59B
  8
0
  6
CONTINUOUS
 62
     7
 10
736.589044929
 20
2537.5414909071
 30
0.0
  0
VERTEX
  5
59C
  8
0
  6
CONTINUOUS
 62
     7
 10
738.2914131884
 20
2537.5387639946
 30
0.0
  0
VERTEX
  5
59D
  8
0
  6
CONTINUOUS
 62
     7
 10
740.2807778124
 20
2537.5362605995
 30
0.0
  0
VERTEX
  5
59E
  8
0
  6
CONTINUOUS
 62
     7
 10
742.5292438273
 20
2537.5340403265
 30
0.0
  0
VERTEX
  5
59F
  8
0
  6
CONTINUOUS
 62
     7
 10
745.0051611666
 20
2537.5321031756
 30
0.0
  0
VERTEX
  5
5A0
  8
0
  6
CONTINUOUS
 62
     7
 10
747.6737803225
 20
2537.5305236525
 30
0.0
  0
VERTEX
  5
5A1
  8
0
  6
CONTINUOUS
 62
     7
 10
750.4977291826
 20
2537.5292719549
 30
0.0
  0
VERTEX
  5
5A2
  8
0
  6
CONTINUOUS
 62
     7
 10
753.4373110537
 20
2537.5284076876
 30
0.0
  0
VERTEX
  5
5A3
  8
0
  6
CONTINUOUS
 62
     7
 10
756.4512795214
 20
2537.5279159493
 30
0.0
  0
VERTEX
  5
5A4
  8
0
  6
CONTINUOUS
 62
     7
 10
759.4972556833
 20
2537.5278265423
 30
0.0
  0
VERTEX
  5
5A5
  8
0
  6
CONTINUOUS
 62
     7
 10
762.5325626139
 20
2537.5281096644
 30
0.0
  0
VERTEX
  5
5A6
  8
0
  6
CONTINUOUS
 62
     7
 10
765.5145233874
 20
2537.5287951178
 30
0.0
  0
VERTEX
  5
5A7
  8
0
  6
CONTINUOUS
 62
     7
 10
768.4013551478
 20
2537.5298531002
 30
0.0
  0
VERTEX
  5
5A8
  8
0
  6
CONTINUOUS
 62
     7
 10
771.1525267367
 20
2537.5312687105
 30
0.0
  0
VERTEX
  5
5A9
  8
0
  6
CONTINUOUS
 62
     7
 10
773.7292951349
 20
2537.5330270476
 30
0.0
  0
VERTEX
  5
5AA
  8
0
  6
CONTINUOUS
 62
     7
 10
776.0956591372
 20
2537.5351132101
 30
0.0
  0
VERTEX
  5
5AB
  8
0
  6
CONTINUOUS
 62
     7
 10
778.2182997469
 20
2537.5374824948
 30
0.0
  0
VERTEX
  5
5AC
  8
0
  6
CONTINUOUS
 62
     7
 10
780.0674146418
 20
2537.5401050991
 30
0.0
  0
VERTEX
  5
5AD
  8
0
  6
CONTINUOUS
 62
     7
 10
781.6170758013
 20
2537.5429363198
 30
0.0
  0
VERTEX
  5
5AE
  8
0
  6
CONTINUOUS
 62
     7
 10
782.8455275301
 20
2537.5459612555
 30
0.0
  0
VERTEX
  5
5AF
  8
0
  6
CONTINUOUS
 62
     7
 10
783.7355440859
 20
2537.5491203017
 30
0.0
  0
VERTEX
  5
5B0
  8
0
  6
CONTINUOUS
 62
     7
 10
784.2745488886
 20
2537.5523687548
 30
0.0
  0
VERTEX
  5
5B1
  8
0
  6
CONTINUOUS
 62
     7
 10
784.4550913576
 20
2537.5556619114
 30
0.0
  0
VERTEX
  5
5B2
  8
0
  6
CONTINUOUS
 62
     7
 10
784.4550913576
 20
2537.5556619114
 30
0.0
  0
SEQEND
  5
9CA
  8
0
  6
CONTINUOUS
 62
     7
  0
POLYLINE
  5
B5
  8
0
  6
CONTINUOUS
 62
     7
 66
     1
 10
0.0
 20
0.0
 30
0.0
  0
VERTEX
  5
5B3
  8
0
  6
CONTINUOUS
 62
     7
 10
803.7351077799
 20
2682.4432135767
 30
0.0
  0
VERTEX
  5
5B4
  8
0
  6
CONTINUOUS
 62
     7
 10
803.6375945811
 20
2682.4400247282
 30
0.0
  0
VERTEX
  5
5B5
  8
0
  6
CONTINUOUS
 62
     7
 10
803.200156093
 20
2682.4357331938
 30
0.0
  0
VERTEX
  5
5B6
  8
0
  6
CONTINUOUS
 62
     7
 10
802.4147456888
 20
2682.431501264
 30
0.0
  0
VERTEX
  5
5B7
  8
0
  6
CONTINUOUS
 62
     7
 10
801.2875026469
 20
2682.4273587412
 30
0.0
  0
VERTEX
  5
5B8
  8
0
  6
CONTINUOUS
 62
     7
 10
799.8272484545
 20
2682.42336523
 30
0.0
  0
VERTEX
  5
5B9
  8
0
  6
CONTINUOUS
 62
     7
 10
798.0453675989
 20
2682.4194909281
 30
0.0
  0
VERTEX
  5
5BA
  8
0
  6
CONTINUOUS
 62
     7
 10
795.955807567
 20
2682.4158252424
 30
0.0
  0
VERTEX
  5
5BB
  8
0
  6
CONTINUOUS
 62
     7
 10
793.5749596361
 20
2682.4123681731
 30
0.0
  0
VERTEX
  5
5BC
  8
0
  6
CONTINUOUS
 62
     7
 10
790.9214204554
 20
2682.4091495222
 30
0.0
  0
VERTEX
  5
5BD
  8
0
  6
CONTINUOUS
 62
     7
 10
788.0160516505
 20
2682.4062288946
 30
0.0
  0
VERTEX
  5
5BE
  8
0
  6
CONTINUOUS
 62
     7
 10
784.8814433817
 20
2682.4035466856
 30
0.0
  0
VERTEX
  5
5BF
  8
0
  6
CONTINUOUS
 62
     7
 10
781.5422123675
 20
2682.4012221045
 30
0.0
  0
VERTEX
  5
5C0
  8
0
  6
CONTINUOUS
 62
     7
 10
778.0245250468
 20
2682.3991955466
 30
0.0
  0
VERTEX
  5
5C1
  8
0
  6
CONTINUOUS
 62
     7
 10
774.3558591608
 20
2682.3975266165
 30
0.0
  0
VERTEX
  5
5C2
  8
0
  6
CONTINUOUS
 62
     7
 10
770.5649441485
 20
2682.3962153143
 30
0.0
  0
VERTEX
  5
5C3
  8
0
  6
CONTINUOUS
 62
     7
 10
766.6814035181
 20
2682.39526164
 30
0.0
  0
VERTEX
  5
5C4
  8
0
  6
CONTINUOUS
 62
     7
 10
762.7356952433
 20
2682.3946953959
 30
0.0
  0
VERTEX
  5
5C5
  8
0
  6
CONTINUOUS
 62
     7
 10
758.7586945299
 20
2682.3944867796
 30
0.0
  0
VERTEX
  5
5C6
  8
0
  6
CONTINUOUS
 62
     7
 10
754.7815150027
 20
2682.3946655936
 30
0.0
  0
VERTEX
  5
5C7
  8
0
  6
CONTINUOUS
 62
     7
 10
750.835270286
 20
2682.39526164
 30
0.0
  0
VERTEX
  5
5C8
  8
0
  6
CONTINUOUS
 62
     7
 10
746.950835586
 20
2682.396185512
 30
0.0
  0
VERTEX
  5
5C9
  8
0
  6
CONTINUOUS
 62
     7
 10
743.1586092715
 20
2682.3974968142
 30
0.0
  0
VERTEX
  5
5CA
  8
0
  6
CONTINUOUS
 62
     7
 10
739.4883340601
 20
2682.3991657442
 30
0.0
  0
VERTEX
  5
5CB
  8
0
  6
CONTINUOUS
 62
     7
 10
735.9686797861
 20
2682.4011923022
 30
0.0
  0
VERTEX
  5
5CC
  8
0
  6
CONTINUOUS
 62
     7
 10
732.6271837954
 20
2682.4035168833
 30
0.0
  0
VERTEX
  5
5CD
  8
0
  6
CONTINUOUS
 62
     7
 10
729.4900125269
 20
2682.40616929
 30
0.0
  0
VERTEX
  5
5CE
  8
0
  6
CONTINUOUS
 62
     7
 10
726.581782699
 20
2682.4091197199
 30
0.0
  0
VERTEX
  5
5CF
  8
0
  6
CONTINUOUS
 62
     7
 10
723.9251440768
 20
2682.4123383707
 30
0.0
  0
VERTEX
  5
5D0
  8
0
  6
CONTINUOUS
 62
     7
 10
721.5409582857
 20
2682.4157954401
 30
0.0
  0
VERTEX
  5
5D1
  8
0
  6
CONTINUOUS
 62
     7
 10
719.4478219752
 20
2682.4194611258
 30
0.0
  0
VERTEX
  5
5D2
  8
0
  6
CONTINUOUS
 62
     7
 10
717.6622456316
 20
2682.4233056254
 30
0.0
  0
VERTEX
  5
5D3
  8
0
  6
CONTINUOUS
 62
     7
 10
716.1980575327
 20
2682.4273289389
 30
0.0
  0
VERTEX
  5
5D4
  8
0
  6
CONTINUOUS
 62
     7
 10
715.0668209795
 20
2682.4314416594
 30
0.0
  0
VERTEX
  5
5D5
  8
0
  6
CONTINUOUS
 62
     7
 10
714.2772978548
 20
2682.4356735892
 30
0.0
  0
VERTEX
  5
5D6
  8
0
  6
CONTINUOUS
 62
     7
 10
713.8357466463
 20
2682.4399651236
 30
0.0
  0
VERTEX
  5
5D7
  8
0
  6
CONTINUOUS
 62
     7
 10
713.7350744013
 20
2682.4432135767
 30
0.0
  0
SEQEND
  5
9C9
  8
0
  6
CONTINUOUS
 62
     7
  0
POLYLINE
  5
B6
  8
0
  6
CONTINUOUS
 62
     7
 66
     1
 10
0.0
 20
0.0
 30
0.0
  0
VERTEX
  5
5D8
  8
0
  6
CONTINUOUS
 62
     7
 10
714.0127724413
 20
2755.7777584738
 30
0.0
  0
VERTEX
  5
5D9
  8
0
  6
CONTINUOUS
 62
     7
 10
714.6288460497
 20
2755.7734967417
 30
0.0
  0
VERTEX
  5
5DA
  8
0
  6
CONTINUOUS
 62
     7
 10
715.5902093653
 20
2755.7693244166
 30
0.0
  0
VERTEX
  5
5DB
  8
0
  6
CONTINUOUS
 62
     7
 10
716.8891733889
 20
2755.7652414984
 30
0.0
  0
VERTEX
  5
5DC
  8
0
  6
CONTINUOUS
 62
     7
 10
718.5156649355
 20
2755.7613075918
 30
0.0
  0
VERTEX
  5
5DD
  8
0
  6
CONTINUOUS
 62
     7
 10
720.4569286112
 20
2755.7575524992
 30
0.0
  0
VERTEX
  5
5DE
  8
0
  6
CONTINUOUS
 62
     7
 10
722.6977652315
 20
2755.7540060229
 30
0.0
  0
VERTEX
  5
5DF
  8
0
  6
CONTINUOUS
 62
     7
 10
725.2206510309
 20
2755.7506681628
 30
0.0
  0
VERTEX
  5
5E0
  8
0
  6
CONTINUOUS
 62
     7
 10
728.005856872
 20
2755.7475687212
 30
0.0
  0
VERTEX
  5
5E1
  8
0
  6
CONTINUOUS
 62
     7
 10
731.0315078501
 20
2755.7447673029
 30
0.0
  0
VERTEX
  5
5E2
  8
0
  6
CONTINUOUS
 62
     7
 10
734.2740005259
 20
2755.7422639078
 30
0.0
  0
VERTEX
  5
5E3
  8
0
  6
CONTINUOUS
 62
     7
 10
737.7079433207
 20
2755.7400883383
 30
0.0
  0
VERTEX
  5
5E4
  8
0
  6
CONTINUOUS
 62
     7
 10
741.3064545397
 20
2755.7382405943
 30
0.0
  0
VERTEX
  5
5E5
  8
0
  6
CONTINUOUS
 62
     7
 10
745.041341186
 20
2755.7367504782
 30
0.0
  0
VERTEX
  5
5E6
  8
0
  6
CONTINUOUS
 62
     7
 10
748.8833969836
 20
2755.7356179899
 30
0.0
  0
VERTEX
  5
5E7
  8
0
  6
CONTINUOUS
 62
     7
 10
752.8025811915
 20
2755.7348729319
 30
0.0
  0
VERTEX
  5
5E8
  8
0
  6
CONTINUOUS
 62
     7
 10
756.7681974177
 20
2755.7344855017
 30
0.0
  0
VERTEX
  5
5E9
  8
0
  6
CONTINUOUS
 62
     7
 10
760.7491916422
 20
2755.7344855017
 30
0.0
  0
VERTEX
  5
5EA
  8
0
  6
CONTINUOUS
 62
     7
 10
760.838658214
 20
2755.734515304
 30
0.0
  0
SEQEND
  5
9C8
  8
0
  6
CONTINUOUS
 62
     7
  0
POLYLINE
  5
B7
  8
0
  6
CONTINUOUS
 62
     7
 66
     1
 10
0.0
 20
0.0
 30
0.0
  0
VERTEX
  5
5EB
  8
0
  6
CONTINUOUS
 62
     7
 10
777.9429858927
 20
2755.7391048617
 30
0.0
  0
VERTEX
  5
5EC
  8
0
  6
CONTINUOUS
 62
     7
 10
779.8040217165
 20
2755.7401181406
 30
0.0
  0
VERTEX
  5
5ED
  8
0
  6
CONTINUOUS
 62
     7
 10
783.2358187441
 20
2755.7422937102
 30
0.0
  0
VERTEX
  5
5EE
  8
0
  6
CONTINUOUS
 62
     7
 10
786.4758676295
 20
2755.7447971052
 30
0.0
  0
VERTEX
  5
5EF
  8
0
  6
CONTINUOUS
 62
     7
 10
789.4988363985
 20
2755.7475985235
 30
0.0
  0
VERTEX
  5
5F0
  8
0
  6
CONTINUOUS
 62
     7
 10
792.2810024027
 20
2755.7506979651
 30
0.0
  0
VERTEX
  5
5F1
  8
0
  6
CONTINUOUS
 62
     7
 10
794.8006695513
 20
2755.7540358252
 30
0.0
  0
VERTEX
  5
5F2
  8
0
  6
CONTINUOUS
 62
     7
 10
797.0380491022
 20
2755.7576121039
 30
0.0
  0
VERTEX
  5
5F3
  8
0
  6
CONTINUOUS
 62
     7
 10
798.9756768946
 20
2755.7613671965
 30
0.0
  0
VERTEX
  5
5F4
  8
0
  6
CONTINUOUS
 62
     7
 10
800.598353744
 20
2755.765301103
 30
0.0
  0
VERTEX
  5
5F5
  8
0
  6
CONTINUOUS
 62
     7
 10
801.893383861
 20
2755.7693840212
 30
0.0
  0
VERTEX
  5
5F6
  8
0
  6
CONTINUOUS
 62
     7
 10
802.8506344561
 20
2755.7735563463
 30
0.0
  0
VERTEX
  5
5F7
  8
0
  6
CONTINUOUS
 62
     7
 10
803.4626549486
 20
2755.7778180784
 30
0.0
  0
VERTEX
  5
5F8
  8
0
  6
CONTINUOUS
 62
     7
 10
803.7246173624
 20
2755.7821096129
 30
0.0
  0
VERTEX
  5
5F9
  8
0
  6
CONTINUOUS
 62
     7
 10
803.6344355349
 20
2755.7864309496
 30
0.0
  0
VERTEX
  5
5FA
  8
0
  6
CONTINUOUS
 62
     7
 10
803.1928843264
 20
2755.790722484
 30
0.0
  0
VERTEX
  5
5FB
  8
0
  6
CONTINUOUS
 62
     7
 10
802.4033612017
 20
2755.7949246115
 30
0.0
  0
VERTEX
  5
5FC
  8
0
  6
CONTINUOUS
 62
     7
 10
801.2721246485
 20
2755.7990671343
 30
0.0
  0
VERTEX
  5
5FD
  8
0
  6
CONTINUOUS
 62
     7
 10
799.8079365496
 20
2755.8030904478
 30
0.0
  0
VERTEX
  5
5FE
  8
0
  6
CONTINUOUS
 62
     7
 10
798.0223006014
 20
2755.8069349474
 30
0.0
  0
VERTEX
  5
5FF
  8
0
  6
CONTINUOUS
 62
     7
 10
795.9292238955
 20
2755.8106006331
 30
0.0
  0
VERTEX
  5
600
  8
0
  6
CONTINUOUS
 62
     7
 10
793.5450381045
 20
2755.8140577025
 30
0.0
  0
VERTEX
  5
601
  8
0
  6
CONTINUOUS
 62
     7
 10
790.8883994822
 20
2755.8172763533
 30
0.0
  0
VERTEX
  5
602
  8
0
  6
CONTINUOUS
 62
     7
 10
787.9801100497
 20
2755.8201969809
 30
0.0
  0
VERTEX
  5
603
  8
0
  6
CONTINUOUS
 62
     7
 10
784.8429983858
 20
2755.8228493876
 30
0.0
  0
VERTEX
  5
604
  8
0
  6
CONTINUOUS
 62
     7
 10
781.5015023951
 20
2755.825203771
 30
0.0
  0
VERTEX
  5
605
  8
0
  6
CONTINUOUS
 62
     7
 10
777.9818481211
 20
2755.827230329
 30
0.0
  0
VERTEX
  5
606
  8
0
  6
CONTINUOUS
 62
     7
 10
777.9762452845
 20
2755.827230329
 30
0.0
  0
SEQEND
  5
9C7
  8
0
  6
CONTINUOUS
 62
     7
  0
POLYLINE
  5
B8
  8
0
  6
CONTINUOUS
 62
     7
 66
     1
 10
0.0
 20
0.0
 30
0.0
  0
VERTEX
  5
607
  8
0
  6
CONTINUOUS
 62
     7
 10
760.8754342798
 20
2755.8318496889
 30
0.0
  0
VERTEX
  5
608
  8
0
  6
CONTINUOUS
 62
     7
 10
758.7114876513
 20
2755.8319092936
 30
0.0
  0
VERTEX
  5
609
  8
0
  6
CONTINUOUS
 62
     7
 10
754.7344273333
 20
2755.8317006773
 30
0.0
  0
VERTEX
  5
60A
  8
0
  6
CONTINUOUS
 62
     7
 10
750.7887190584
 20
2755.8311344332
 30
0.0
  0
VERTEX
  5
60B
  8
0
  6
CONTINUOUS
 62
     7
 10
746.9052380327
 20
2755.8301807589
 30
0.0
  0
VERTEX
  5
60C
  8
0
  6
CONTINUOUS
 62
     7
 10
743.1143230204
 20
2755.8288694567
 30
0.0
  0
VERTEX
  5
60D
  8
0
  6
CONTINUOUS
 62
     7
 10
739.4456571345
 20
2755.8272005266
 30
0.0
  0
VERTEX
  5
60E
  8
0
  6
CONTINUOUS
 62
     7
 10
735.9279102091
 20
2755.8251739687
 30
0.0
  0
VERTEX
  5
60F
  8
0
  6
CONTINUOUS
 62
     7
 10
732.5887387995
 20
2755.8228195853
 30
0.0
  0
VERTEX
  5
610
  8
0
  6
CONTINUOUS
 62
     7
 10
729.4541305308
 20
2755.8201671786
 30
0.0
  0
VERTEX
  5
611
  8
0
  6
CONTINUOUS
 62
     7
 10
726.5487021212
 20
2755.8172167486
 30
0.0
  0
VERTEX
  5
612
  8
0
  6
CONTINUOUS
 62
     7
 10
723.8952225451
 20
2755.8139980978
 30
0.0
  0
VERTEX
  5
613
  8
0
  6
CONTINUOUS
 62
     7
 10
721.5143746142
 20
2755.8105708307
 30
0.0
  0
VERTEX
  5
614
  8
0
  6
CONTINUOUS
 62
     7
 10
719.4248145823
 20
2755.8068753428
 30
0.0
  0
VERTEX
  5
615
  8
0
  6
CONTINUOUS
 62
     7
 10
717.6429337267
 20
2755.8030308432
 30
0.0
  0
VERTEX
  5
616
  8
0
  6
CONTINUOUS
 62
     7
 10
716.1826795344
 20
2755.799037332
 30
0.0
  0
VERTEX
  5
617
  8
0
  6
CONTINUOUS
 62
     7
 10
715.0554364924
 20
2755.7948948092
 30
0.0
  0
VERTEX
  5
618
  8
0
  6
CONTINUOUS
 62
     7
 10
714.2700260882
 20
2755.7906628794
 30
0.0
  0
VERTEX
  5
619
  8
0
  6
CONTINUOUS
 62
     7
 10
713.8325876002
 20
2755.786371345
 30
0.0
  0
VERTEX
  5
61A
  8
0
  6
CONTINUOUS
 62
     7
 10
713.7466377024
 20
2755.7820798105
 30
0.0
  0
VERTEX
  5
61B
  8
0
  6
CONTINUOUS
 62
     7
 10
714.0127724413
 20
2755.7777584738
 30
0.0
  0
SEQEND
  5
9C6
  8
0
  6
CONTINUOUS
 62
     7
  0
POLYLINE
  5
B9
  8
0
  6
CONTINUOUS
 62
     7
 66
     1
 10
0.0
 20
0.0
 30
0.0
  0
VERTEX
  5
61C
  8
0
  6
CONTINUOUS
 62
     7
 10
714.0457338099
 20
2749.0766466803
 30
0.0
  0
VERTEX
  5
61D
  8
0
  6
CONTINUOUS
 62
     7
 10
714.3543070559
 20
2748.6876965708
 30
0.0
  0
VERTEX
  5
61E
  8
0
  6
CONTINUOUS
 62
     7
 10
714.7699898485
 20
2747.4810005373
 30
0.0
  0
VERTEX
  5
61F
  8
0
  6
CONTINUOUS
 62
     7
 10
715.1896065478
 20
2745.569628591
 30
0.0
  0
VERTEX
  5
620
  8
0
  6
CONTINUOUS
 62
     7
 10
715.5148094897
 20
2742.9843963331
 30
0.0
  0
VERTEX
  5
621
  8
0
  6
CONTINUOUS
 62
     7
 10
715.6075543169
 20
2740.0156379885
 30
0.0
  0
VERTEX
  5
622
  8
0
  6
CONTINUOUS
 62
     7
 10
715.4141968493
 20
2737.1775032229
 30
0.0
  0
VERTEX
  5
623
  8
0
  6
CONTINUOUS
 62
     7
 10
715.0199717287
 20
2734.8764957136
 30
0.0
  0
VERTEX
  5
624
  8
0
  6
CONTINUOUS
 62
     7
 10
714.557141662
 20
2733.2877041048
 30
0.0
  0
VERTEX
  5
625
  8
0
  6
CONTINUOUS
 62
     7
 10
714.1434854273
 20
2732.5068236536
 30
0.0
  0
VERTEX
  5
626
  8
0
  6
CONTINUOUS
 62
     7
 10
714.0063351397
 20
2732.5520933813
 30
0.0
  0
SEQEND
  5
9C5
  8
0
  6
CONTINUOUS
 62
     7
  0
POLYLINE
  5
BA
  8
0
  6
CONTINUOUS
 62
     7
 66
     1
 10
0.0
 20
0.0
 30
0.0
  0
VERTEX
  5
627
  8
0
  6
CONTINUOUS
 62
     7
 10
803.7236636881
 20
2734.325480575
 30
0.0
  0
VERTEX
  5
628
  8
0
  6
CONTINUOUS
 62
     7
 10
803.7209218745
 20
2735.2783204264
 30
0.0
  0
VERTEX
  5
629
  8
0
  6
CONTINUOUS
 62
     7
 10
803.6663240198
 20
2737.5700594134
 30
0.0
  0
VERTEX
  5
62A
  8
0
  6
CONTINUOUS
 62
     7
 10
803.6328858141
 20
2740.2055681891
 30
0.0
  0
VERTEX
  5
62B
  8
0
  6
CONTINUOUS
 62
     7
 10
803.6539262537
 20
2742.9691673464
 30
0.0
  0
VERTEX
  5
62C
  8
0
  6
CONTINUOUS
 62
     7
 10
803.7116831545
 20
2745.6079543776
 30
0.0
  0
VERTEX
  5
62D
  8
0
  6
CONTINUOUS
 62
     7
 10
803.7244981531
 20
2747.0686854071
 30
0.0
  0
SEQEND
  5
9C4
  8
0
  6
CONTINUOUS
 62
     7
  0
LINE
  5
BB
  8
0
  6
CONTINUOUS
 62
     7
 10
720.9850853686
 20
2421.2404460854
 30
0.0
 11
720.9850853686
 21
2397.0304549879
 31
0.0
  0
LINE
  5
BC
  8
0
  6
CONTINUOUS
 62
     7
 10
720.9850853686
 20
2421.2404460854
 30
0.0
 11
755.9035724406
 21
2421.2424204892
 31
0.0
  0
LINE
  5
BD
  8
0
  6
CONTINUOUS
 62
     7
 10
720.9850853686
 20
2421.2574781126
 30
0.0
 11
720.9850853686
 21
2421.2404460854
 31
0.0
  0
POLYLINE
  5
BE
  8
0
  6
CONTINUOUS
 62
     7
 66
     1
 10
0.0
 20
0.0
 30
0.0
  0
VERTEX
  5
62E
  8
0
  6
CONTINUOUS
 62
     7
 10
720.9850853686
 20
2421.2574781126
 30
0.0
  0
VERTEX
  5
62F
  8
0
  6
CONTINUOUS
 62
     7
 10
721.4208549265
 20
2421.2547959036
 30
0.0
  0
VERTEX
  5
630
  8
0
  6
CONTINUOUS
 62
     7
 10
722.2554391627
 20
2421.2522329039
 30
0.0
  0
VERTEX
  5
631
  8
0
  6
CONTINUOUS
 62
     7
 10
723.4663671259
 20
2421.2498487181
 30
0.0
  0
VERTEX
  5
632
  8
0
  6
CONTINUOUS
 62
     7
 10
725.0210946802
 20
2421.2477104015
 30
0.0
  0
VERTEX
  5
633
  8
0
  6
CONTINUOUS
 62
     7
 10
726.8776005511
 20
2421.2458775586
 30
0.0
  0
VERTEX
  5
634
  8
0
  6
CONTINUOUS
 62
     7
 10
728.9860552553
 20
2421.2443948931
 30
0.0
  0
VERTEX
  5
635
  8
0
  6
CONTINUOUS
 62
     7
 10
731.2895363573
 20
2421.2433145589
 30
0.0
  0
VERTEX
  5
636
  8
0
  6
CONTINUOUS
 62
     7
 10
733.7261146311
 20
2421.2426440067
 30
0.0
  0
VERTEX
  5
637
  8
0
  6
CONTINUOUS
 62
     7
 10
736.2301057581
 20
2421.2424204892
 30
0.0
  0
SEQEND
  5
9C3
  8
0
  6
CONTINUOUS
 62
     7
  0
LINE
  5
BF
  8
0
  6
CONTINUOUS
 62
     7
 10
736.2301057581
 20
2421.2424204892
 30
0.0
 11
755.9035724406
 21
2421.2424204892
 31
0.0
  0
LINE
  5
C0
  8
0
  6
CONTINUOUS
 62
     7
 10
720.9850853686
 20
2203.2405705399
 30
0.0
 11
782.2701042895
 21
2203.244049961
 31
0.0
  0
LINE
  5
C1
  8
0
  6
CONTINUOUS
 62
     7
 10
720.9850853686
 20
2227.4349675721
 30
0.0
 11
720.9850853686
 21
2203.2405705399
 31
0.0
  0
LINE
  5
C2
  8
0
  6
CONTINUOUS
 62
     7
 10
755.9035724406
 20
2421.2424204892
 30
0.0
 11
781.2400764231
 21
2421.2424204892
 31
0.0
  0
LINE
  5
C3
  8
0
  6
CONTINUOUS
 62
     7
 10
720.9200567011
 20
2453.24557733
 30
0.0
 11
720.9200567011
 21
2421.2589980311
 31
0.0
  0
ARC
  5
C4
  8
0
  6
CONTINUOUS
 62
     7
 10
720.978412754
 20
2422.3638582901
 30
0.0
 40
1.106400298695866
 50
266.9765845641
 51
270.345548508
  0
LINE
  5
C5
  8
0
  6
CONTINUOUS
 62
     7
 10
796.5500658755
 20
2453.24557733
 30
0.0
 11
796.5500658755
 21
2421.2589980311
 31
0.0
  0
POLYLINE
  5
C6
  8
0
  6
CONTINUOUS
 62
     7
 66
     1
 10
0.0
 20
0.0
 30
0.0
  0
VERTEX
  5
638
  8
0
  6
CONTINUOUS
 62
     7
 10
781.2400764231
 20
2421.2424204892
 30
0.0
  0
VERTEX
  5
639
  8
0
  6
CONTINUOUS
 62
     7
 10
783.6351102595
 20
2421.2426291055
 30
0.0
  0
VERTEX
  5
63A
  8
0
  6
CONTINUOUS
 62
     7
 10
785.9711354975
 20
2421.2432326025
 30
0.0
  0
VERTEX
  5
63B
  8
0
  6
CONTINUOUS
 62
     7
 10
788.1906932596
 20
2421.2442309803
 30
0.0
  0
VERTEX
  5
63C
  8
0
  6
CONTINUOUS
 62
     7
 10
790.239066482
 20
2421.245586986
 30
0.0
  0
VERTEX
  5
63D
  8
0
  6
CONTINUOUS
 62
     7
 10
792.0658892397
 20
2421.2472782678
 30
0.0
  0
VERTEX
  5
63E
  8
0
  6
CONTINUOUS
 62
     7
 10
793.626160026
 20
2421.2492601222
 30
0.0
  0
VERTEX
  5
63F
  8
0
  6
CONTINUOUS
 62
     7
 10
794.8813742403
 20
2421.2514729447
 30
0.0
  0
VERTEX
  5
640
  8
0
  6
CONTINUOUS
 62
     7
 10
795.800775886
 20
2421.2538794822
 30
0.0
  0
VERTEX
  5
641
  8
0
  6
CONTINUOUS
 62
     7
 10
796.3615959887
 20
2421.256405229
 30
0.0
  0
VERTEX
  5
642
  8
0
  6
CONTINUOUS
 62
     7
 10
796.5500658755
 20
2421.2589980311
 30
0.0
  0
SEQEND
  5
9C2
  8
0
  6
CONTINUOUS
 62
     7
  0
LINE
  5
C7
  8
0
  6
CONTINUOUS
 62
     7
 10
796.4850968127
 20
2421.2574781126
 30
0.0
 11
796.4850968127
 21
2388.4701625652
 31
0.0
  0
LINE
  5
C8
  8
0
  6
CONTINUOUS
 62
     7
 10
796.4850968127
 20
2227.4536163754
 30
0.0
 11
796.4850968127
 21
2203.260269875
 31
0.0
  0
POLYLINE
  5
C9
  8
0
  6
CONTINUOUS
 62
     7
 66
     1
 10
0.0
 20
0.0
 30
0.0
  0
VERTEX
  5
643
  8
0
  6
CONTINUOUS
 62
     7
 10
782.2701042895
 20
2203.244049961
 30
0.0
  0
VERTEX
  5
644
  8
0
  6
CONTINUOUS
 62
     7
 10
784.7742742304
 20
2203.24442249
 30
0.0
  0
VERTEX
  5
645
  8
0
  6
CONTINUOUS
 62
     7
 10
787.1849840883
 20
2203.2452420539
 30
0.0
  0
VERTEX
  5
646
  8
0
  6
CONTINUOUS
 62
     7
 10
789.4338673357
 20
2203.2464937515
 30
0.0
  0
VERTEX
  5
647
  8
0
  6
CONTINUOUS
 62
     7
 10
791.4570277933
 20
2203.2481328792
 30
0.0
  0
VERTEX
  5
648
  8
0
  6
CONTINUOUS
 62
     7
 10
793.1970065836
 20
2203.2501221842
 30
0.0
  0
VERTEX
  5
649
  8
0
  6
CONTINUOUS
 62
     7
 10
794.6043914561
 20
2203.2523946113
 30
0.0
  0
VERTEX
  5
64A
  8
0
  6
CONTINUOUS
 62
     7
 10
795.639187694
 20
2203.2548905558
 30
0.0
  0
VERTEX
  5
64B
  8
0
  6
CONTINUOUS
 62
     7
 10
796.2721294169
 20
2203.2575429625
 30
0.0
  0
VERTEX
  5
64C
  8
0
  6
CONTINUOUS
 62
     7
 10
796.4850968127
 20
2203.260269875
 30
0.0
  0
SEQEND
  5
9C1
  8
0
  6
CONTINUOUS
 62
     7
  0
POLYLINE
  5
CA
  8
0
  6
CONTINUOUS
 62
     7
 66
     1
 10
0.0
 20
0.0
 30
0.0
  0
VERTEX
  5
64D
  8
0
  6
CONTINUOUS
 62
     7
 10
782.755107284
 20
2558.9396477885
 30
0.0
  0
VERTEX
  5
64E
  8
0
  6
CONTINUOUS
 62
     7
 10
782.579929233
 20
2558.9427770323
 30
0.0
  0
VERTEX
  5
64F
  8
0
  6
CONTINUOUS
 62
     7
 10
782.0571368937
 20
2558.9458615727
 30
0.0
  0
VERTEX
  5
650
  8
0
  6
CONTINUOUS
 62
     7
 10
781.1941808466
 20
2558.9488716072
 30
0.0
  0
VERTEX
  5
651
  8
0
  6
CONTINUOUS
 62
     7
 10
780.0037568812
 20
2558.9517326302
 30
0.0
  0
VERTEX
  5
652
  8
0
  6
CONTINUOUS
 62
     7
 10
778.5031503443
 20
2558.9544148392
 30
0.0
  0
VERTEX
  5
653
  8
0
  6
CONTINUOUS
 62
     7
 10
776.7142957453
 20
2558.956888432
 30
0.0
  0
VERTEX
  5
654
  8
0
  6
CONTINUOUS
 62
     7
 10
774.6632999186
 20
2558.959108705
 30
0.0
  0
VERTEX
  5
655
  8
0
  6
CONTINUOUS
 62
     7
 10
772.3800247912
 20
2558.9610458559
 30
0.0
  0
VERTEX
  5
656
  8
0
  6
CONTINUOUS
 62
     7
 10
769.8977297549
 20
2558.9626700825
 30
0.0
  0
VERTEX
  5
657
  8
0
  6
CONTINUOUS
 62
     7
 10
767.2527140383
 20
2558.9639664835
 30
0.0
  0
VERTEX
  5
658
  8
0
  6
CONTINUOUS
 62
     7
 10
764.4834226374
 20
2558.9648903555
 30
0.0
  0
VERTEX
  5
659
  8
0
  6
CONTINUOUS
 62
     7
 10
761.6303867106
 20
2558.9654565996
 30
0.0
  0
VERTEX
  5
65A
  8
0
  6
CONTINUOUS
 62
     7
 10
758.7350910906
 20
2558.9656503147
 30
0.0
  0
VERTEX
  5
65B
  8
0
  6
CONTINUOUS
 62
     7
 10
755.8397954706
 20
2558.9654565996
 30
0.0
  0
VERTEX
  5
65C
  8
0
  6
CONTINUOUS
 62
     7
 10
752.9866999392
 20
2558.9648903555
 30
0.0
  0
VERTEX
  5
65D
  8
0
  6
CONTINUOUS
 62
     7
 10
750.2174681429
 20
2558.9639664835
 30
0.0
  0
VERTEX
  5
65E
  8
0
  6
CONTINUOUS
 62
     7
 10
747.5724524264
 20
2558.9626700825
 30
0.0
  0
VERTEX
  5
65F
  8
0
  6
CONTINUOUS
 62
     7
 10
745.09015739
 20
2558.9610458559
 30
0.0
  0
VERTEX
  5
660
  8
0
  6
CONTINUOUS
 62
     7
 10
742.8068822626
 20
2558.959108705
 30
0.0
  0
VERTEX
  5
661
  8
0
  6
CONTINUOUS
 62
     7
 10
740.7558864359
 20
2558.956888432
 30
0.0
  0
VERTEX
  5
662
  8
0
  6
CONTINUOUS
 62
     7
 10
738.9670318369
 20
2558.9544148392
 30
0.0
  0
VERTEX
  5
663
  8
0
  6
CONTINUOUS
 62
     7
 10
737.4664253
 20
2558.9517326302
 30
0.0
  0
VERTEX
  5
664
  8
0
  6
CONTINUOUS
 62
     7
 10
736.2760013346
 20
2558.9488716072
 30
0.0
  0
VERTEX
  5
665
  8
0
  6
CONTINUOUS
 62
     7
 10
735.4130452875
 20
2558.9458615727
 30
0.0
  0
VERTEX
  5
666
  8
0
  6
CONTINUOUS
 62
     7
 10
734.8901933436
 20
2558.9427770323
 30
0.0
  0
VERTEX
  5
667
  8
0
  6
CONTINUOUS
 62
     7
 10
734.7150748972
 20
2558.9396477885
 30
0.0
  0
VERTEX
  5
668
  8
0
  6
CONTINUOUS
 62
     7
 10
734.8901933436
 20
2558.9365036434
 30
0.0
  0
VERTEX
  5
669
  8
0
  6
CONTINUOUS
 62
     7
 10
735.4130452875
 20
2558.9334191031
 30
0.0
  0
VERTEX
  5
66A
  8
0
  6
CONTINUOUS
 62
     7
 10
736.2760013346
 20
2558.9304239697
 30
0.0
  0
VERTEX
  5
66B
  8
0
  6
CONTINUOUS
 62
     7
 10
737.4664253
 20
2558.9275629467
 30
0.0
  0
VERTEX
  5
66C
  8
0
  6
CONTINUOUS
 62
     7
 10
738.9670318369
 20
2558.9248658365
 30
0.0
  0
VERTEX
  5
66D
  8
0
  6
CONTINUOUS
 62
     7
 10
740.7558864359
 20
2558.9223922438
 30
0.0
  0
VERTEX
  5
66E
  8
0
  6
CONTINUOUS
 62
     7
 10
742.8068822626
 20
2558.9201719708
 30
0.0
  0
VERTEX
  5
66F
  8
0
  6
CONTINUOUS
 62
     7
 10
745.09015739
 20
2558.9182348198
 30
0.0
  0
VERTEX
  5
670
  8
0
  6
CONTINUOUS
 62
     7
 10
747.5724524264
 20
2558.9166105932
 30
0.0
  0
VERTEX
  5
671
  8
0
  6
CONTINUOUS
 62
     7
 10
750.2174681429
 20
2558.9153290934
 30
0.0
  0
VERTEX
  5
672
  8
0
  6
CONTINUOUS
 62
     7
 10
752.9866999392
 20
2558.9143903202
 30
0.0
  0
VERTEX
  5
673
  8
0
  6
CONTINUOUS
 62
     7
 10
755.8397954706
 20
2558.9138240761
 30
0.0
  0
VERTEX
  5
674
  8
0
  6
CONTINUOUS
 62
     7
 10
758.7350910906
 20
2558.913630361
 30
0.0
  0
VERTEX
  5
675
  8
0
  6
CONTINUOUS
 62
     7
 10
761.6303867106
 20
2558.9138240761
 30
0.0
  0
VERTEX
  5
676
  8
0
  6
CONTINUOUS
 62
     7
 10
764.4834226374
 20
2558.9143903202
 30
0.0
  0
VERTEX
  5
677
  8
0
  6
CONTINUOUS
 62
     7
 10
767.2527140383
 20
2558.9153290934
 30
0.0
  0
VERTEX
  5
678
  8
0
  6
CONTINUOUS
 62
     7
 10
769.8977297549
 20
2558.9166105932
 30
0.0
  0
VERTEX
  5
679
  8
0
  6
CONTINUOUS
 62
     7
 10
772.3800247912
 20
2558.9182348198
 30
0.0
  0
VERTEX
  5
67A
  8
0
  6
CONTINUOUS
 62
     7
 10
774.6632999186
 20
2558.9201719708
 30
0.0
  0
VERTEX
  5
67B
  8
0
  6
CONTINUOUS
 62
     7
 10
776.7142957453
 20
2558.9223922438
 30
0.0
  0
VERTEX
  5
67C
  8
0
  6
CONTINUOUS
 62
     7
 10
778.5031503443
 20
2558.9248658365
 30
0.0
  0
VERTEX
  5
67D
  8
0
  6
CONTINUOUS
 62
     7
 10
780.0037568812
 20
2558.9275629467
 30
0.0
  0
VERTEX
  5
67E
  8
0
  6
CONTINUOUS
 62
     7
 10
781.1941808466
 20
2558.9304239697
 30
0.0
  0
VERTEX
  5
67F
  8
0
  6
CONTINUOUS
 62
     7
 10
782.0571368937
 20
2558.9334191031
 30
0.0
  0
VERTEX
  5
680
  8
0
  6
CONTINUOUS
 62
     7
 10
782.579929233
 20
2558.9365036434
 30
0.0
  0
VERTEX
  5
681
  8
0
  6
CONTINUOUS
 62
     7
 10
782.755107284
 20
2558.9396477885
 30
0.0
  0
SEQEND
  5
9C0
  8
0
  6
CONTINUOUS
 62
     7
  0
ARC
  5
CB
  8
0
  6
CONTINUOUS
 62
     7
 10
782.5036747567
 20
2379.986883399
 30
0.0
 40
178.9634038270505
 50
89.3752345527
 51
89.9994401569
  0
POLYLINE
  5
CC
  8
0
  6
CONTINUOUS
 62
     7
 66
     1
 10
0.0
 20
0.0
 30
0.0
  0
VERTEX
  5
682
  8
0
  6
CONTINUOUS
 62
     7
 10
734.9817460779
 20
2558.950331921
 30
0.0
  0
VERTEX
  5
683
  8
0
  6
CONTINUOUS
 62
     7
 10
734.1364330057
 20
2558.9477838225
 30
0.0
  0
VERTEX
  5
684
  8
0
  6
CONTINUOUS
 62
     7
 10
733.4207004313
 20
2558.9445651716
 30
0.0
  0
VERTEX
  5
685
  8
0
  6
CONTINUOUS
 62
     7
 10
733.0602711443
 20
2558.9412869162
 30
0.0
  0
VERTEX
  5
686
  8
0
  6
CONTINUOUS
 62
     7
 10
733.0602711443
 20
2558.9379937596
 30
0.0
  0
VERTEX
  5
687
  8
0
  6
CONTINUOUS
 62
     7
 10
733.4207004313
 20
2558.9347155041
 30
0.0
  0
VERTEX
  5
688
  8
0
  6
CONTINUOUS
 62
     7
 10
734.1364330057
 20
2558.9315117544
 30
0.0
  0
VERTEX
  5
689
  8
0
  6
CONTINUOUS
 62
     7
 10
735.197514892
 20
2558.9284123129
 30
0.0
  0
VERTEX
  5
68A
  8
0
  6
CONTINUOUS
 62
     7
 10
736.589044929
 20
2558.9254767842
 30
0.0
  0
VERTEX
  5
68B
  8
0
  6
CONTINUOUS
 62
     7
 10
738.2914131884
 20
2558.9227498717
 30
0.0
  0
VERTEX
  5
68C
  8
0
  6
CONTINUOUS
 62
     7
 10
740.2807778124
 20
2558.9202464766
 30
0.0
  0
VERTEX
  5
68D
  8
0
  6
CONTINUOUS
 62
     7
 10
742.5292438273
 20
2558.9180262036
 30
0.0
  0
VERTEX
  5
68E
  8
0
  6
CONTINUOUS
 62
     7
 10
745.0051611666
 20
2558.9160890526
 30
0.0
  0
VERTEX
  5
68F
  8
0
  6
CONTINUOUS
 62
     7
 10
747.6737803225
 20
2558.9145095295
 30
0.0
  0
VERTEX
  5
690
  8
0
  6
CONTINUOUS
 62
     7
 10
750.4977291826
 20
2558.913257832
 30
0.0
  0
VERTEX
  5
691
  8
0
  6
CONTINUOUS
 62
     7
 10
753.4373110537
 20
2558.9123935646
 30
0.0
  0
VERTEX
  5
692
  8
0
  6
CONTINUOUS
 62
     7
 10
756.4512795214
 20
2558.9119018263
 30
0.0
  0
VERTEX
  5
693
  8
0
  6
CONTINUOUS
 62
     7
 10
759.4972556833
 20
2558.9118124193
 30
0.0
  0
VERTEX
  5
694
  8
0
  6
CONTINUOUS
 62
     7
 10
762.5325626139
 20
2558.9120955414
 30
0.0
  0
VERTEX
  5
695
  8
0
  6
CONTINUOUS
 62
     7
 10
765.5145233874
 20
2558.9127809948
 30
0.0
  0
VERTEX
  5
696
  8
0
  6
CONTINUOUS
 62
     7
 10
768.4013551478
 20
2558.9138389773
 30
0.0
  0
VERTEX
  5
697
  8
0
  6
CONTINUOUS
 62
     7
 10
771.1525267367
 20
2558.9152545876
 30
0.0
  0
VERTEX
  5
698
  8
0
  6
CONTINUOUS
 62
     7
 10
773.7292951349
 20
2558.9170129246
 30
0.0
  0
VERTEX
  5
699
  8
0
  6
CONTINUOUS
 62
     7
 10
776.0956591372
 20
2558.9190990872
 30
0.0
  0
VERTEX
  5
69A
  8
0
  6
CONTINUOUS
 62
     7
 10
778.2182997469
 20
2558.9214683718
 30
0.0
  0
VERTEX
  5
69B
  8
0
  6
CONTINUOUS
 62
     7
 10
780.0674146418
 20
2558.9240909762
 30
0.0
  0
VERTEX
  5
69C
  8
0
  6
CONTINUOUS
 62
     7
 10
781.6170758013
 20
2558.9269221968
 30
0.0
  0
VERTEX
  5
69D
  8
0
  6
CONTINUOUS
 62
     7
 10
782.8455275301
 20
2558.9299471325
 30
0.0
  0
VERTEX
  5
69E
  8
0
  6
CONTINUOUS
 62
     7
 10
783.7355440859
 20
2558.9331061787
 30
0.0
  0
VERTEX
  5
69F
  8
0
  6
CONTINUOUS
 62
     7
 10
784.2745488886
 20
2558.9363546318
 30
0.0
  0
VERTEX
  5
6A0
  8
0
  6
CONTINUOUS
 62
     7
 10
784.4550913576
 20
2558.9396477885
 30
0.0
  0
VERTEX
  5
6A1
  8
0
  6
CONTINUOUS
 62
     7
 10
784.4550913576
 20
2558.9396477885
 30
0.0
  0
SEQEND
  5
9BF
  8
0
  6
CONTINUOUS
 62
     7
  0
POLYLINE
  5
CD
  8
0
  6
CONTINUOUS
 62
     7
 66
     1
 10
0.0
 20
0.0
 30
0.0
  0
VERTEX
  5
6A2
  8
0
  6
CONTINUOUS
 62
     7
 10
780.7550734286
 20
2560.9396518416
 30
0.0
  0
VERTEX
  5
6A3
  8
0
  6
CONTINUOUS
 62
     7
 10
780.574292541
 20
2560.9426916785
 30
0.0
  0
VERTEX
  5
6A4
  8
0
  6
CONTINUOUS
 62
     7
 10
780.0349301104
 20
2560.945701713
 30
0.0
  0
VERTEX
  5
6A5
  8
0
  6
CONTINUOUS
 62
     7
 10
779.1458076243
 20
2560.9485925383
 30
0.0
  0
VERTEX
  5
6A6
  8
0
  6
CONTINUOUS
 62
     7
 10
777.9215282206
 20
2560.9513343519
 30
0.0
  0
VERTEX
  5
6A7
  8
0
  6
CONTINUOUS
 62
     7
 10
776.3822382693
 20
2560.9538973517
 30
0.0
  0
VERTEX
  5
6A8
  8
0
  6
CONTINUOUS
 62
     7
 10
774.553150535
 20
2560.9562219328
 30
0.0
  0
VERTEX
  5
6A9
  8
0
  6
CONTINUOUS
 62
     7
 10
772.4643057589
 20
2560.9582782931
 30
0.0
  0
VERTEX
  5
6AA
  8
0
  6
CONTINUOUS
 62
     7
 10
770.1500958208
 20
2560.9600366301
 30
0.0
  0
VERTEX
  5
6AB
  8
0
  6
CONTINUOUS
 62
     7
 10
768.7350815539
 20
2560.9608710951
 30
0.0
  0
SEQEND
  5
9BE
  8
0
  6
CONTINUOUS
 62
     7
  0
POLYLINE
  5
CE
  8
0
  6
CONTINUOUS
 62
     7
 66
     1
 10
0.0
 20
0.0
 30
0.0
  0
VERTEX
  5
6AC
  8
0
  6
CONTINUOUS
 62
     7
 10
748.7351006274
 20
2560.9608710951
 30
0.0
  0
VERTEX
  5
6AD
  8
0
  6
CONTINUOUS
 62
     7
 10
748.5499686007
 20
2560.9607816881
 30
0.0
  0
VERTEX
  5
6AE
  8
0
  6
CONTINUOUS
 62
     7
 10
746.1370533709
 20
2560.9592021651
 30
0.0
  0
VERTEX
  5
6AF
  8
0
  6
CONTINUOUS
 62
     7
 10
743.9310258631
 20
2560.9572948164
 30
0.0
  0
VERTEX
  5
6B0
  8
0
  6
CONTINUOUS
 62
     7
 10
741.9680660967
 20
2560.9550894446
 30
0.0
  0
VERTEX
  5
6B1
  8
0
  6
CONTINUOUS
 62
     7
 10
740.2803605799
 20
2560.9526456541
 30
0.0
  0
VERTEX
  5
6B2
  8
0
  6
CONTINUOUS
 62
     7
 10
738.8957446818
 20
2560.9499932474
 30
0.0
  0
VERTEX
  5
6B3
  8
0
  6
CONTINUOUS
 62
     7
 10
737.8368681673
 20
2560.9471620268
 30
0.0
  0
VERTEX
  5
6B4
  8
0
  6
CONTINUOUS
 62
     7
 10
737.1211355929
 20
2560.9442115969
 30
0.0
  0
VERTEX
  5
6B5
  8
0
  6
CONTINUOUS
 62
     7
 10
736.760348678
 20
2560.94117176
 30
0.0
  0
VERTEX
  5
6B6
  8
0
  6
CONTINUOUS
 62
     7
 10
736.760348678
 20
2560.9381021208
 30
0.0
  0
VERTEX
  5
6B7
  8
0
  6
CONTINUOUS
 62
     7
 10
737.1211355929
 20
2560.9350920862
 30
0.0
  0
VERTEX
  5
6B8
  8
0
  6
CONTINUOUS
 62
     7
 10
737.8368681673
 20
2560.9321416563
 30
0.0
  0
VERTEX
  5
6B9
  8
0
  6
CONTINUOUS
 62
     7
 10
738.8957446818
 20
2560.9293104357
 30
0.0
  0
VERTEX
  5
6BA
  8
0
  6
CONTINUOUS
 62
     7
 10
740.2803605799
 20
2560.9266282267
 30
0.0
  0
VERTEX
  5
6BB
  8
0
  6
CONTINUOUS
 62
     7
 10
741.9680660967
 20
2560.9241844362
 30
0.0
  0
VERTEX
  5
6BC
  8
0
  6
CONTINUOUS
 62
     7
 10
743.9310258631
 20
2560.9219790644
 30
0.0
  0
VERTEX
  5
6BD
  8
0
  6
CONTINUOUS
 62
     7
 10
746.1370533709
 20
2560.9201015181
 30
0.0
  0
VERTEX
  5
6BE
  8
0
  6
CONTINUOUS
 62
     7
 10
748.5499686007
 20
2560.9184921927
 30
0.0
  0
VERTEX
  5
6BF
  8
0
  6
CONTINUOUS
 62
     7
 10
751.1301344637
 20
2560.9172702975
 30
0.0
  0
VERTEX
  5
6C0
  8
0
  6
CONTINUOUS
 62
     7
 10
753.8351720576
 20
2560.9164060301
 30
0.0
  0
VERTEX
  5
6C1
  8
0
  6
CONTINUOUS
 62
     7
 10
756.6206759218
 20
2560.9158993906
 30
0.0
  0
VERTEX
  5
6C2
  8
0
  6
CONTINUOUS
 62
     7
 10
759.4408696894
 20
2560.9158099837
 30
0.0
  0
VERTEX
  5
6C3
  8
0
  6
CONTINUOUS
 62
     7
 10
762.2495001559
 20
2560.9161080069
 30
0.0
  0
VERTEX
  5
6C4
  8
0
  6
CONTINUOUS
 62
     7
 10
765.0003737215
 20
2560.9167934603
 30
0.0
  0
VERTEX
  5
6C5
  8
0
  6
CONTINUOUS
 62
     7
 10
767.648429275
 20
2560.9178365416
 30
0.0
  0
VERTEX
  5
6C6
  8
0
  6
CONTINUOUS
 62
     7
 10
770.1500958208
 20
2560.9192670531
 30
0.0
  0
VERTEX
  5
6C7
  8
0
  6
CONTINUOUS
 62
     7
 10
772.4643057589
 20
2560.9209955878
 30
0.0
  0
VERTEX
  5
6C8
  8
0
  6
CONTINUOUS
 62
     7
 10
774.553150535
 20
2560.923051948
 30
0.0
  0
VERTEX
  5
6C9
  8
0
  6
CONTINUOUS
 62
     7
 10
776.3822382693
 20
2560.9253765291
 30
0.0
  0
VERTEX
  5
6CA
  8
0
  6
CONTINUOUS
 62
     7
 10
777.9215282206
 20
2560.9279395289
 30
0.0
  0
VERTEX
  5
6CB
  8
0
  6
CONTINUOUS
 62
     7
 10
779.1458076243
 20
2560.9306813425
 30
0.0
  0
VERTEX
  5
6CC
  8
0
  6
CONTINUOUS
 62
     7
 10
780.0349301104
 20
2560.9336019701
 30
0.0
  0
VERTEX
  5
6CD
  8
0
  6
CONTINUOUS
 62
     7
 10
780.574292541
 20
2560.9365822024
 30
0.0
  0
VERTEX
  5
6CE
  8
0
  6
CONTINUOUS
 62
     7
 10
780.7550734286
 20
2560.9396518416
 30
0.0
  0
VERTEX
  5
6CF
  8
0
  6
CONTINUOUS
 62
     7
 10
780.7550734286
 20
2560.9396518416
 30
0.0
  0
SEQEND
  5
9BD
  8
0
  6
CONTINUOUS
 62
     7
  0
LINE
  5
CF
  8
0
  6
CONTINUOUS
 62
     7
 10
702.7350968127
 20
2397.0483289308
 30
0.0
 11
702.7350968127
 21
2422.1544535107
 31
0.0
  0
LINE
  5
D0
  8
0
  6
CONTINUOUS
 62
     7
 10
720.9850853686
 20
2203.2405705399
 30
0.0
 11
720.9850853686
 21
2202.5056229181
 31
0.0
  0
LINE
  5
D1
  8
0
  6
CONTINUOUS
 62
     7
 10
702.7350968127
 20
2202.5056229181
 30
0.0
 11
702.7350968127
 21
2227.4339319414
 31
0.0
  0
POLYLINE
  5
D2
  8
0
  6
CONTINUOUS
 62
     7
 66
     1
 10
0.0
 20
0.0
 30
0.0
  0
VERTEX
  5
6D0
  8
0
  6
CONTINUOUS
 62
     7
 10
748.7351006274
 20
2560.9396518416
 30
0.0
  0
VERTEX
  5
6D1
  8
0
  6
CONTINUOUS
 62
     7
 10
748.7803405527
 20
2560.9386087603
 30
0.0
  0
VERTEX
  5
6D2
  8
0
  6
CONTINUOUS
 62
     7
 10
749.1401737932
 20
2560.9365822024
 30
0.0
  0
VERTEX
  5
6D3
  8
0
  6
CONTINUOUS
 62
     7
 10
749.8467272524
 20
2560.9346748537
 30
0.0
  0
VERTEX
  5
6D4
  8
0
  6
CONTINUOUS
 62
     7
 10
750.8745497469
 20
2560.932946319
 30
0.0
  0
VERTEX
  5
6D5
  8
0
  6
CONTINUOUS
 62
     7
 10
752.1865075831
 20
2560.9314562029
 30
0.0
  0
VERTEX
  5
6D6
  8
0
  6
CONTINUOUS
 62
     7
 10
753.735095859
 20
2560.93026411
 30
0.0
  0
VERTEX
  5
6D7
  8
0
  6
CONTINUOUS
 62
     7
 10
755.4644054178
 20
2560.9293998427
 30
0.0
  0
VERTEX
  5
6D8
  8
0
  6
CONTINUOUS
 62
     7
 10
757.3119109873
 20
2560.9289230055
 30
0.0
  0
VERTEX
  5
6D9
  8
0
  6
CONTINUOUS
 62
     7
 10
759.2109149698
 20
2560.9288335985
 30
0.0
  0
VERTEX
  5
6DA
  8
0
  6
CONTINUOUS
 62
     7
 10
761.0926932101
 20
2560.9291316218
 30
0.0
  0
VERTEX
  5
6DB
  8
0
  6
CONTINUOUS
 62
     7
 10
762.8892368082
 20
2560.9297872729
 30
0.0
  0
VERTEX
  5
6DC
  8
0
  6
CONTINUOUS
 62
     7
 10
764.5356363062
 20
2560.9308303541
 30
0.0
  0
VERTEX
  5
6DD
  8
0
  6
CONTINUOUS
 62
     7
 10
765.9724062685
 20
2560.9321714586
 30
0.0
  0
VERTEX
  5
6DE
  8
0
  6
CONTINUOUS
 62
     7
 10
767.1476310496
 20
2560.9337807841
 30
0.0
  0
VERTEX
  5
6DF
  8
0
  6
CONTINUOUS
 62
     7
 10
768.018752933
 20
2560.935628528
 30
0.0
  0
VERTEX
  5
6E0
  8
0
  6
CONTINUOUS
 62
     7
 10
768.5543602709
 20
2560.9375954813
 30
0.0
  0
VERTEX
  5
6E1
  8
0
  6
CONTINUOUS
 62
     7
 10
768.7350815539
 20
2560.9396518416
 30
0.0
  0
VERTEX
  5
6E2
  8
0
  6
CONTINUOUS
 62
     7
 10
768.7350815539
 20
2560.9396518416
 30
0.0
  0
SEQEND
  5
9BC
  8
0
  6
CONTINUOUS
 62
     7
  0
LINE
  5
D3
  8
0
  6
CONTINUOUS
 62
     7
 10
2334.7350662951
 20
2462.4350191302
 30
0.0
 11
2334.7350662951
 21
2162.4350221104
 31
0.0
  0
LINE
  5
D4
  8
0
  6
CONTINUOUS
 62
     7
 10
2282.7350801234
 20
2327.4350212163
 30
0.0
 11
2282.7350801234
 21
2462.4350191302
 31
0.0
  0
LINE
  5
D5
  8
0
  6
CONTINUOUS
 62
     7
 10
2282.7350801234
 20
2162.4350221104
 30
0.0
 11
2282.7350801234
 21
2297.4350218869
 31
0.0
  0
LINE
  5
D6
  8
0
  6
CONTINUOUS
 62
     7
 10
2179.6179717783
 20
2297.4350218869
 30
0.0
 11
2282.7350801234
 21
2297.4350218869
 31
0.0
  0
LINE
  5
D7
  8
0
  6
CONTINUOUS
 62
     7
 10
2179.4716423754
 20
2327.4350212163
 30
0.0
 11
2282.7350801234
 21
2327.4350212163
 31
0.0
  0
LINE
  5
D8
  8
0
  6
CONTINUOUS
 62
     7
 10
846.7350906138
 20
2162.4350221104
 30
0.0
 11
846.7350906138
 21
2297.4350218869
 31
0.0
  0
LINE
  5
D9
  8
0
  6
CONTINUOUS
 62
     7
 10
846.7350906138
 20
2327.4350212163
 30
0.0
 11
846.7350906138
 21
2462.4350191302
 31
0.0
  0
LINE
  5
DA
  8
0
  6
CONTINUOUS
 62
     7
 10
814.7350853686
 20
2312.4350220173
 30
0.0
 11
814.7350853686
 21
2454.4693053908
 31
0.0
  0
LINE
  5
DB
  8
0
  6
CONTINUOUS
 62
     7
 10
814.7350853686
 20
2162.4350221104
 30
0.0
 11
814.7350853686
 21
2312.4350220173
 31
0.0
  0
LINE
  5
DC
  8
0
  6
CONTINUOUS
 62
     7
 10
949.8521989588
 20
2297.4350218869
 30
0.0
 11
846.7350906138
 21
2297.4350218869
 31
0.0
  0
LINE
  5
DD
  8
0
  6
CONTINUOUS
 62
     7
 10
949.9985283617
 20
2327.4350212163
 30
0.0
 11
846.7350906138
 21
2327.4350212163
 31
0.0
  0
LINE
  5
DE
  8
0
  6
CONTINUOUS
 62
     7
 10
702.7350968127
 20
2165.9350217528
 30
0.0
 11
702.7350968127
 21
2202.5056229181
 31
0.0
  0
LINE
  5
DF
  8
0
  6
CONTINUOUS
 62
     7
 10
702.7350968127
 20
2422.1544535107
 30
0.0
 11
702.7350968127
 21
2454.4584126419
 31
0.0
  0
LINE
  5
E0
  8
0
  6
CONTINUOUS
 62
     7
 10
2173.2312148813
 20
2398.6397207922
 30
0.0
 11
2282.7350801234
 21
2398.6397207922
 31
0.0
  0
LINE
  5
E1
  8
0
  6
CONTINUOUS
 62
     7
 10
2138.2431095843
 20
2226.2303204483
 30
0.0
 11
2143.9364856486
 21
2226.2303204483
 31
0.0
  0
LINE
  5
E2
  8
0
  6
CONTINUOUS
 62
     7
 10
2174.080640674
 20
2226.2303204483
 30
0.0
 11
2282.7350801234
 21
2226.2303204483
 31
0.0
  0
LINE
  5
E3
  8
0
  6
CONTINUOUS
 62
     7
 10
991.409093738
 20
2226.2303204483
 30
0.0
 11
985.3581494097
 21
2226.2303204483
 31
0.0
  0
LINE
  5
E4
  8
0
  6
CONTINUOUS
 62
     7
 10
955.3895300631
 20
2226.2303204483
 30
0.0
 11
846.7350906138
 21
2226.2303204483
 31
0.0
  0
LINE
  5
E5
  8
0
  6
CONTINUOUS
 62
     7
 10
956.2389558558
 20
2398.6397207922
 30
0.0
 11
846.7350906138
 21
2398.6397207922
 31
0.0
  0
LINE
  5
E6
  8
0
  6
CONTINUOUS
 62
     7
 10
693.7350934748
 20
2235.4350210375
 30
0.0
 11
693.7350934748
 21
2389.4349754996
 31
0.0
  0
LINE
  5
E7
  8
0
  6
CONTINUOUS
 62
     7
 10
2163.1170815233
 20
2167.435017342
 30
0.0
 11
2282.7350801234
 21
2167.435017342
 31
0.0
  0
LINE
  5
E8
  8
0
  6
CONTINUOUS
 62
     7
 10
966.3530892138
 20
2167.435017342
 30
0.0
 11
846.7350906138
 21
2167.435017342
 31
0.0
  0
LINE
  5
E9
  8
0
  6
CONTINUOUS
 62
     7
 10
2161.661357284
 20
2457.4350238985
 30
0.0
 11
2282.7350801234
 21
2457.4350238985
 31
0.0
  0
LINE
  5
EA
  8
0
  6
CONTINUOUS
 62
     7
 10
967.8088134531
 20
2457.4350238985
 30
0.0
 11
846.7350906138
 21
2457.4350238985
 31
0.0
  0
CIRCLE
  5
EB
  8
0
  6
CONTINUOUS
 62
     7
 10
1564.7350853686
 20
2309.4350219912
 30
0.0
 40
558.0000000000001
  0
POLYLINE
  5
EC
  8
0
  6
CONTINUOUS
 62
     7
 66
     1
 10
0.0
 20
0.0
 30
0.0
  0
VERTEX
  5
6E3
  8
0
  6
CONTINUOUS
 62
     7
 10
696.0956758265
 20
2526.8654645628
 30
0.0
  0
VERTEX
  5
6E4
  8
0
  6
CONTINUOUS
 62
     7
 10
696.0956758265
 20
2526.8654645628
 30
0.0
  0
VERTEX
  5
6E5
  8
0
  6
CONTINUOUS
 62
     7
 10
696.2708538775
 20
2526.860398168
 30
0.0
  0
VERTEX
  5
6E6
  8
0
  6
CONTINUOUS
 62
     7
 10
696.7953151469
 20
2526.8553615755
 30
0.0
  0
VERTEX
  5
6E7
  8
0
  6
CONTINUOUS
 62
     7
 10
697.6661986117
 20
2526.8503696865
 30
0.0
  0
VERTEX
  5
6E8
  8
0
  6
CONTINUOUS
 62
     7
 10
698.8785570864
 20
2526.8454672045
 30
0.0
  0
VERTEX
  5
6E9
  8
0
  6
CONTINUOUS
 62
     7
 10
700.4257148508
 20
2526.8406839318
 30
0.0
  0
VERTEX
  5
6EA
  8
0
  6
CONTINUOUS
 62
     7
 10
702.2989100222
 20
2526.8360347695
 30
0.0
  0
VERTEX
  5
6EB
  8
0
  6
CONTINUOUS
 62
     7
 10
704.4877713923
 20
2526.8315495199
 30
0.0
  0
VERTEX
  5
6EC
  8
0
  6
CONTINUOUS
 62
     7
 10
706.9799607996
 20
2526.8272579855
 30
0.0
  0
VERTEX
  5
6ED
  8
0
  6
CONTINUOUS
 62
     7
 10
709.7616499666
 20
2526.8231750674
 30
0.0
  0
VERTEX
  5
6EE
  8
0
  6
CONTINUOUS
 62
     7
 10
712.8171628718
 20
2526.8193305678
 30
0.0
  0
VERTEX
  5
6EF
  8
0
  6
CONTINUOUS
 62
     7
 10
716.1294525866
 20
2526.8157393879
 30
0.0
  0
VERTEX
  5
6F0
  8
0
  6
CONTINUOUS
 62
     7
 10
719.6800416712
 20
2526.8124313301
 30
0.0
  0
VERTEX
  5
6F1
  8
0
  6
CONTINUOUS
 62
     7
 10
723.4490817789
 20
2526.8094212956
 30
0.0
  0
VERTEX
  5
6F2
  8
0
  6
CONTINUOUS
 62
     7
 10
727.4154132609
 20
2526.8067241854
 30
0.0
  0
VERTEX
  5
6F3
  8
0
  6
CONTINUOUS
 62
     7
 10
731.5568631891
 20
2526.8043549008
 30
0.0
  0
VERTEX
  5
6F4
  8
0
  6
CONTINUOUS
 62
     7
 10
735.8503645663
 20
2526.8023283428
 30
0.0
  0
VERTEX
  5
6F5
  8
0
  6
CONTINUOUS
 62
     7
 10
740.271777511
 20
2526.8006594128
 30
0.0
  0
VERTEX
  5
6F6
  8
0
  6
CONTINUOUS
 62
     7
 10
744.7964853052
 20
2526.7993332094
 30
0.0
  0
VERTEX
  5
6F7
  8
0
  6
CONTINUOUS
 62
     7
 10
749.3991559748
 20
2526.7983944363
 30
0.0
  0
VERTEX
  5
6F8
  8
0
  6
CONTINUOUS
 62
     7
 10
754.0540403132
 20
2526.7978281922
 30
0.0
  0
VERTEX
  5
6F9
  8
0
  6
CONTINUOUS
 62
     7
 10
758.7350910906
 20
2526.7976344771
 30
0.0
  0
VERTEX
  5
6FA
  8
0
  6
CONTINUOUS
 62
     7
 10
763.416141868
 20
2526.7978281922
 30
0.0
  0
VERTEX
  5
6FB
  8
0
  6
CONTINUOUS
 62
     7
 10
768.0710262064
 20
2526.7983944363
 30
0.0
  0
VERTEX
  5
6FC
  8
0
  6
CONTINUOUS
 62
     7
 10
772.6736372713
 20
2526.7993332094
 30
0.0
  0
VERTEX
  5
6FD
  8
0
  6
CONTINUOUS
 62
     7
 10
777.1983450655
 20
2526.8006594128
 30
0.0
  0
VERTEX
  5
6FE
  8
0
  6
CONTINUOUS
 62
     7
 10
781.619817615
 20
2526.8023283428
 30
0.0
  0
VERTEX
  5
6FF
  8
0
  6
CONTINUOUS
 62
     7
 10
785.9133189921
 20
2526.8043549008
 30
0.0
  0
VERTEX
  5
700
  8
0
  6
CONTINUOUS
 62
     7
 10
790.0547689203
 20
2526.8067241854
 30
0.0
  0
VERTEX
  5
701
  8
0
  6
CONTINUOUS
 62
     7
 10
794.0211004023
 20
2526.8094212956
 30
0.0
  0
VERTEX
  5
702
  8
0
  6
CONTINUOUS
 62
     7
 10
797.79014051
 20
2526.8124313301
 30
0.0
  0
VERTEX
  5
703
  8
0
  6
CONTINUOUS
 62
     7
 10
801.34066999
 20
2526.8157393879
 30
0.0
  0
VERTEX
  5
704
  8
0
  6
CONTINUOUS
 62
     7
 10
804.6530193094
 20
2526.8193305678
 30
0.0
  0
VERTEX
  5
705
  8
0
  6
CONTINUOUS
 62
     7
 10
807.7085322146
 20
2526.8231750674
 30
0.0
  0
VERTEX
  5
706
  8
0
  6
CONTINUOUS
 62
     7
 10
810.4901617769
 20
2526.8272579855
 30
0.0
  0
VERTEX
  5
707
  8
0
  6
CONTINUOUS
 62
     7
 10
812.9824107889
 20
2526.8315495199
 30
0.0
  0
VERTEX
  5
708
  8
0
  6
CONTINUOUS
 62
     7
 10
815.1712125544
 20
2526.8360347695
 30
0.0
  0
VERTEX
  5
709
  8
0
  6
CONTINUOUS
 62
     7
 10
817.0444673304
 20
2526.8406839318
 30
0.0
  0
VERTEX
  5
70A
  8
0
  6
CONTINUOUS
 62
     7
 10
818.5915654902
 20
2526.8454672045
 30
0.0
  0
VERTEX
  5
70B
  8
0
  6
CONTINUOUS
 62
     7
 10
819.8039835695
 20
2526.8503696865
 30
0.0
  0
VERTEX
  5
70C
  8
0
  6
CONTINUOUS
 62
     7
 10
820.6748670344
 20
2526.8553615755
 30
0.0
  0
VERTEX
  5
70D
  8
0
  6
CONTINUOUS
 62
     7
 10
821.1993283037
 20
2526.860398168
 30
0.0
  0
VERTEX
  5
70E
  8
0
  6
CONTINUOUS
 62
     7
 10
821.3745063547
 20
2526.8654645628
 30
0.0
  0
SEQEND
  5
9BB
  8
0
  6
CONTINUOUS
 62
     7
  0
LINE
  5
ED
  8
0
  6
CONTINUOUS
 62
     7
 10
819.3757241968
 20
2528.7956715769
 30
0.0
 11
819.3744128947
 21
2528.7960888094
 31
0.0
  0
POLYLINE
  5
EE
  8
0
  6
CONTINUOUS
 62
     7
 66
     1
 10
0.0
 20
0.0
 30
0.0
  0
VERTEX
  5
70F
  8
0
  6
CONTINUOUS
 62
     7
 10
698.0996435885
 20
2528.7965209431
 30
0.0
  0
VERTEX
  5
710
  8
0
  6
CONTINUOUS
 62
     7
 10
698.0944579844
 20
2528.7956715769
 30
0.0
  0
VERTEX
  5
711
  8
0
  6
CONTINUOUS
 62
     7
 10
698.0949944262
 20
2528.7953884548
 30
0.0
  0
SEQEND
  5
9BA
  8
0
  6
CONTINUOUS
 62
     7
  0
LINE
  5
EF
  8
0
  6
CONTINUOUS
 62
     7
 10
819.3745321039
 20
2528.7952543444
 30
0.0
 11
819.3757241968
 21
2528.7956715769
 31
0.0
  0
LINE
  5
F0
  8
0
  6
CONTINUOUS
 62
     7
 10
702.7350968127
 20
2392.0138300604
 30
0.0
 11
720.9850853686
 21
2392.0138300604
 31
0.0
  0
LINE
  5
F1
  8
0
  6
CONTINUOUS
 62
     7
 10
702.7350968127
 20
2397.0192418641
 30
0.0
 11
720.9850853686
 21
2397.0192418641
 31
0.0
  0
LINE
  5
F2
  8
0
  6
CONTINUOUS
 62
     7
 10
702.7350968127
 20
2232.4339271731
 30
0.0
 11
720.9850853686
 21
2232.4339271731
 31
0.0
  0
LINE
  5
F3
  8
0
  6
CONTINUOUS
 62
     7
 10
775.1434749369
 20
2388.4379462547
 30
0.0
 11
775.1434749369
 21
2227.4380372113
 31
0.0
  0
LINE
  5
F4
  8
0
  6
CONTINUOUS
 62
     7
 10
702.7350968127
 20
2397.0483289308
 30
0.0
 11
720.9850853686
 21
2397.0483289308
 31
0.0
  0
LINE
  5
F5
  8
0
  6
CONTINUOUS
 62
     7
 10
782.2701042895
 20
2421.2424651927
 30
0.0
 11
782.2701042895
 21
2388.4539426512
 31
0.0
  0
LINE
  5
F6
  8
0
  6
CONTINUOUS
 62
     7
 10
782.2701042895
 20
2227.4395869321
 30
0.0
 11
782.2701042895
 21
2203.244049961
 31
0.0
  0
LINE
  5
F7
  8
0
  6
CONTINUOUS
 62
     7
 10
736.2301057581
 20
2453.2332540697
 30
0.0
 11
736.2301057581
 21
2421.2424204892
 31
0.0
  0
LINE
  5
F8
  8
0
  6
CONTINUOUS
 62
     7
 10
781.2400764231
 20
2453.2332540697
 30
0.0
 11
781.2400764231
 21
2421.2424204892
 31
0.0
  0
LINE
  5
F9
  8
0
  6
CONTINUOUS
 62
     7
 10
702.7350968127
 20
2422.1544535107
 30
0.0
 11
720.9200567011
 21
2422.1544535107
 31
0.0
  0
LINE
  5
FA
  8
0
  6
CONTINUOUS
 62
     7
 10
702.7350968127
 20
2202.5056229181
 30
0.0
 11
720.9850853686
 21
2202.5056229181
 31
0.0
  0
LINE
  5
FB
  8
0
  6
CONTINUOUS
 62
     7
 10
2314.7350853686
 20
2312.4350220173
 30
0.0
 11
2314.7350853686
 21
2462.4350191302
 31
0.0
  0
LINE
  5
FC
  8
0
  6
CONTINUOUS
 62
     7
 10
2314.7350853686
 20
2162.4350221104
 30
0.0
 11
2314.7350853686
 21
2312.4350220173
 31
0.0
  0
POINT
  5
FD
  8
FORMAT
 10
975.6382175827
 20
2839.0631124806
 30
0.0
  0
INSERT
  5
109
  8
FORMAT
  2
SW_CENTERMARKSYMBOL_0
 10
1564.7350853686
 20
2309.4350219912
 30
0.0
  0
LINE
  5
10A
  8
0
  6
CONTINUOUS
 62
     7
 10
949.7350758318
 20
1214.8593796667
 30
0.0
 11
949.7350758318
 21
1097.5473059591
 31
0.0
  0
LINE
  5
10B
  8
0
  6
CONTINUOUS
 62
     7
 10
2179.7350949053
 20
1094.8593748983
 30
0.0
 11
2179.7350949053
 21
1214.8593796667
 31
0.0
  0
LINE
  5
10C
  8
0
  6
CONTINUOUS
 62
     7
 10
949.7350758318
 20
794.8593629774
 30
0.0
 11
949.7350758318
 21
674.859358209
 31
0.0
  0
LINE
  5
10D
  8
0
  6
CONTINUOUS
 62
     7
 10
2179.7350949053
 20
674.859358209
 30
0.0
 11
2179.7350949053
 21
794.8593629774
 31
0.0
  0
ARC
  5
10E
  8
0
  6
CONTINUOUS
 62
     7
 10
1006.7350853686
 20
1216.8593689378
 30
0.0
 40
2.0
 50
270.0
 51
0.0
  0
ARC
  5
10F
  8
0
  6
CONTINUOUS
 62
     7
 10
2122.7350853686
 20
1216.8593689378
 30
0.0
 40
2.000000000000455
 50
180.0
 51
270.0
  0
ARC
  5
110
  8
0
  6
CONTINUOUS
 62
     7
 10
2122.7350853686
 20
672.8593689378
 30
0.0
 40
2.000000000000455
 50
90.0
 51
180.0
  0
ARC
  5
111
  8
0
  6
CONTINUOUS
 62
     7
 10
1006.7350853686
 20
672.8593689378
 30
0.0
 40
2.0
 50
0.0
 51
90.0
  0
LINE
  5
112
  8
0
  6
CONTINUOUS
 62
     7
 10
1008.7350910906
 20
1219.8593748983
 30
0.0
 11
1008.7350910906
 21
1216.8593837198
 31
0.0
  0
LINE
  5
113
  8
0
  6
CONTINUOUS
 62
     7
 10
2120.7350796465
 20
1216.8593837198
 30
0.0
 11
2120.7350796465
 21
1219.8593748983
 31
0.0
  0
LINE
  5
114
  8
0
  6
CONTINUOUS
 62
     7
 10
2120.7350796465
 20
669.8593629774
 30
0.0
 11
2120.7350796465
 21
672.8593541559
 31
0.0
  0
LINE
  5
115
  8
0
  6
CONTINUOUS
 62
     7
 10
1008.7350910906
 20
672.8593541559
 30
0.0
 11
1008.7350910906
 21
669.8593629774
 31
0.0
  0
CIRCLE
  5
116
  8
0
  6
CONTINUOUS
 62
     7
 10
758.7348092299
 20
804.3042127332
 30
0.0
 40
349.9998570654116
  0
ARC
  5
117
  8
0
  6
CONTINUOUS
 62
     7
 10
758.6325813925
 20
804.1791070382
 30
0.0
 40
324.8488069396872
 50
187.6534369121
 51
275.0757954566
  0
ARC
  5
118
  8
0
  6
CONTINUOUS
 62
     7
 10
758.7705807894
 20
804.2853681473
 30
0.0
 40
324.9634040054567
 50
277.6735356743
 51
5.0642434777
  0
ARC
  5
119
  8
0
  6
CONTINUOUS
 62
     7
 10
758.845387097
 20
804.4424730326
 30
0.0
 40
324.8326334037955
 50
7.6538081533
 51
95.0793275161
  0
ARC
  5
11A
  8
0
  6
CONTINUOUS
 62
     7
 10
758.6579357291
 20
804.3715605196
 30
0.0
 40
324.902874289518
 50
97.6612175752
 51
185.080350052
  0
LINE
  5
11B
  8
0
  6
CONTINUOUS
 62
     7
 10
1635.763727725
 20
974.6220151212
 30
0.0
 11
1635.4293307666
 21
974.6220151212
 31
0.0
  0
LINE
  5
11C
  8
0
  6
CONTINUOUS
 62
     7
 10
761.7732590441
 20
849.3000028905
 30
0.0
 11
730.653316379
 21
1128.0514879402
 31
0.0
  0
LINE
  5
11D
  8
0
  6
CONTINUOUS
 62
     7
 10
714.7493666414
 20
1126.3010485347
 30
0.0
 11
745.8715146784
 21
847.5292084988
 31
0.0
  0
LINE
  5
11E
  8
0
  6
CONTINUOUS
 62
     7
 10
803.6395615343
 20
801.3575805601
 30
0.0
 11
1082.5130051378
 21
832.3914690193
 31
0.0
  0
LINE
  5
11F
  8
0
  6
CONTINUOUS
 62
     7
 10
1080.7051366572
 20
848.2890485104
 30
0.0
 11
801.8684691195
 21
817.25925042
 31
0.0
  0
LINE
  5
120
  8
0
  6
CONTINUOUS
 62
     7
 10
713.8309186701
 20
807.4338717636
 30
0.0
 11
434.9818533663
 21
776.2235535558
 31
0.0
  0
LINE
  5
121
  8
0
  6
CONTINUOUS
 62
     7
 10
436.753303409
 20
760.3219134983
 30
0.0
 11
715.6014150385
 21
791.532142299
 31
0.0
  0
LINE
  5
122
  8
0
  6
CONTINUOUS
 62
     7
 10
755.6979960207
 20
759.4818754371
 30
0.0
 11
786.8172234301
 21
480.5573059496
 31
0.0
  0
LINE
  5
123
  8
0
  6
CONTINUOUS
 62
     7
 10
802.7204579119
 20
482.3143614706
 30
0.0
 11
771.5993231539
 21
761.2563206133
 31
0.0
  0
LINE
  5
124
  8
0
  6
CONTINUOUS
 62
     7
 10
713.7350744013
 20
804.388670462
 30
0.0
 11
713.7350744013
 21
804.379238027
 31
0.0
  0
LINE
  5
125
  8
0
  6
CONTINUOUS
 62
     7
 10
713.7350744013
 20
804.458646315
 30
0.0
 11
713.7350744013
 21
804.4024689373
 31
0.0
  0
LINE
  5
126
  8
0
  6
CONTINUOUS
 62
     7
 10
803.7351077799
 20
804.4024689373
 30
0.0
 11
803.7351077799
 21
804.458646315
 31
0.0
  0
LINE
  5
127
  8
0
  6
CONTINUOUS
 62
     7
 10
803.7351077799
 20
804.379238027
 30
0.0
 11
803.7351077799
 21
804.388670462
 31
0.0
  0
LINE
  5
128
  8
0
  6
CONTINUOUS
 62
     7
 10
2314.7350853686
 20
1094.8593748983
 30
0.0
 11
2179.7272866968
 21
1094.8593748983
 31
0.0
  0
LINE
  5
129
  8
0
  6
CONTINUOUS
 62
     7
 10
2179.7272866968
 20
794.8593629774
 30
0.0
 11
2314.7350853686
 21
794.8593629774
 31
0.0
  0
LINE
  5
12A
  8
0
  6
CONTINUOUS
 62
     7
 10
820.7874602083
 20
794.8593629774
 30
0.0
 11
949.7428840403
 21
794.8593629774
 31
0.0
  0
LINE
  5
12B
  8
0
  6
CONTINUOUS
 62
     7
 10
904.2661494021
 20
1094.8593748983
 30
0.0
 11
814.7350853686
 21
1094.8593748983
 31
0.0
  0
LINE
  5
12C
  8
0
  6
CONTINUOUS
 62
     7
 10
2314.7350853686
 20
794.8593629774
 30
0.0
 11
2334.7350662951
 21
794.8593629774
 31
0.0
  0
LINE
  5
12D
  8
0
  6
CONTINUOUS
 62
     7
 10
2334.7350662951
 20
1094.8593748983
 30
0.0
 11
2314.7350853686
 21
1094.8593748983
 31
0.0
  0
LINE
  5
12E
  8
0
  6
CONTINUOUS
 62
     7
 10
814.7350853686
 20
1091.3593752559
 30
0.0
 11
805.7350820307
 21
1091.3593752559
 31
0.0
  0
LINE
  5
12F
  8
0
  6
CONTINUOUS
 62
     7
 10
702.7350968127
 20
1021.8593685206
 30
0.0
 11
693.7350934748
 21
1021.8593685206
 31
0.0
  0
LINE
  5
130
  8
0
  6
CONTINUOUS
 62
     7
 10
693.7350934748
 20
867.8593693551
 30
0.0
 11
702.7350968127
 21
867.8593693551
 31
0.0
  0
ARC
  5
131
  8
0
  6
CONTINUOUS
 62
     7
 10
1540.7350778996
 20
1167.8593605552
 30
0.0
 40
12.00000778655264
 50
0.8014266883
 51
89.9999653344
  0
LINE
  5
132
  8
0
  6
CONTINUOUS
 62
     7
 10
1540.7350851599
 20
1179.8593683418
 30
0.0
 11
1588.7350855772
 21
1179.8593683418
 31
0.0
  0
ARC
  5
133
  8
0
  6
CONTINUOUS
 62
     7
 10
1588.7335831463
 20
1167.8608915114
 30
0.0
 40
11.99847692440854
 50
89.9928255105
 51
179.2057824668
  0
ARC
  5
134
  8
0
  6
CONTINUOUS
 62
     7
 10
1588.7335831463
 20
721.8578463642
 30
0.0
 40
11.99847692440854
 50
180.7942175332
 51
270.0071744895
  0
LINE
  5
135
  8
0
  6
CONTINUOUS
 62
     7
 10
1588.7350855772
 20
709.8593695339
 30
0.0
 11
1540.7350851599
 21
709.8593695339
 31
0.0
  0
ARC
  5
136
  8
0
  6
CONTINUOUS
 62
     7
 10
1540.7348748019
 20
721.8595832789
 30
0.0
 40
12.00021374682031
 50
270.0010043676
 51
359.1976036097
  0
LINE
  5
137
  8
0
  6
CONTINUOUS
 62
     7
 10
1588.7350855772
 20
1179.8593683418
 30
0.0
 11
1787.7350902561
 21
1179.8593683418
 31
0.0
  0
LINE
  5
138
  8
0
  6
CONTINUOUS
 62
     7
 10
1341.735080481
 20
1179.8593683418
 30
0.0
 11
1540.7350851599
 21
1179.8593683418
 31
0.0
  0
LINE
  5
139
  8
0
  6
CONTINUOUS
 62
     7
 10
1787.7350902561
 20
1179.8593683418
 30
0.0
 11
1787.7350902561
 21
1214.8593796667
 31
0.0
  0
LINE
  5
13A
  8
0
  6
CONTINUOUS
 62
     7
 10
1787.7350902561
 20
1214.8593796667
 30
0.0
 11
1341.735080481
 21
1214.8593796667
 31
0.0
  0
LINE
  5
13B
  8
0
  6
CONTINUOUS
 62
     7
 10
1341.735080481
 20
1214.8593796667
 30
0.0
 11
1341.735080481
 21
1179.8593683418
 31
0.0
  0
LINE
  5
13C
  8
0
  6
CONTINUOUS
 62
     7
 10
1341.735080481
 20
674.859358209
 30
0.0
 11
1787.7350902561
 21
674.859358209
 31
0.0
  0
LINE
  5
13D
  8
0
  6
CONTINUOUS
 62
     7
 10
1540.7350851599
 20
709.8593695339
 30
0.0
 11
1341.735080481
 21
709.8593695339
 31
0.0
  0
LINE
  5
13E
  8
0
  6
CONTINUOUS
 62
     7
 10
1787.7350902561
 20
709.8593695339
 30
0.0
 11
1588.7350855772
 21
709.8593695339
 31
0.0
  0
LINE
  5
13F
  8
0
  6
CONTINUOUS
 62
     7
 10
1787.7350902561
 20
674.859358209
 30
0.0
 11
1787.7350902561
 21
709.8593695339
 31
0.0
  0
LINE
  5
140
  8
0
  6
CONTINUOUS
 62
     7
 10
1341.735080481
 20
709.8593695339
 30
0.0
 11
1341.735080481
 21
674.859358209
 31
0.0
  0
LINE
  5
141
  8
0
  6
CONTINUOUS
 62
     7
 10
1576.7350854729
 20
721.8593640503
 30
0.0
 11
1576.7350854729
 21
1167.8593738254
 31
0.0
  0
LINE
  5
142
  8
0
  6
CONTINUOUS
 62
     7
 10
1552.7350852643
 20
721.8593640503
 30
0.0
 11
1552.7350852643
 21
1167.8593738254
 31
0.0
  0
ARC
  5
143
  8
0
  6
CONTINUOUS
 62
     7
 10
1588.7350853686
 20
721.8593689378
 30
0.0
 40
12.00000000000006
 50
180.0
 51
180.8014051717
  0
ARC
  5
144
  8
0
  6
CONTINUOUS
 62
     7
 10
1588.7350853686
 20
1167.8593689378
 30
0.0
 40
12.00000000000005
 50
179.1985948283
 51
180.0
  0
ARC
  5
145
  8
0
  6
CONTINUOUS
 62
     7
 10
1540.7350853686
 20
721.8593689378
 30
0.0
 40
12.0
 50
359.1985948283
 51
0.0
  0
ARC
  5
146
  8
0
  6
CONTINUOUS
 62
     7
 10
1540.7350853686
 20
1167.8593689378
 30
0.0
 40
12.0
 50
0.0
 51
0.8014051717
  0
LINE
  5
147
  8
0
  6
CONTINUOUS
 62
     7
 10
1811.6740143303
 20
1179.8593683418
 30
0.0
 11
1787.7350902561
 21
1179.8593683418
 31
0.0
  0
LINE
  5
148
  8
0
  6
CONTINUOUS
 62
     7
 10
1787.7350902561
 20
1214.8593796667
 30
0.0
 11
1811.6740143303
 21
1214.8593796667
 31
0.0
  0
LINE
  5
149
  8
0
  6
CONTINUOUS
 62
     7
 10
1341.735080481
 20
1179.8593683418
 30
0.0
 11
1317.7961564068
 21
1179.8593683418
 31
0.0
  0
LINE
  5
14A
  8
0
  6
CONTINUOUS
 62
     7
 10
1317.7961564068
 20
1214.8593796667
 30
0.0
 11
1341.735080481
 21
1214.8593796667
 31
0.0
  0
LINE
  5
14B
  8
0
  6
CONTINUOUS
 62
     7
 10
1811.6740143303
 20
674.859358209
 30
0.0
 11
1787.7350902561
 21
674.859358209
 31
0.0
  0
LINE
  5
14C
  8
0
  6
CONTINUOUS
 62
     7
 10
1787.7350902561
 20
709.8593695339
 30
0.0
 11
1811.6740143303
 21
709.8593695339
 31
0.0
  0
LINE
  5
14D
  8
0
  6
CONTINUOUS
 62
     7
 10
1341.735080481
 20
674.859358209
 30
0.0
 11
1317.7961564068
 21
674.859358209
 31
0.0
  0
LINE
  5
14E
  8
0
  6
CONTINUOUS
 62
     7
 10
1317.7961564068
 20
709.8593695339
 30
0.0
 11
1341.735080481
 21
709.8593695339
 31
0.0
  0
LINE
  5
14F
  8
0
  6
CONTINUOUS
 62
     7
 10
949.9985283617
 20
1097.3767770704
 30
0.0
 11
949.9985283617
 21
1179.8593683418
 31
0.0
  0
LINE
  5
150
  8
0
  6
CONTINUOUS
 62
     7
 10
949.9985283617
 20
1179.8593683418
 30
0.0
 11
1317.7961564068
 21
1179.8593683418
 31
0.0
  0
LINE
  5
151
  8
0
  6
CONTINUOUS
 62
     7
 10
949.7350758318
 20
1214.8593796667
 30
0.0
 11
1317.7961564068
 21
1214.8593796667
 31
0.0
  0
POLYLINE
  5
152
  8
0
  6
CONTINUOUS
 62
     7
 66
     1
 10
0.0
 20
0.0
 30
0.0
  0
VERTEX
  5
712
  8
0
  6
CONTINUOUS
 62
     7
 10
2179.4716423754
 20
1094.1074772056
 30
0.0
  0
VERTEX
  5
713
  8
0
  6
CONTINUOUS
 62
     7
 10
2179.6444958452
 20
1094.6690870699
 30
0.0
  0
VERTEX
  5
714
  8
0
  6
CONTINUOUS
 62
     7
 10
2179.7273463015
 20
1094.859345096
 30
0.0
  0
VERTEX
  5
715
  8
0
  6
CONTINUOUS
 62
     7
 10
2179.7272866968
 20
1094.8573483404
 30
0.0
  0
SEQEND
  5
9B9
  8
0
  6
CONTINUOUS
 62
     7
  0
LINE
  5
153
  8
0
  6
CONTINUOUS
 62
     7
 10
2179.4716423754
 20
1094.1074772056
 30
0.0
 11
2179.4716423754
 21
1179.8593683418
 31
0.0
  0
LINE
  5
154
  8
0
  6
CONTINUOUS
 62
     7
 10
1811.6740143303
 20
1179.8593683418
 30
0.0
 11
2179.4716423754
 21
1179.8593683418
 31
0.0
  0
LINE
  5
155
  8
0
  6
CONTINUOUS
 62
     7
 10
1811.6740143303
 20
1214.8593796667
 30
0.0
 11
2179.7350949053
 21
1214.8593796667
 31
0.0
  0
POLYLINE
  5
156
  8
0
  6
CONTINUOUS
 62
     7
 66
     1
 10
0.0
 20
0.0
 30
0.0
  0
VERTEX
  5
716
  8
0
  6
CONTINUOUS
 62
     7
 10
949.7428840403
 20
794.8613448318
 30
0.0
  0
VERTEX
  5
717
  8
0
  6
CONTINUOUS
 62
     7
 10
949.824303985
 20
795.0456572946
 30
0.0
  0
VERTEX
  5
718
  8
0
  6
CONTINUOUS
 62
     7
 10
949.9985283617
 20
795.6112606701
 30
0.0
  0
SEQEND
  5
9B8
  8
0
  6
CONTINUOUS
 62
     7
  0
LINE
  5
157
  8
0
  6
CONTINUOUS
 62
     7
 10
949.9985283617
 20
795.6112606701
 30
0.0
 11
949.9985283617
 21
709.8593695339
 31
0.0
  0
LINE
  5
158
  8
0
  6
CONTINUOUS
 62
     7
 10
949.7350758318
 20
674.859358209
 30
0.0
 11
1056.7487186198
 21
674.859358209
 31
0.0
  0
LINE
  5
159
  8
0
  6
CONTINUOUS
 62
     7
 10
1083.7585335974
 20
674.859358209
 30
0.0
 11
1317.7961564068
 21
674.859358209
 31
0.0
  0
LINE
  5
15A
  8
0
  6
CONTINUOUS
 62
     7
 10
949.9985283617
 20
709.8593695339
 30
0.0
 11
1069.5565348868
 21
709.8593695339
 31
0.0
  0
LINE
  5
15B
  8
0
  6
CONTINUOUS
 62
     7
 10
1095.6636971239
 20
709.8593695339
 30
0.0
 11
1317.7961564068
 21
709.8593695339
 31
0.0
  0
LINE
  5
15C
  8
0
  6
CONTINUOUS
 62
     7
 10
2179.4716423754
 20
795.6112606701
 30
0.0
 11
2179.4716423754
 21
709.8593695339
 31
0.0
  0
POLYLINE
  5
15D
  8
0
  6
CONTINUOUS
 62
     7
 66
     1
 10
0.0
 20
0.0
 30
0.0
  0
VERTEX
  5
719
  8
0
  6
CONTINUOUS
 62
     7
 10
2179.4716423754
 20
795.6112606701
 30
0.0
  0
VERTEX
  5
71A
  8
0
  6
CONTINUOUS
 62
     7
 10
2179.6444958452
 20
795.0496508058
 30
0.0
  0
VERTEX
  5
71B
  8
0
  6
CONTINUOUS
 62
     7
 10
2179.7273463015
 20
794.8593927797
 30
0.0
  0
VERTEX
  5
71C
  8
0
  6
CONTINUOUS
 62
     7
 10
2179.7272866968
 20
794.8613895353
 30
0.0
  0
SEQEND
  5
9B7
  8
0
  6
CONTINUOUS
 62
     7
  0
LINE
  5
15E
  8
0
  6
CONTINUOUS
 62
     7
 10
1811.6740143303
 20
674.859358209
 30
0.0
 11
2179.7350949053
 21
674.859358209
 31
0.0
  0
LINE
  5
15F
  8
0
  6
CONTINUOUS
 62
     7
 10
1811.6740143303
 20
709.8593695339
 30
0.0
 11
2179.4716423754
 21
709.8593695339
 31
0.0
  0
LINE
  5
160
  8
0
  6
CONTINUOUS
 62
     7
 10
1008.7350910906
 20
1219.8593748983
 30
0.0
 11
2120.7350796465
 21
1219.8593748983
 31
0.0
  0
LINE
  5
161
  8
0
  6
CONTINUOUS
 62
     7
 10
1008.7350910906
 20
669.8593629774
 30
0.0
 11
1054.5021003489
 21
669.8593629774
 31
0.0
  0
LINE
  5
162
  8
0
  6
CONTINUOUS
 62
     7
 10
1081.7218726877
 20
669.8593629774
 30
0.0
 11
2120.7350796465
 21
669.8593629774
 31
0.0
  0
ARC
  5
163
  8
0
  6
CONTINUOUS
 62
     7
 10
2104.9319801225
 20
1167.8558281187
 30
0.0
 40
12.00354067097043
 50
89.9843480644
 51
179.9830754909
  0
ARC
  5
164
  8
0
  6
CONTINUOUS
 62
     7
 10
1024.537905965
 20
1167.8555433072
 30
0.0
 40
12.00382540809291
 50
0.0182835491
 51
90.0142928955
  0
ARC
  5
165
  8
0
  6
CONTINUOUS
 62
     7
 10
2104.9319801225
 20
721.862909757
 30
0.0
 40
12.00354067097043
 50
180.0169245091
 51
270.0156519356
  0
ARC
  5
166
  8
0
  6
CONTINUOUS
 62
     7
 10
1024.5384090121
 20
721.8626912353
 30
0.0
 40
12.00332221100472
 50
269.9833052973
 51
359.9841182581
  0
POLYLINE
  5
167
  8
0
  6
CONTINUOUS
 62
     7
 66
     1
 10
0.0
 20
0.0
 30
0.0
  0
VERTEX
  5
71D
  8
0
  6
CONTINUOUS
 62
     7
 10
802.1681612734
 20
482.1929766115
 30
0.0
  0
VERTEX
  5
71E
  8
0
  6
CONTINUOUS
 62
     7
 10
802.0742243532
 20
482.2009040292
 30
0.0
  0
VERTEX
  5
71F
  8
0
  6
CONTINUOUS
 62
     7
 10
800.9172385935
 20
481.8077517923
 30
0.0
  0
VERTEX
  5
720
  8
0
  6
CONTINUOUS
 62
     7
 10
799.0075057749
 20
480.9965921816
 30
0.0
  0
VERTEX
  5
721
  8
0
  6
CONTINUOUS
 62
     7
 10
796.8980377917
 20
480.2587462839
 30
0.0
  0
VERTEX
  5
722
  8
0
  6
CONTINUOUS
 62
     7
 10
794.9751323466
 20
479.8796607431
 30
0.0
  0
VERTEX
  5
723
  8
0
  6
CONTINUOUS
 62
     7
 10
793.0102056269
 20
479.8152579244
 30
0.0
  0
VERTEX
  5
724
  8
0
  6
CONTINUOUS
 62
     7
 10
790.7652562861
 20
480.0667597231
 30
0.0
  0
VERTEX
  5
725
  8
0
  6
CONTINUOUS
 62
     7
 10
788.5372346644
 20
480.467958587
 30
0.0
  0
VERTEX
  5
726
  8
0
  6
CONTINUOUS
 62
     7
 10
787.7326911692
 20
480.5654419836
 30
0.0
  0
VERTEX
  5
727
  8
0
  6
CONTINUOUS
 62
     7
 10
787.3779839281
 20
480.5461896833
 30
0.0
  0
SEQEND
  5
9B6
  8
0
  6
CONTINUOUS
 62
     7
  0
POLYLINE
  5
168
  8
0
  6
CONTINUOUS
 62
     7
 66
     1
 10
0.0
 20
0.0
 30
0.0
  0
VERTEX
  5
728
  8
0
  6
CONTINUOUS
 62
     7
 10
436.5998810534
 20
760.9055621799
 30
0.0
  0
VERTEX
  5
729
  8
0
  6
CONTINUOUS
 62
     7
 10
436.5374153857
 20
761.3254769024
 30
0.0
  0
VERTEX
  5
72A
  8
0
  6
CONTINUOUS
 62
     7
 10
435.9814232592
 20
762.7352161583
 30
0.0
  0
VERTEX
  5
72B
  8
0
  6
CONTINUOUS
 62
     7
 10
435.0641077761
 20
764.9841590103
 30
0.0
  0
VERTEX
  5
72C
  8
0
  6
CONTINUOUS
 62
     7
 10
434.4946449999
 20
766.9642849144
 30
0.0
  0
VERTEX
  5
72D
  8
0
  6
CONTINUOUS
 62
     7
 10
434.2437094454
 20
769.1412104543
 30
0.0
  0
VERTEX
  5
72E
  8
0
  6
CONTINUOUS
 62
     7
 10
434.3259638552
 20
770.9811164316
 30
0.0
  0
VERTEX
  5
72F
  8
0
  6
CONTINUOUS
 62
     7
 10
434.6934860949
 20
773.3329070982
 30
0.0
  0
VERTEX
  5
730
  8
0
  6
CONTINUOUS
 62
     7
 10
434.9843567614
 20
775.1201374706
 30
0.0
  0
VERTEX
  5
731
  8
0
  6
CONTINUOUS
 62
     7
 10
434.949190021
 20
775.5939794954
 30
0.0
  0
SEQEND
  5
9B5
  8
0
  6
CONTINUOUS
 62
     7
  0
POLYLINE
  5
169
  8
0
  6
CONTINUOUS
 62
     7
 66
     1
 10
0.0
 20
0.0
 30
0.0
  0
VERTEX
  5
732
  8
0
  6
CONTINUOUS
 62
     7
 10
715.3361147646
 20
1126.4335347589
 30
0.0
  0
VERTEX
  5
733
  8
0
  6
CONTINUOUS
 62
     7
 10
715.5680364374
 20
1126.444174188
 30
0.0
  0
VERTEX
  5
734
  8
0
  6
CONTINUOUS
 62
     7
 10
716.849059463
 20
1126.9158555444
 30
0.0
  0
VERTEX
  5
735
  8
0
  6
CONTINUOUS
 62
     7
 10
718.9279502634
 20
1127.7843846258
 30
0.0
  0
VERTEX
  5
736
  8
0
  6
CONTINUOUS
 62
     7
 10
720.9669655565
 20
1128.4381730732
 30
0.0
  0
VERTEX
  5
737
  8
0
  6
CONTINUOUS
 62
     7
 10
722.8823012118
 20
1128.7514550861
 30
0.0
  0
VERTEX
  5
738
  8
0
  6
CONTINUOUS
 62
     7
 10
724.7923320536
 20
1128.760321277
 30
0.0
  0
VERTEX
  5
739
  8
0
  6
CONTINUOUS
 62
     7
 10
727.0843690638
 20
1128.4648312505
 30
0.0
  0
VERTEX
  5
73A
  8
0
  6
CONTINUOUS
 62
     7
 10
728.9477890734
 20
1128.1306727108
 30
0.0
  0
VERTEX
  5
73B
  8
0
  6
CONTINUOUS
 62
     7
 10
729.7511404757
 20
1128.0376745638
 30
0.0
  0
VERTEX
  5
73C
  8
0
  6
CONTINUOUS
 62
     7
 10
730.0808733706
 20
1128.0595196661
 30
0.0
  0
SEQEND
  5
9B4
  8
0
  6
CONTINUOUS
 62
     7
  0
POLYLINE
  5
16A
  8
0
  6
CONTINUOUS
 62
     7
 66
     1
 10
0.0
 20
0.0
 30
0.0
  0
VERTEX
  5
73D
  8
0
  6
CONTINUOUS
 62
     7
 10
1080.8573073153
 20
847.7159424003
 30
0.0
  0
VERTEX
  5
73E
  8
0
  6
CONTINUOUS
 62
     7
 10
1080.8551615481
 20
847.5579826411
 30
0.0
  0
VERTEX
  5
73F
  8
0
  6
CONTINUOUS
 62
     7
 10
1081.2875336413
 20
846.3377191003
 30
0.0
  0
VERTEX
  5
740
  8
0
  6
CONTINUOUS
 62
     7
 10
1082.1287935976
 20
844.3422002967
 30
0.0
  0
VERTEX
  5
741
  8
0
  6
CONTINUOUS
 62
     7
 10
1082.8252440695
 20
842.2676382836
 30
0.0
  0
VERTEX
  5
742
  8
0
  6
CONTINUOUS
 62
     7
 10
1083.1722027067
 20
840.3489498671
 30
0.0
  0
VERTEX
  5
743
  8
0
  6
CONTINUOUS
 62
     7
 10
1083.2090383772
 20
838.4122310456
 30
0.0
  0
VERTEX
  5
744
  8
0
  6
CONTINUOUS
 62
     7
 10
1082.9357808832
 20
836.1450640734
 30
0.0
  0
VERTEX
  5
745
  8
0
  6
CONTINUOUS
 62
     7
 10
1082.5963026289
 20
834.2754973348
 30
0.0
  0
VERTEX
  5
746
  8
0
  6
CONTINUOUS
 62
     7
 10
1082.500726581
 20
832.9744247969
 30
0.0
  0
SEQEND
  5
9B3
  8
0
  6
CONTINUOUS
 62
     7
  0
LINE
  5
16B
  8
0
  6
CONTINUOUS
 62
     7
 10
1604.7299771015
 20
953.9490269747
 30
0.0
 11
1604.7299771015
 21
977.9118692752
 31
0.0
  0
LINE
  5
16C
  8
0
  6
CONTINUOUS
 62
     7
 10
1604.9191659693
 20
953.9490269747
 30
0.0
 11
1604.9191659693
 21
977.9118692752
 31
0.0
  0
LINE
  5
16D
  8
0
  6
CONTINUOUS
 62
     7
 10
1604.9191659693
 20
913.5618677612
 30
0.0
 11
1604.9191659693
 21
935.769710901
 31
0.0
  0
ARC
  5
16E
  8
0
  6
CONTINUOUS
 62
     7
 10
1605.2436721748
 20
935.7698887019
 30
0.0
 40
0.3245062542378783
 50
112.3710605518
 51
180.0313930583
  0
LINE
  5
16F
  8
0
  6
CONTINUOUS
 62
     7
 10
1605.1201640074
 20
936.069972093
 30
0.0
 11
1625.616551042
 21
944.5591080951
 31
0.0
  0
ARC
  5
170
  8
0
  6
CONTINUOUS
 62
     7
 10
1625.491625607
 20
944.8593689378
 30
0.0
 40
0.3252121430979423
 50
292.5900635566
 51
67.4099364434
  0
LINE
  5
171
  8
0
  6
CONTINUOUS
 62
     7
 10
1625.616551042
 20
945.1596297806
 30
0.0
 11
1605.1201640074
 21
953.6487657826
 31
0.0
  0
ARC
  5
172
  8
0
  6
CONTINUOUS
 62
     7
 10
1605.2436750353
 20
953.9488510885
 30
0.0
 40
0.3245091136459697
 50
179.9689453011
 51
247.6286010888
  0
ARC
  5
173
  8
0
  6
CONTINUOUS
 62
     7
 10
1605.2444612854
 20
977.9115720114
 30
0.0
 40
0.3252954519054179
 50
89.9473742732
 51
179.9476415631
  0
LINE
  5
174
  8
0
  6
CONTINUOUS
 62
     7
 10
1605.2447600667
 20
978.2368673261
 30
0.0
 11
1611.1027008299
 21
978.2368673261
 31
0.0
  0
ARC
  5
175
  8
0
  6
CONTINUOUS
 62
     7
 10
1611.1028482231
 20
977.9117298245
 30
0.0
 40
0.3251375350364059
 50
0.0245740215
 51
90.0259736413
  0
LINE
  5
176
  8
0
  6
CONTINUOUS
 62
     7
 10
1611.4279857282
 20
977.9118692752
 30
0.0
 11
1611.4279857282
 21
958.2921883341
 31
0.0
  0
ARC
  5
177
  8
0
  6
CONTINUOUS
 62
     7
 10
1611.7524846021
 20
958.2919197466
 30
0.0
 40
0.3244989850164162
 50
179.952576326
 51
247.5899730248
  0
LINE
  5
178
  8
0
  6
CONTINUOUS
 62
     7
 10
1611.62877515
 20
957.9919271421
 30
0.0
 11
1635.8889570836
 21
947.9270579543
 31
0.0
  0
ARC
  5
179
  8
0
  6
CONTINUOUS
 62
     7
 10
1635.7642095814
 20
947.627496239
 30
0.0
 40
0.3244983213847694
 50
359.876536327
 51
67.3915243213
  0
LINE
  5
17A
  8
0
  6
CONTINUOUS
 62
     7
 10
1636.0887071494
 20
947.6267969951
 30
0.0
 11
1636.0887071494
 21
942.0919408806
 31
0.0
  0
ARC
  5
17B
  8
0
  6
CONTINUOUS
 62
     7
 10
1635.7642032687
 20
942.0912458363
 30
0.0
 40
0.3245046251251162
 50
292.6092195772
 51
0.1227197744
  0
LINE
  5
17C
  8
0
  6
CONTINUOUS
 62
     7
 10
1635.8889570836
 20
941.7916799214
 30
0.0
 11
1611.62877515
 21
931.7268107336
 31
0.0
  0
ARC
  5
17D
  8
0
  6
CONTINUOUS
 62
     7
 10
1611.752485967
 20
931.4268172164
 30
0.0
 40
0.3245003491620687
 50
112.4101883319
 51
180.0472623173
  0
LINE
  5
17E
  8
0
  6
CONTINUOUS
 62
     7
 10
1611.4279857282
 20
931.4265495416
 30
0.0
 11
1611.4279857282
 21
913.5618677612
 31
0.0
  0
ARC
  5
17F
  8
0
  6
CONTINUOUS
 62
     7
 10
1611.1028444816
 20
913.5620109567
 30
0.0
 40
0.3251412781387072
 50
269.9746859734
 51
359.9747663638
  0
LINE
  5
180
  8
0
  6
CONTINUOUS
 62
     7
 10
1605.2447600667
 20
913.2368697103
 30
0.0
 11
1611.1027008299
 21
913.2368697103
 31
0.0
  0
ARC
  5
181
  8
0
  6
CONTINUOUS
 62
     7
 10
1605.2444650266
 20
913.5621687731
 30
0.0
 40
0.3252991965888118
 50
180.0530179968
 51
270.0519661668
  0
ARC
  5
182
  8
0
  6
CONTINUOUS
 62
     7
 10
1605.0548804373
 20
977.9119650726
 30
0.0
 40
0.3249033499441877
 50
90.148847398
 51
180.0168935923
  0
LINE
  5
183
  8
0
  6
CONTINUOUS
 62
     7
 10
1605.2447600667
 20
978.2368673261
 30
0.0
 11
1605.0540363793
 21
978.2368673261
 31
0.0
  0
ARC
  5
184
  8
0
  6
CONTINUOUS
 62
     7
 10
1605.0566148355
 20
953.9498770472
 30
0.0
 40
0.3266388401294552
 50
180.1491115576
 51
247.197716026
  0
ARC
  5
185
  8
0
  6
CONTINUOUS
 62
     7
 10
1605.0566189762
 20
935.7688580697
 30
0.0
 40
0.3266429879994193
 50
112.8027659843
 51
179.8504064322
  0
LINE
  5
186
  8
0
  6
CONTINUOUS
 62
     7
 10
1604.7299771015
 20
913.5618677612
 30
0.0
 11
1604.7299771015
 21
935.769710901
 31
0.0
  0
ARC
  5
187
  8
0
  6
CONTINUOUS
 62
     7
 10
1605.0548811271
 20
913.5617726517
 30
0.0
 40
0.3249040395712069
 50
179.9832277413
 51
269.8510312684
  0
LINE
  5
188
  8
0
  6
CONTINUOUS
 62
     7
 10
1605.2447600667
 20
913.2368697103
 30
0.0
 11
1605.0540363793
 21
913.2368697103
 31
0.0
  0
LINE
  5
189
  8
0
  6
CONTINUOUS
 62
     7
 10
1625.3299160306
 20
945.1596297806
 30
0.0
 11
1604.9300251905
 21
953.6487657826
 31
0.0
  0
LINE
  5
18A
  8
0
  6
CONTINUOUS
 62
     7
 10
1604.9300251905
 20
936.069972093
 30
0.0
 11
1625.3299160306
 21
944.5591080951
 31
0.0
  0
ARC
  5
18B
  8
0
  6
CONTINUOUS
 62
     7
 10
1613.921570891
 20
977.9121924986
 30
0.0
 40
0.324676608454544
 50
90.1897730698
 51
180.0570393397
  0
LINE
  5
18C
  8
0
  6
CONTINUOUS
 62
     7
 10
1614.1531585161
 20
978.2368673261
 30
0.0
 11
1613.9204955105
 21
978.2368673261
 31
0.0
  0
ARC
  5
18D
  8
0
  6
CONTINUOUS
 62
     7
 10
1614.1530936663
 20
977.9118037397
 30
0.0
 40
0.3250635929079543
 50
89.9885695624
 51
179.9884486965
  0
ARC
  5
18E
  8
0
  6
CONTINUOUS
 62
     7
 10
1614.4411418153
 20
964.2865275577
 30
0.0
 40
12.97359330491476
 50
22.1864676405
 51
62.1589667571
  0
ARC
  5
18F
  8
0
  6
CONTINUOUS
 62
     7
 10
1626.7542884807
 20
969.3078143999
 30
0.0
 40
0.3240344559127285
 50
202.1499455954
 51
302.5362124773
  0
LINE
  5
190
  8
0
  6
CONTINUOUS
 62
     7
 10
1626.9285647575
 20
969.0346366044
 30
0.0
 11
1635.5912393336
 21
974.571073639
 31
0.0
  0
ARC
  5
191
  8
0
  6
CONTINUOUS
 62
     7
 10
1635.7651148327
 20
974.2981620899
 30
0.0
 40
0.3235945037762712
 50
359.7893466566
 51
122.5017423025
  0
LINE
  5
192
  8
0
  6
CONTINUOUS
 62
     7
 10
1636.0887071494
 20
974.2969723668
 30
0.0
 11
1636.0887071494
 21
967.9649772372
 31
0.0
  0
ARC
  5
193
  8
0
  6
CONTINUOUS
 62
     7
 10
1635.763291081
 20
967.9647853316
 30
0.0
 40
0.3254161249718294
 50
302.6777699184
 51
0.0337886835
  0
LINE
  5
194
  8
0
  6
CONTINUOUS
 62
     7
 10
1635.9389877323
 20
967.690875965
 30
0.0
 11
1626.8373622004
 21
961.8737159546
 31
0.0
  0
ARC
  5
195
  8
0
  6
CONTINUOUS
 62
     7
 10
1627.0125515443
 20
961.5996396967
 30
0.0
 40
0.3252831095352206
 50
122.5866840753
 51
247.39195618
  0
LINE
  5
196
  8
0
  6
CONTINUOUS
 62
     7
 10
1626.8875046078
 20
961.2993525591
 30
0.0
 11
1635.8889570836
 21
957.5587503862
 31
0.0
  0
ARC
  5
197
  8
0
  6
CONTINUOUS
 62
     7
 10
1635.7642107046
 20
957.2591894197
 30
0.0
 40
0.3244971983594656
 50
359.876527017
 51
67.3916565644
  0
LINE
  5
198
  8
0
  6
CONTINUOUS
 62
     7
 10
1636.0887071494
 20
957.2584901255
 30
0.0
 11
1636.0887071494
 21
950.9264954615
 31
0.0
  0
ARC
  5
199
  8
0
  6
CONTINUOUS
 62
     7
 10
1635.7649561405
 20
950.9254327007
 30
0.0
 40
0.3237527533120009
 50
247.5413902699
 51
0.1880812457
  0
LINE
  5
19A
  8
0
  6
CONTINUOUS
 62
     7
 10
1635.6412774328
 20
950.6262347352
 30
0.0
 11
1614.0287412707
 21
959.5945693802
 31
0.0
  0
ARC
  5
19B
  8
0
  6
CONTINUOUS
 62
     7
 10
1614.1525360898
 20
959.8945345128
 30
0.0
 40
0.3245061448022279
 50
179.9477268562
 51
247.5741894982
  0
LINE
  5
19C
  8
0
  6
CONTINUOUS
 62
     7
 10
1613.82803008
 20
959.8948305722
 30
0.0
 11
1613.82803008
 21
966.2268257018
 31
0.0
  0
ARC
  5
19D
  8
0
  6
CONTINUOUS
 62
     7
 10
1614.1531448542
 20
966.2267252197
 30
0.0
 40
0.3251147897488283
 50
67.4971646996
 51
179.9822917871
  0
LINE
  5
19E
  8
0
  6
CONTINUOUS
 62
     7
 10
1614.2775757615
 20
966.5270859625
 30
0.0
 11
1621.1259371046
 21
963.6895844962
 31
0.0
  0
ARC
  5
19F
  8
0
  6
CONTINUOUS
 62
     7
 10
1621.250154356
 20
963.9895818845
 30
0.0
 40
0.3246973337050827
 50
247.5074561309
 51
357.7601710578
  0
ARC
  5
1A0
  8
0
  6
CONTINUOUS
 62
     7
 10
1614.4328023275
 20
964.2642951172
 30
0.0
 40
7.147581622609236
 50
357.6955687753
 51
92.1447147817
  0
ARC
  5
1A1
  8
0
  6
CONTINUOUS
 62
     7
 10
1614.1529765438
 20
971.7315819691
 30
0.0
 40
0.3249464694571192
 50
179.9893318339
 51
272.1759339187
  0
LINE
  5
1A2
  8
0
  6
CONTINUOUS
 62
     7
 10
1613.82803008
 20
971.7316424724
 30
0.0
 11
1613.82803008
 21
977.9118692752
 31
0.0
  0
LINE
  5
1A3
  8
0
  6
CONTINUOUS
 62
     7
 10
1614.1531585161
 20
978.2368673261
 30
0.0
 11
1620.0021772091
 21
978.2368673261
 31
0.0
  0
ARC
  5
1A4
  8
0
  6
CONTINUOUS
 62
     7
 10
1620.0020585094
 20
977.9119964415
 30
0.0
 40
0.3248709062754166
 50
359.9775723388
 51
89.9790655699
  0
LINE
  5
1A5
  8
0
  6
CONTINUOUS
 62
     7
 10
1620.3269293908
 20
977.9118692752
 30
0.0
 11
1620.3269293908
 21
976.0457987215
 31
0.0
  0
ARC
  5
1A6
  8
0
  6
CONTINUOUS
 62
     7
 10
1620.6517031411
 20
976.0455877278
 30
0.0
 40
0.3247738187979681
 50
179.9627770052
 51
242.1674345959
  0
ARC
  5
1A7
  8
0
  6
CONTINUOUS
 62
     7
 10
1613.9206506455
 20
966.2278802603
 30
0.0
 40
0.3237579194938648
 50
67.5427626289
 51
180.1866266574
  0
LINE
  5
1A8
  8
0
  6
CONTINUOUS
 62
     7
 10
1613.5968944434
 20
971.7316424724
 30
0.0
 11
1613.5968944434
 21
977.9118692752
 31
0.0
  0
LINE
  5
1A9
  8
0
  6
CONTINUOUS
 62
     7
 10
1613.5968944434
 20
959.8948305722
 30
0.0
 11
1613.5968944434
 21
966.2268257018
 31
0.0
  0
ARC
  5
1AA
  8
0
  6
CONTINUOUS
 62
     7
 10
1613.9214918188
 20
971.7312774203
 30
0.0
 40
0.3245975806583687
 50
179.9355634467
 51
271.9602859305
  0
LINE
  5
1AB
  8
0
  6
CONTINUOUS
 62
     7
 10
1614.1653141383
 20
971.4068698015
 30
0.0
 11
1613.9325952534
 21
971.4068698015
 31
0.0
  0
LINE
  5
1AC
  8
0
  6
CONTINUOUS
 62
     7
 10
1613.5968944434
 20
913.5618677612
 30
0.0
 11
1613.5968944434
 21
929.8239073034
 31
0.0
  0
LINE
  5
1AD
  8
0
  6
CONTINUOUS
 62
     7
 10
1613.82803008
 20
913.5618677612
 30
0.0
 11
1613.82803008
 21
929.8239073034
 31
0.0
  0
ARC
  5
1AE
  8
0
  6
CONTINUOUS
 62
     7
 10
1613.9235425225
 20
959.8955680301
 30
0.0
 40
0.3266489114988561
 50
180.1293537479
 51
247.1426080325
  0
ARC
  5
1AF
  8
0
  6
CONTINUOUS
 62
     7
 10
1614.152528033
 20
929.8242087484
 30
0.0
 40
0.3244980930520899
 50
112.4248582916
 51
180.053225354
  0
LINE
  5
1B0
  8
0
  6
CONTINUOUS
 62
     7
 10
1614.0287412707
 20
930.1241684955
 30
0.0
 11
1635.6412774328
 21
939.0925031405
 31
0.0
  0
ARC
  5
1B1
  8
0
  6
CONTINUOUS
 62
     7
 10
1635.7649560158
 20
938.7933049892
 30
0.0
 40
0.3237528773622594
 50
359.8119517014
 51
112.458576783
  0
LINE
  5
1B2
  8
0
  6
CONTINUOUS
 62
     7
 10
1636.0887071494
 20
938.7922424141
 30
0.0
 11
1636.0887071494
 21
932.4602477502
 31
0.0
  0
ARC
  5
1B3
  8
0
  6
CONTINUOUS
 62
     7
 10
1635.7642057146
 20
932.4595517756
 30
0.0
 40
0.3245021811384347
 50
292.6089314553
 51
0.1228849633
  0
LINE
  5
1B4
  8
0
  6
CONTINUOUS
 62
     7
 10
1635.8889570836
 20
932.1599874895
 30
0.0
 11
1631.7560306195
 21
930.4415213194
 31
0.0
  0
ARC
  5
1B5
  8
0
  6
CONTINUOUS
 62
     7
 10
1631.880570222
 20
930.1418564221
 30
0.0
 40
0.3245137335378014
 50
112.5675864442
 51
180.1052811852
  0
LINE
  5
1B6
  8
0
  6
CONTINUOUS
 62
     7
 10
1631.5560570363
 20
930.1412601274
 30
0.0
 11
1631.5560570363
 21
920.456748667
 31
0.0
  0
ARC
  5
1B7
  8
0
  6
CONTINUOUS
 62
     7
 10
1631.8805602982
 20
920.4561448335
 30
0.0
 40
0.3245038236569739
 50
179.8933845297
 51
247.4335838601
  0
LINE
  5
1B8
  8
0
  6
CONTINUOUS
 62
     7
 10
1631.7560306195
 20
920.1564865436
 30
0.0
 11
1635.8889570836
 21
918.4380213048
 31
0.0
  0
ARC
  5
1B9
  8
0
  6
CONTINUOUS
 62
     7
 10
1635.7642092616
 20
918.1384593784
 30
0.0
 40
0.3244986392689811
 50
359.8766970616
 51
67.3914865198
  0
LINE
  5
1BA
  8
0
  6
CONTINUOUS
 62
     7
 10
1636.0887071494
 20
918.1377610441
 30
0.0
 11
1636.0887071494
 21
911.8057659145
 31
0.0
  0
ARC
  5
1BB
  8
0
  6
CONTINUOUS
 62
     7
 10
1635.7649538149
 20
911.804705227
 30
0.0
 40
0.3237550720581482
 50
247.542005232
 51
0.1877129708
  0
LINE
  5
1BC
  8
0
  6
CONTINUOUS
 62
     7
 10
1635.6412774328
 20
911.5055037912
 30
0.0
 11
1620.7759237293
 21
917.6784178492
 31
0.0
  0
ARC
  5
1BD
  8
0
  6
CONTINUOUS
 62
     7
 10
1620.6516879204
 20
917.3783618411
 30
0.0
 40
0.3247585937458476
 50
67.5083876207
 51
180.036035428
  0
LINE
  5
1BE
  8
0
  6
CONTINUOUS
 62
     7
 10
1620.3269293908
 20
917.3781575885
 30
0.0
 11
1620.3269293908
 21
913.5618677612
 31
0.0
  0
ARC
  5
1BF
  8
0
  6
CONTINUOUS
 62
     7
 10
1620.0020547669
 20
913.5617443346
 30
0.0
 40
0.324874647379452
 50
270.0215942349
 51
0.0217678565
  0
LINE
  5
1C0
  8
0
  6
CONTINUOUS
 62
     7
 10
1614.1531585161
 20
913.2368697103
 30
0.0
 11
1620.0021772091
 21
913.2368697103
 31
0.0
  0
ARC
  5
1C1
  8
0
  6
CONTINUOUS
 62
     7
 10
1614.1530974085
 20
913.5619370404
 30
0.0
 40
0.3250673358380636
 50
180.0122110203
 51
270.0107707207
  0
ARC
  5
1C2
  8
0
  6
CONTINUOUS
 62
     7
 10
1620.2135525478
 20
925.2990039315
 30
0.0
 40
0.3250775639168408
 50
112.5332515707
 51
247.4667484294
  0
LINE
  5
1C3
  8
0
  6
CONTINUOUS
 62
     7
 10
1625.1103958492
 20
922.916185322
 30
0.0
 11
1620.088976473
 21
924.9987436708
 31
0.0
  0
ARC
  5
1C4
  8
0
  6
CONTINUOUS
 62
     7
 10
1625.2344754799
 20
923.2159914631
 30
0.0
 40
0.3244679907099742
 50
247.5169894518
 51
0.0801901795
  0
LINE
  5
1C5
  8
0
  6
CONTINUOUS
 62
     7
 10
1625.5589431528
 20
927.3815622803
 30
0.0
 11
1625.5589431528
 21
923.2164455827
 31
0.0
  0
ARC
  5
1C6
  8
0
  6
CONTINUOUS
 62
     7
 10
1625.2344754799
 20
927.3820163999
 30
0.0
 40
0.3244679907099742
 50
359.9198098205
 51
112.4830105482
  0
LINE
  5
1C7
  8
0
  6
CONTINUOUS
 62
     7
 10
1620.088976473
 20
925.5992641922
 30
0.0
 11
1625.1103958492
 21
927.681822541
 31
0.0
  0
ARC
  5
1C8
  8
0
  6
CONTINUOUS
 62
     7
 10
1613.923546173
 20
929.8231674168
 30
0.0
 40
0.326652567489446
 50
112.8578165212
 51
179.8702216984
  0
ARC
  5
1C9
  8
0
  6
CONTINUOUS
 62
     7
 10
1613.9215719442
 20
913.5615455865
 30
0.0
 40
0.3246776606245543
 50
179.9431459065
 51
269.810041684
  0
LINE
  5
1CA
  8
0
  6
CONTINUOUS
 62
     7
 10
1614.1531585161
 20
913.2368697103
 30
0.0
 11
1613.9204955105
 21
913.2368697103
 31
0.0
  0
LINE
  5
1CB
  8
0
  6
CONTINUOUS
 62
     7
 10
1635.3074467186
 20
950.6262347352
 30
0.0
 11
1613.7966594104
 21
959.5945693802
 31
0.0
  0
LINE
  5
1CC
  8
0
  6
CONTINUOUS
 62
     7
 10
1635.6412774328
 20
950.6262347352
 30
0.0
 11
1635.3074467186
 21
950.6262347352
 31
0.0
  0
LINE
  5
1CD
  8
0
  6
CONTINUOUS
 62
     7
 10
1613.7966594104
 20
930.1241684955
 30
0.0
 11
1635.3074467186
 21
939.0925031405
 31
0.0
  0
LINE
  5
1CE
  8
0
  6
CONTINUOUS
 62
     7
 10
1635.6412774328
 20
939.0925031405
 30
0.0
 11
1635.3074467186
 21
939.0925031405
 31
0.0
  0
ARC
  5
1CF
  8
0
  6
CONTINUOUS
 62
     7
 10
1614.1825394371
 20
964.2803344322
 30
0.0
 40
7.130917084389897
 50
357.5611515057
 51
92.0086730226
  0
LINE
  5
1D0
  8
0
  6
CONTINUOUS
 62
     7
 10
1621.5746036176
 20
963.9768919226
 30
0.0
 11
1621.306997389
 21
963.9768919226
 31
0.0
  0
LINE
  5
1D1
  8
0
  6
CONTINUOUS
 62
     7
 10
1620.7759237293
 20
917.6784178492
 30
0.0
 11
1620.5308145289
 21
917.6784178492
 31
0.0
  0
LINE
  5
1D2
  8
0
  6
CONTINUOUS
 62
     7
 10
1635.3074467186
 20
911.5055037912
 30
0.0
 11
1620.512080044
 21
917.6784178492
 31
0.0
  0
LINE
  5
1D3
  8
0
  6
CONTINUOUS
 62
     7
 10
1635.6412774328
 20
911.5055037912
 30
0.0
 11
1635.3074467186
 21
911.5055037912
 31
0.0
  0
LINE
  5
1D4
  8
0
  6
CONTINUOUS
 62
     7
 10
2092.9284399752
 20
1031.0640691098
 30
0.0
 11
2092.9284399752
 21
1167.8593738254
 31
0.0
  0
ARC
  5
1D5
  8
0
  6
CONTINUOUS
 62
     7
 10
2558.2168671501
 20
947.5440346485
 30
0.0
 40
472.724990474721
 50
169.8236866449
 51
178.5071732741
  0
LINE
  5
1D6
  8
0
  6
CONTINUOUS
 62
     7
 10
2072.0892256502
 20
929.8593692731
 30
0.0
 11
2072.0892256502
 21
959.8593686026
 31
0.0
  0
ARC
  5
1D7
  8
0
  6
CONTINUOUS
 62
     7
 10
2566.3660876926
 20
943.0074388224
 30
0.0
 40
480.8935392500191
 50
181.5667142922
 51
190.1024257888
  0
LINE
  5
1D8
  8
0
  6
CONTINUOUS
 62
     7
 10
2092.9284399752
 20
721.8593640503
 30
0.0
 11
2092.9284399752
 21
858.6546687659
 31
0.0
  0
ARC
  5
1D9
  8
0
  6
CONTINUOUS
 62
     7
 10
1625.2036267114
 20
944.8593689378
 30
0.0
 40
0.3257384930444603
 50
292.8115586313
 51
67.1884413687
  0
ARC
  5
1DA
  8
0
  6
CONTINUOUS
 62
     7
 10
1635.4160226545
 20
974.3451350428
 30
0.0
 40
0.2759186206083237
 50
86.3056610345
 51
125.0292077186
  0
LINE
  5
1DB
  8
0
  6
CONTINUOUS
 62
     7
 10
1626.6357494895
 20
969.0346366044
 30
0.0
 11
1635.2576470379
 21
974.571073639
 31
0.0
  0
ARC
  5
1DC
  8
0
  6
CONTINUOUS
 62
     7
 10
563.1040830445
 20
943.0074388224
 30
0.0
 40
480.8935392500194
 50
349.8975742112
 51
358.4332857078
  0
LINE
  5
1DD
  8
0
  6
CONTINUOUS
 62
     7
 10
1057.3809450869
 20
929.8593692731
 30
0.0
 11
1057.3809450869
 21
932.4440054845
 31
0.0
  0
LINE
  5
1DE
  8
0
  6
CONTINUOUS
 62
     7
 10
1043.8178485636
 20
959.8593686026
 30
0.0
 11
1043.7993115191
 21
960.3292683389
 31
0.0
  0
ARC
  5
1DF
  8
0
  6
CONTINUOUS
 62
     7
 10
711.8702375798
 20
970.3847394659
 30
0.0
 40
330.2931418167336
 50
7.4873287574
 51
10.5861395097
  0
LINE
  5
1E0
  8
0
  6
CONTINUOUS
 62
     7
 10
1036.5417307619
 20
1031.0640691098
 30
0.0
 11
1036.5417307619
 21
1167.8593738254
 31
0.0
  0
LINE
  5
1E1
  8
0
  6
CONTINUOUS
 62
     7
 10
1036.5417307619
 20
721.8593640503
 30
0.0
 11
1036.5417307619
 21
827.2756396111
 31
0.0
  0
LINE
  5
1E2
  8
0
  6
CONTINUOUS
 62
     7
 10
1036.5417307619
 20
843.3744071301
 30
0.0
 11
1036.5417307619
 21
858.6546687659
 31
0.0
  0
LINE
  5
1E3
  8
0
  6
CONTINUOUS
 62
     7
 10
1625.2725800876
 20
927.3815622803
 30
0.0
 11
1625.2725800876
 21
923.2164455827
 31
0.0
  0
ARC
  5
1E4
  8
0
  6
CONTINUOUS
 62
     7
 10
759.1174555285
 20
802.2363210819
 30
0.0
 40
47.17946493813447
 50
96.5400076801
 51
106.2105057398
  0
ARC
  5
1E5
  8
0
  6
CONTINUOUS
 62
     7
 10
758.8320114409
 20
802.4457666248
 30
0.0
 40
46.93958972599012
 50
86.4682723949
 51
96.2229706708
  0
ARC
  5
1E6
  8
0
  6
CONTINUOUS
 62
     7
 10
758.1517101012
 20
804.2828963863
 30
0.0
 40
45.59125982251528
 50
6.4161218607
 51
16.4395878879
  0
ARC
  5
1E7
  8
0
  6
CONTINUOUS
 62
     7
 10
765.0530864015
 20
804.8200217072
 30
0.0
 40
38.67381621701839
 50
359.3610886144
 51
6.767920964
  0
ARC
  5
1E8
  8
0
  6
CONTINUOUS
 62
     7
 10
752.4420176465
 20
804.7397772829
 30
0.0
 40
38.69792726105829
 50
176.0802371093
 51
180.5199849006
  0
CIRCLE
  5
1E9
  8
0
  6
CONTINUOUS
 62
     7
 10
758.7350584906
 20
804.3794392233
 30
0.0
 40
44.99996656426389
  0
POLYLINE
  5
1EA
  8
0
  6
CONTINUOUS
 62
     7
 66
     1
 10
0.0
 20
0.0
 30
0.0
  0
VERTEX
  5
747
  8
0
  6
CONTINUOUS
 62
     7
 10
803.4574097399
 20
809.4498498615
 30
0.0
  0
VERTEX
  5
748
  8
0
  6
CONTINUOUS
 62
     7
 10
803.7235444788
 20
805.4777665313
 30
0.0
  0
VERTEX
  5
749
  8
0
  6
CONTINUOUS
 62
     7
 10
803.7351077799
 20
804.458646315
 30
0.0
  0
SEQEND
  5
9B2
  8
0
  6
CONTINUOUS
 62
     7
  0
ARC
  5
1EB
  8
0
  6
CONTINUOUS
 62
     7
 10
758.7350716735
 20
804.4586343413
 30
0.0
 40
44.99999727217448
 50
6.3681162849
 51
179.9999847547
  0
ARC
  5
1EC
  8
0
  6
CONTINUOUS
 62
     7
 10
758.7350825094
 20
804.6249941378
 30
0.0
 40
46.89999804564784
 50
15.9062049845
 51
86.5784196592
  0
ARC
  5
1ED
  8
0
  6
CONTINUOUS
 62
     7
 10
758.7351573455
 20
804.6249015586
 30
0.0
 40
46.9001058642247
 50
106.2210860244
 51
176.8298739331
  0
ARC
  5
1EE
  8
0
  6
CONTINUOUS
 62
     7
 10
758.735071456
 20
804.6250607573
 30
0.0
 40
46.90001219506538
 50
196.4728544478
 51
266.5152084855
  0
ARC
  5
1EF
  8
0
  6
CONTINUOUS
 62
     7
 10
758.7350162967
 20
804.6251233997
 30
0.0
 40
46.90009759101648
 50
286.1578633277
 51
356.2632722195
  0
ARC
  5
1F0
  8
0
  6
CONTINUOUS
 62
     7
 10
758.7351550282
 20
804.6271718385
 30
0.0
 40
62.63929405229908
 50
13.4883715908
 51
89.0548568239
  0
ARC
  5
1F1
  8
0
  6
CONTINUOUS
 62
     7
 10
758.7350161958
 20
804.6271356625
 30
0.0
 40
62.63931421161683
 50
103.7298774959
 51
179.2478087797
  0
ARC
  5
1F2
  8
0
  6
CONTINUOUS
 62
     7
 10
758.7350573921
 20
804.627138594
 30
0.0
 40
62.63939321583759
 50
193.9230661017
 51
269.0063009822
  0
ARC
  5
1F3
  8
0
  6
CONTINUOUS
 62
     7
 10
758.7350501709
 20
804.6271553355
 30
0.0
 40
62.63942464635036
 50
283.6814760693
 51
358.8131200185
  0
ARC
  5
1F4
  8
0
  6
CONTINUOUS
 62
     7
 10
758.735128545
 20
804.6326718939
 30
0.0
 40
62.81721979756305
 50
13.4630163524
 51
89.0762142046
  0
ARC
  5
1F5
  8
0
  6
CONTINUOUS
 62
     7
 10
758.7350354868
 20
804.6326077454
 30
0.0
 40
62.81726799401046
 50
103.7094912544
 51
179.2731316592
  0
ARC
  5
1F6
  8
0
  6
CONTINUOUS
 62
     7
 10
758.7350301626
 20
804.6325590339
 30
0.0
 40
62.81720564982226
 50
193.9065644648
 51
269.026701566
  0
ARC
  5
1F7
  8
0
  6
CONTINUOUS
 62
     7
 10
758.7352553125
 20
804.6324965043
 30
0.0
 40
62.81710164466191
 50
283.6599069293
 51
358.8296988288
  0
LINE
  5
1F8
  8
0
  6
CONTINUOUS
 62
     7
 10
2179.4716423754
 20
795.6112606701
 30
0.0
 11
2282.7350801234
 21
795.6112606701
 31
0.0
  0
LINE
  5
1F9
  8
0
  6
CONTINUOUS
 62
     7
 10
2179.4716423754
 20
1094.1074772056
 30
0.0
 11
2282.7350801234
 21
1094.1074772056
 31
0.0
  0
LINE
  5
1FA
  8
0
  6
CONTINUOUS
 62
     7
 10
2282.7350801234
 20
795.6112606701
 30
0.0
 11
2282.7350801234
 21
1094.1074772056
 31
0.0
  0
LINE
  5
1FB
  8
0
  6
CONTINUOUS
 62
     7
 10
814.7350853686
 20
833.0933435138
 30
0.0
 11
814.7350853686
 21
1094.8593748983
 31
0.0
  0
LINE
  5
1FC
  8
0
  6
CONTINUOUS
 62
     7
 10
905.7471460108
 20
1094.1074772056
 30
0.0
 11
846.7350906138
 21
1094.1074772056
 31
0.0
  0
LINE
  5
1FD
  8
0
  6
CONTINUOUS
 62
     7
 10
949.9985283617
 20
795.6112606701
 30
0.0
 11
846.7350906138
 21
795.6112606701
 31
0.0
  0
LINE
  5
1FE
  8
0
  6
CONTINUOUS
 62
     7
 10
846.7350906138
 20
795.6112606701
 30
0.0
 11
846.7350906138
 21
806.1533702787
 31
0.0
  0
LINE
  5
1FF
  8
0
  6
CONTINUOUS
 62
     7
 10
846.7350906138
 20
822.2521452483
 30
0.0
 11
846.7350906138
 21
1094.1074772056
 31
0.0
  0
LINE
  5
200
  8
0
  6
CONTINUOUS
 62
     7
 10
2334.7350662951
 20
1094.8593748983
 30
0.0
 11
2334.7350662951
 21
794.8593629774
 31
0.0
  0
LINE
  5
201
  8
0
  6
CONTINUOUS
 62
     7
 10
702.7350968127
 20
847.7826176461
 30
0.0
 11
702.7350968127
 21
1039.7385565814
 31
0.0
  0
LINE
  5
202
  8
0
  6
CONTINUOUS
 62
     7
 10
805.7350820307
 20
1039.7385565814
 30
0.0
 11
740.5126398806
 21
1039.7385565814
 31
0.0
  0
LINE
  5
203
  8
0
  6
CONTINUOUS
 62
     7
 10
724.4132465128
 20
1039.7385565814
 30
0.0
 11
702.7350968127
 21
1039.7385565814
 31
0.0
  0
LINE
  5
204
  8
0
  6
CONTINUOUS
 62
     7
 10
805.7350820307
 20
1039.7385565814
 30
0.0
 11
805.7350820307
 21
1091.3593752559
 31
0.0
  0
LINE
  5
205
  8
0
  6
CONTINUOUS
 62
     7
 10
805.7350820307
 20
1039.9800671514
 30
0.0
 11
740.4856389765
 21
1039.9800671514
 31
0.0
  0
LINE
  5
206
  8
0
  6
CONTINUOUS
 62
     7
 10
724.3862456087
 20
1039.9800671514
 30
0.0
 11
702.7350968127
 21
1039.9800671514
 31
0.0
  0
LINE
  5
207
  8
0
  6
CONTINUOUS
 62
     7
 10
2072.0892256502
 20
929.8593692731
 30
0.0
 11
2282.7350801234
 21
929.8593692731
 31
0.0
  0
LINE
  5
208
  8
0
  6
CONTINUOUS
 62
     7
 10
2072.0892256502
 20
959.8593686026
 30
0.0
 11
2282.7350801234
 21
959.8593686026
 31
0.0
  0
LINE
  5
209
  8
0
  6
CONTINUOUS
 62
     7
 10
1057.3809450869
 20
929.8593692731
 30
0.0
 11
846.7350906138
 21
929.8593692731
 31
0.0
  0
LINE
  5
20A
  8
0
  6
CONTINUOUS
 62
     7
 10
1044.0613335375
 20
959.8593686026
 30
0.0
 11
846.7350906138
 21
959.8593686026
 31
0.0
  0
LINE
  5
20B
  8
0
  6
CONTINUOUS
 62
     7
 10
702.7350968127
 20
1039.9800671514
 30
0.0
 11
702.7350968127
 21
1039.7385565814
 31
0.0
  0
LINE
  5
20C
  8
0
  6
CONTINUOUS
 62
     7
 10
702.7350968127
 20
833.0933435138
 30
0.0
 11
702.7350968127
 21
847.7826176461
 31
0.0
  0
LINE
  5
20D
  8
0
  6
CONTINUOUS
 62
     7
 10
2092.9284399752
 20
1031.0640691098
 30
0.0
 11
2282.7350801234
 21
1031.0640691098
 31
0.0
  0
LINE
  5
20E
  8
0
  6
CONTINUOUS
 62
     7
 10
1036.5417307619
 20
1031.0640691098
 30
0.0
 11
1025.3086394076
 21
1031.0640691098
 31
0.0
  0
LINE
  5
20F
  8
0
  6
CONTINUOUS
 62
     7
 10
991.5436810259
 20
1031.0640691098
 30
0.0
 11
846.7350906138
 21
1031.0640691098
 31
0.0
  0
LINE
  5
210
  8
0
  6
CONTINUOUS
 62
     7
 10
1036.5417307619
 20
858.6546687659
 30
0.0
 11
846.7350906138
 21
858.6546687659
 31
0.0
  0
LINE
  5
211
  8
0
  6
CONTINUOUS
 62
     7
 10
2092.9284399752
 20
858.6546687659
 30
0.0
 11
2282.7350801234
 21
858.6546687659
 31
0.0
  0
LINE
  5
212
  8
0
  6
CONTINUOUS
 62
     7
 10
702.7350968127
 20
754.767669576
 30
0.0
 11
702.7350968127
 21
776.1719061311
 31
0.0
  0
LINE
  5
213
  8
0
  6
CONTINUOUS
 62
     7
 10
702.7350968127
 20
749.7730834659
 30
0.0
 11
720.9850853686
 21
749.7730834659
 31
0.0
  0
LINE
  5
214
  8
0
  6
CONTINUOUS
 62
     7
 10
720.9850853686
 20
754.4235719617
 30
0.0
 11
720.9850853686
 21
749.7730834659
 31
0.0
  0
LINE
  5
215
  8
0
  6
CONTINUOUS
 62
     7
 10
702.7350968127
 20
749.7730834659
 30
0.0
 11
702.7350968127
 21
754.767669576
 31
0.0
  0
LINE
  5
216
  8
0
  6
CONTINUOUS
 62
     7
 10
693.7350934748
 20
944.7759950929
 30
0.0
 11
693.7350934748
 21
1021.8593685206
 31
0.0
  0
LINE
  5
217
  8
0
  6
CONTINUOUS
 62
     7
 10
693.7350934748
 20
867.8593693551
 30
0.0
 11
693.7350934748
 21
944.7759950929
 31
0.0
  0
LINE
  5
218
  8
0
  6
CONTINUOUS
 62
     7
 10
726.0343140368
 20
750.9980185207
 30
0.0
 11
720.9850853686
 21
750.7334037002
 31
0.0
  0
LINE
  5
219
  8
0
  6
CONTINUOUS
 62
     7
 10
1576.7362589393
 20
1168.0272056039
 30
0.0
 11
1576.7350854729
 21
1168.0272056039
 31
0.0
  0
LINE
  5
21A
  8
0
  6
CONTINUOUS
 62
     7
 10
1576.7350854729
 20
1168.0272056039
 30
0.0
 11
1552.7350852643
 21
1168.0272056039
 31
0.0
  0
LINE
  5
21B
  8
0
  6
CONTINUOUS
 62
     7
 10
1552.7350852643
 20
1168.0272056039
 30
0.0
 11
1552.7339117978
 21
1168.0272056039
 31
0.0
  0
LINE
  5
21C
  8
0
  6
CONTINUOUS
 62
     7
 10
1576.7350854729
 20
721.6915322717
 30
0.0
 11
1576.7362589393
 21
721.6915322717
 31
0.0
  0
LINE
  5
21D
  8
0
  6
CONTINUOUS
 62
     7
 10
1552.7339117978
 20
721.6915322717
 30
0.0
 11
1552.7350852643
 21
721.6915322717
 31
0.0
  0
LINE
  5
21E
  8
0
  6
CONTINUOUS
 62
     7
 10
1552.7350852643
 20
721.6915322717
 30
0.0
 11
1576.7350854729
 21
721.6915322717
 31
0.0
  0
LINE
  5
21F
  8
0
  6
CONTINUOUS
 62
     7
 10
1811.6740143303
 20
1214.8593796667
 30
0.0
 11
1811.6740143303
 21
1179.8593683418
 31
0.0
  0
LINE
  5
220
  8
0
  6
CONTINUOUS
 62
     7
 10
1317.7961564068
 20
1179.8593683418
 30
0.0
 11
1317.7961564068
 21
1214.8593796667
 31
0.0
  0
LINE
  5
221
  8
0
  6
CONTINUOUS
 62
     7
 10
1811.6740143303
 20
709.8593695339
 30
0.0
 11
1811.6740143303
 21
674.859358209
 31
0.0
  0
LINE
  5
222
  8
0
  6
CONTINUOUS
 62
     7
 10
1317.7961564068
 20
674.859358209
 30
0.0
 11
1317.7961564068
 21
709.8593695339
 31
0.0
  0
LINE
  5
223
  8
0
  6
CONTINUOUS
 62
     7
 10
1008.7350910906
 20
1216.8593837198
 30
0.0
 11
2120.7350796465
 21
1216.8593837198
 31
0.0
  0
LINE
  5
224
  8
0
  6
CONTINUOUS
 62
     7
 10
1008.7350910906
 20
672.8593541559
 30
0.0
 11
1055.8208531145
 21
672.8593541559
 31
0.0
  0
LINE
  5
225
  8
0
  6
CONTINUOUS
 62
     7
 10
1082.9260653261
 20
672.8593541559
 30
0.0
 11
2120.7350796465
 21
672.8593541559
 31
0.0
  0
ARC
  5
226
  8
0
  6
CONTINUOUS
 62
     7
 10
1658.9345462577
 20
1170.7304529233
 30
0.0
 40
70.7905458133704
 50
172.590691635
 51
182.3244042603
  0
LINE
  5
227
  8
0
  6
CONTINUOUS
 62
     7
 10
1588.2022461299
 20
1167.8593738254
 30
0.0
 11
2092.9284399752
 21
1167.8593738254
 31
0.0
  0
LINE
  5
228
  8
0
  6
CONTINUOUS
 62
     7
 10
1541.2679246072
 20
1167.8593738254
 30
0.0
 11
1552.7350852643
 21
1167.8593738254
 31
0.0
  0
ARC
  5
229
  8
0
  6
CONTINUOUS
 62
     7
 10
1476.0762102437
 20
1170.9764732571
 30
0.0
 40
65.26619286066916
 50
357.2625244384
 51
7.8223796663
  0
LINE
  5
22A
  8
0
  6
CONTINUOUS
 62
     7
 10
1576.7350854729
 20
1167.8593738254
 30
0.0
 11
1588.2022461299
 21
1167.8593738254
 31
0.0
  0
LINE
  5
22B
  8
0
  6
CONTINUOUS
 62
     7
 10
1036.5417307619
 20
1167.8593738254
 30
0.0
 11
1541.2679246072
 21
1167.8593738254
 31
0.0
  0
LINE
  5
22C
  8
0
  6
CONTINUOUS
 62
     7
 10
1541.2679246072
 20
721.8593640503
 30
0.0
 11
1541.2679246072
 21
1167.8593738254
 31
0.0
  0
LINE
  5
22D
  8
0
  6
CONTINUOUS
 62
     7
 10
1541.2679246072
 20
721.8593640503
 30
0.0
 11
1552.7350852643
 21
721.8593640503
 31
0.0
  0
LINE
  5
22E
  8
0
  6
CONTINUOUS
 62
     7
 10
1588.2022461299
 20
1167.8593738254
 30
0.0
 11
1588.2022461299
 21
721.8593640503
 31
0.0
  0
LINE
  5
22F
  8
0
  6
CONTINUOUS
 62
     7
 10
1576.7350854729
 20
721.8593640503
 30
0.0
 11
1588.2022461299
 21
721.8593640503
 31
0.0
  0
ARC
  5
230
  8
0
  6
CONTINUOUS
 62
     7
 10
1653.3939604935
 20
718.7422646186
 30
0.0
 40
65.26619286066918
 50
177.2625244384
 51
187.8223796663
  0
LINE
  5
231
  8
0
  6
CONTINUOUS
 62
     7
 10
1588.2022461299
 20
721.8593640503
 30
0.0
 11
2092.9284399752
 21
721.8593640503
 31
0.0
  0
ARC
  5
232
  8
0
  6
CONTINUOUS
 62
     7
 10
1470.5356244794
 20
718.9882849523
 30
0.0
 40
70.79054581337041
 50
352.590691635
 51
2.3244042603
  0
LINE
  5
233
  8
0
  6
CONTINUOUS
 62
     7
 10
1036.5417307619
 20
721.8593640503
 30
0.0
 11
1072.9444926981
 21
721.8593640503
 31
0.0
  0
LINE
  5
234
  8
0
  6
CONTINUOUS
 62
     7
 10
1098.7845069174
 20
721.8593640503
 30
0.0
 11
1541.2679246072
 21
721.8593640503
 31
0.0
  0
LINE
  5
235
  8
0
  6
CONTINUOUS
 62
     7
 10
1604.9191659693
 20
977.9118692752
 30
0.0
 11
1604.7299771015
 21
977.9118692752
 31
0.0
  0
LINE
  5
236
  8
0
  6
CONTINUOUS
 62
     7
 10
1604.9191659693
 20
953.9490269747
 30
0.0
 11
1604.7299771015
 21
953.9490269747
 31
0.0
  0
LINE
  5
237
  8
0
  6
CONTINUOUS
 62
     7
 10
1605.1201640074
 20
953.6487657826
 30
0.0
 11
1604.9300251905
 21
953.6487657826
 31
0.0
  0
LINE
  5
238
  8
0
  6
CONTINUOUS
 62
     7
 10
1605.1201640074
 20
936.069972093
 30
0.0
 11
1604.9300251905
 21
936.069972093
 31
0.0
  0
LINE
  5
239
  8
0
  6
CONTINUOUS
 62
     7
 10
1604.9191659693
 20
935.769710901
 30
0.0
 11
1604.7299771015
 21
935.769710901
 31
0.0
  0
LINE
  5
23A
  8
0
  6
CONTINUOUS
 62
     7
 10
1604.9191659693
 20
913.5618677612
 30
0.0
 11
1604.7299771015
 21
913.5618677612
 31
0.0
  0
LINE
  5
23B
  8
0
  6
CONTINUOUS
 62
     7
 10
1625.616551042
 20
945.1596297806
 30
0.0
 11
1625.3299160306
 21
945.1596297806
 31
0.0
  0
LINE
  5
23C
  8
0
  6
CONTINUOUS
 62
     7
 10
1625.616551042
 20
944.5591080951
 30
0.0
 11
1625.3299160306
 21
944.5591080951
 31
0.0
  0
LINE
  5
23D
  8
0
  6
CONTINUOUS
 62
     7
 10
1613.82803008
 20
977.9118692752
 30
0.0
 11
1613.5968944434
 21
977.9118692752
 31
0.0
  0
LINE
  5
23E
  8
0
  6
CONTINUOUS
 62
     7
 10
1613.82803008
 20
966.2268257018
 30
0.0
 11
1613.5968944434
 21
966.2268257018
 31
0.0
  0
LINE
  5
23F
  8
0
  6
CONTINUOUS
 62
     7
 10
1613.82803008
 20
971.7316424724
 30
0.0
 11
1613.5968944434
 21
971.7316424724
 31
0.0
  0
LINE
  5
240
  8
0
  6
CONTINUOUS
 62
     7
 10
1613.82803008
 20
959.8948305722
 30
0.0
 11
1613.5968944434
 21
959.8948305722
 31
0.0
  0
LINE
  5
241
  8
0
  6
CONTINUOUS
 62
     7
 10
1613.82803008
 20
913.5618677612
 30
0.0
 11
1613.5968944434
 21
913.5618677612
 31
0.0
  0
LINE
  5
242
  8
0
  6
CONTINUOUS
 62
     7
 10
1613.82803008
 20
929.8239073034
 30
0.0
 11
1613.5968944434
 21
929.8239073034
 31
0.0
  0
LINE
  5
243
  8
0
  6
CONTINUOUS
 62
     7
 10
1614.0287412707
 20
959.5945693802
 30
0.0
 11
1613.7966594104
 21
959.5945693802
 31
0.0
  0
LINE
  5
244
  8
0
  6
CONTINUOUS
 62
     7
 10
1614.0287412707
 20
930.1241684955
 30
0.0
 11
1613.7966594104
 21
930.1241684955
 31
0.0
  0
LINE
  5
245
  8
0
  6
CONTINUOUS
 62
     7
 10
1625.5589431528
 20
923.2164455827
 30
0.0
 11
1625.2725800876
 21
923.2164455827
 31
0.0
  0
LINE
  5
246
  8
0
  6
CONTINUOUS
 62
     7
 10
1625.5589431528
 20
927.3815622803
 30
0.0
 11
1625.2725800876
 21
927.3815622803
 31
0.0
  0
LINE
  5
247
  8
0
  6
CONTINUOUS
 62
     7
 10
1626.9285647575
 20
969.0346366044
 30
0.0
 11
1626.6357494895
 21
969.0346366044
 31
0.0
  0
LINE
  5
248
  8
0
  6
CONTINUOUS
 62
     7
 10
1635.5912393336
 20
974.571073639
 30
0.0
 11
1635.2576470379
 21
974.571073639
 31
0.0
  0
ARC
  5
249
  8
0
  6
CONTINUOUS
 62
     7
 10
758.7350397782
 20
804.6248968725
 30
0.0
 40
60.64070497122707
 50
13.7270637676
 51
88.8120310198
  0
ARC
  5
24A
  8
0
  6
CONTINUOUS
 62
     7
 10
758.7351411195
 20
804.6249208013
 30
0.0
 40
60.6406911830235
 50
103.9737590709
 51
179.009132411
  0
ARC
  5
24B
  8
0
  6
CONTINUOUS
 62
     7
 10
758.7350382354
 20
804.6249649958
 30
0.0
 40
60.64053677876939
 50
194.1709522184
 51
268.7625560825
  0
ARC
  5
24C
  8
0
  6
CONTINUOUS
 62
     7
 10
758.7350722944
 20
804.6250821825
 30
0.0
 40
60.6406524204191
 50
283.9241817615
 51
358.5651438756
  0
LINE
  5
24D
  8
0
  6
CONTINUOUS
 62
     7
 10
2314.7350853686
 20
794.8593629774
 30
0.0
 11
2314.7350853686
 21
1094.8593748983
 31
0.0
  0
LINE
  5
24E
  8
0
  6
CONTINUOUS
 62
     7
 10
702.7350968127
 20
847.7826176461
 30
0.0
 11
713.083238006
 21
847.7826176461
 31
0.0
  0
LINE
  5
24F
  8
0
  6
CONTINUOUS
 62
     7
 10
702.7350968127
 20
754.767669576
 30
0.0
 11
720.5317324404
 21
754.767669576
 31
0.0
  0
ARC
  5
250
  8
0
  6
CONTINUOUS
 62
     7
 10
2861.9502634375
 20
2826.6485691789
 30
0.0
 40
12.50000000000017
 50
89.9379614244
 51
269.9379614244
  0
ARC
  5
251
  8
0
  6
CONTINUOUS
 62
     7
 10
3536.9498677502
 20
2825.9176945713
 30
0.0
 40
12.50000000000017
 50
269.9379614244
 51
89.9379614244
  0
POLYLINE
  5
252
  8
0
  6
CONTINUOUS
 62
     7
 66
     1
 10
0.0
 20
0.0
 30
0.0
  0
VERTEX
  5
74A
  8
0
  6
CONTINUOUS
 62
     7
 10
2861.9367272432
 20
2814.1485573
 30
0.0
  0
VERTEX
  5
74B
  8
0
  6
CONTINUOUS
 62
     7
 10
2862.1137232359
 20
2814.1483784861
 30
0.0
  0
VERTEX
  5
74C
  8
0
  6
CONTINUOUS
 62
     7
 10
2862.6445174988
 20
2814.1477824396
 30
0.0
  0
VERTEX
  5
74D
  8
0
  6
CONTINUOUS
 62
     7
 10
2863.5285735901
 20
2814.1468287653
 30
0.0
  0
VERTEX
  5
74E
  8
0
  6
CONTINUOUS
 62
     7
 10
2864.7649378355
 20
2814.1455174631
 30
0.0
  0
VERTEX
  5
74F
  8
0
  6
CONTINUOUS
 62
     7
 10
2866.3523436363
 20
2814.1437889284
 30
0.0
  0
VERTEX
  5
750
  8
0
  6
CONTINUOUS
 62
     7
 10
2868.2890922602
 20
2814.1417027659
 30
0.0
  0
VERTEX
  5
751
  8
0
  6
CONTINUOUS
 62
     7
 10
2870.5731720503
 20
2814.1391993708
 30
0.0
  0
VERTEX
  5
752
  8
0
  6
CONTINUOUS
 62
     7
 10
2873.2021839197
 20
2814.1363979525
 30
0.0
  0
VERTEX
  5
753
  8
0
  6
CONTINUOUS
 62
     7
 10
2876.1733711536
 20
2814.1331793017
 30
0.0
  0
VERTEX
  5
754
  8
0
  6
CONTINUOUS
 62
     7
 10
2879.4836194094
 20
2814.129603023
 30
0.0
  0
VERTEX
  5
755
  8
0
  6
CONTINUOUS
 62
     7
 10
2883.1294567164
 20
2814.1256095118
 30
0.0
  0
VERTEX
  5
756
  8
0
  6
CONTINUOUS
 62
     7
 10
2887.1070534761
 20
2814.1213179774
 30
0.0
  0
VERTEX
  5
757
  8
0
  6
CONTINUOUS
 62
     7
 10
2891.4122373636
 20
2814.1166688151
 30
0.0
  0
VERTEX
  5
758
  8
0
  6
CONTINUOUS
 62
     7
 10
2896.040493327
 20
2814.1116620249
 30
0.0
  0
VERTEX
  5
759
  8
0
  6
CONTINUOUS
 62
     7
 10
2900.9869784887
 20
2814.1062976069
 30
0.0
  0
VERTEX
  5
75A
  8
0
  6
CONTINUOUS
 62
     7
 10
2906.2464923437
 20
2814.100575561
 30
0.0
  0
VERTEX
  5
75B
  8
0
  6
CONTINUOUS
 62
     7
 10
2911.8135214623
 20
2814.0945554919
 30
0.0
  0
VERTEX
  5
75C
  8
0
  6
CONTINUOUS
 62
     7
 10
2917.6822245892
 20
2814.0882373995
 30
0.0
  0
VERTEX
  5
75D
  8
0
  6
CONTINUOUS
 62
     7
 10
2923.846462446
 20
2814.0815616793
 30
0.0
  0
VERTEX
  5
75E
  8
0
  6
CONTINUOUS
 62
     7
 10
2930.2997381266
 20
2814.0745283312
 30
0.0
  0
VERTEX
  5
75F
  8
0
  6
CONTINUOUS
 62
     7
 10
2937.0353088553
 20
2814.0672565645
 30
0.0
  0
VERTEX
  5
760
  8
0
  6
CONTINUOUS
 62
     7
 10
2944.0461040314
 20
2814.0596867747
 30
0.0
  0
VERTEX
  5
761
  8
0
  6
CONTINUOUS
 62
     7
 10
2951.3247699316
 20
2814.0517593569
 30
0.0
  0
VERTEX
  5
762
  8
0
  6
CONTINUOUS
 62
     7
 10
2958.8636697109
 20
2814.0436531252
 30
0.0
  0
VERTEX
  5
763
  8
0
  6
CONTINUOUS
 62
     7
 10
2966.6548908527
 20
2814.0351892657
 30
0.0
  0
VERTEX
  5
764
  8
0
  6
CONTINUOUS
 62
     7
 10
2974.6902749713
 20
2814.0264869875
 30
0.0
  0
VERTEX
  5
765
  8
0
  6
CONTINUOUS
 62
     7
 10
2982.9613805588
 20
2814.0175462908
 30
0.0
  0
VERTEX
  5
766
  8
0
  6
CONTINUOUS
 62
     7
 10
2991.45954259
 20
2814.0083075709
 30
0.0
  0
VERTEX
  5
767
  8
0
  6
CONTINUOUS
 62
     7
 10
3000.1758464451
 20
2813.998890037
 30
0.0
  0
VERTEX
  5
768
  8
0
  6
CONTINUOUS
 62
     7
 10
3009.1011465366
 20
2813.9892340845
 30
0.0
  0
VERTEX
  5
769
  8
0
  6
CONTINUOUS
 62
     7
 10
3018.2260774847
 20
2813.9793397135
 30
0.0
  0
VERTEX
  5
76A
  8
0
  6
CONTINUOUS
 62
     7
 10
3027.541076469
 20
2813.9692665285
 30
0.0
  0
VERTEX
  5
76B
  8
0
  6
CONTINUOUS
 62
     7
 10
3037.0363701906
 20
2813.958954925
 30
0.0
  0
VERTEX
  5
76C
  8
0
  6
CONTINUOUS
 62
     7
 10
3046.7019981544
 20
2813.9485241122
 30
0.0
  0
VERTEX
  5
76D
  8
0
  6
CONTINUOUS
 62
     7
 10
3056.5278238456
 20
2813.9378548807
 30
0.0
  0
VERTEX
  5
76E
  8
0
  6
CONTINUOUS
 62
     7
 10
3066.5035412486
 20
2813.92706644
 30
0.0
  0
VERTEX
  5
76F
  8
0
  6
CONTINUOUS
 62
     7
 10
3076.6186860229
 20
2813.9160991854
 30
0.0
  0
VERTEX
  5
770
  8
0
  6
CONTINUOUS
 62
     7
 10
3086.8626513358
 20
2813.9050127215
 30
0.0
  0
VERTEX
  5
771
  8
0
  6
CONTINUOUS
 62
     7
 10
3097.2246915873
 20
2813.8938070482
 30
0.0
  0
VERTEX
  5
772
  8
0
  6
CONTINUOUS
 62
     7
 10
3107.6939345177
 20
2813.8824821657
 30
0.0
  0
VERTEX
  5
773
  8
0
  6
CONTINUOUS
 62
     7
 10
3118.2594054218
 20
2813.8710380739
 30
0.0
  0
VERTEX
  5
774
  8
0
  6
CONTINUOUS
 62
     7
 10
3128.910021561
 20
2813.8594747729
 30
0.0
  0
VERTEX
  5
775
  8
0
  6
CONTINUOUS
 62
     7
 10
3139.634603339
 20
2813.8479114718
 30
0.0
  0
VERTEX
  5
776
  8
0
  6
CONTINUOUS
 62
     7
 10
3150.4219190057
 20
2813.8362289614
 30
0.0
  0
VERTEX
  5
777
  8
0
  6
CONTINUOUS
 62
     7
 10
3161.2606362279
 20
2813.8244868464
 30
0.0
  0
VERTEX
  5
778
  8
0
  6
CONTINUOUS
 62
     7
 10
3172.1394003208
 20
2813.8126851267
 30
0.0
  0
VERTEX
  5
779
  8
0
  6
CONTINUOUS
 62
     7
 10
3183.0467895444
 20
2813.800883407
 30
0.0
  0
VERTEX
  5
77A
  8
0
  6
CONTINUOUS
 62
     7
 10
3193.971374708
 20
2813.7890816874
 30
0.0
  0
VERTEX
  5
77B
  8
0
  6
CONTINUOUS
 62
     7
 10
3204.9016893681
 20
2813.7772203631
 30
0.0
  0
VERTEX
  5
77C
  8
0
  6
CONTINUOUS
 62
     7
 10
3215.8262670811
 20
2813.7654186434
 30
0.0
  0
VERTEX
  5
77D
  8
0
  6
CONTINUOUS
 62
     7
 10
3226.7336637552
 20
2813.7535573191
 30
0.0
  0
VERTEX
  5
77E
  8
0
  6
CONTINUOUS
 62
     7
 10
3237.6124203976
 20
2813.7418152041
 30
0.0
  0
VERTEX
  5
77F
  8
0
  6
CONTINUOUS
 62
     7
 10
3248.4511376198
 20
2813.7300730891
 30
0.0
  0
VERTEX
  5
780
  8
0
  6
CONTINUOUS
 62
     7
 10
3259.238460737
 20
2813.7183905787
 30
0.0
  0
VERTEX
  5
781
  8
0
  6
CONTINUOUS
 62
     7
 10
3269.9630350645
 20
2813.7067676729
 30
0.0
  0
VERTEX
  5
782
  8
0
  6
CONTINUOUS
 62
     7
 10
3280.613654929
 20
2813.6952639765
 30
0.0
  0
VERTEX
  5
783
  8
0
  6
CONTINUOUS
 62
     7
 10
3291.1791295584
 20
2813.6838198847
 30
0.0
  0
VERTEX
  5
784
  8
0
  6
CONTINUOUS
 62
     7
 10
3301.6483724888
 20
2813.6724950022
 30
0.0
  0
VERTEX
  5
785
  8
0
  6
CONTINUOUS
 62
     7
 10
3312.0104164656
 20
2813.6612297243
 30
0.0
  0
VERTEX
  5
786
  8
0
  6
CONTINUOUS
 62
     7
 10
3322.2543687399
 20
2813.6501432604
 30
0.0
  0
VERTEX
  5
787
  8
0
  6
CONTINUOUS
 62
     7
 10
3332.3695153769
 20
2813.6391760058
 30
0.0
  0
VERTEX
  5
788
  8
0
  6
CONTINUOUS
 62
     7
 10
3342.3452467497
 20
2813.6283875651
 30
0.0
  0
VERTEX
  5
789
  8
0
  6
CONTINUOUS
 62
     7
 10
3352.1710724409
 20
2813.6177779383
 30
0.0
  0
VERTEX
  5
78A
  8
0
  6
CONTINUOUS
 62
     7
 10
3361.836680847
 20
2813.6072875208
 30
0.0
  0
VERTEX
  5
78B
  8
0
  6
CONTINUOUS
 62
     7
 10
3371.3319987829
 20
2813.5970355219
 30
0.0
  0
VERTEX
  5
78C
  8
0
  6
CONTINUOUS
 62
     7
 10
3380.6469828661
 20
2813.5869027323
 30
0.0
  0
VERTEX
  5
78D
  8
0
  6
CONTINUOUS
 62
     7
 10
3389.7719175394
 20
2813.5770679659
 30
0.0
  0
VERTEX
  5
78E
  8
0
  6
CONTINUOUS
 62
     7
 10
3398.697206455
 20
2813.5674120135
 30
0.0
  0
VERTEX
  5
78F
  8
0
  6
CONTINUOUS
 62
     7
 10
3407.4135214861
 20
2813.5579348749
 30
0.0
  0
VERTEX
  5
790
  8
0
  6
CONTINUOUS
 62
     7
 10
3415.9116835173
 20
2813.5487557596
 30
0.0
  0
VERTEX
  5
791
  8
0
  6
CONTINUOUS
 62
     7
 10
3424.1827816542
 20
2813.5398150629
 30
0.0
  0
VERTEX
  5
792
  8
0
  6
CONTINUOUS
 62
     7
 10
3432.2181732233
 20
2813.5311127848
 30
0.0
  0
VERTEX
  5
793
  8
0
  6
CONTINUOUS
 62
     7
 10
3440.0093943651
 20
2813.5226489252
 30
0.0
  0
VERTEX
  5
794
  8
0
  6
CONTINUOUS
 62
     7
 10
3447.5482792433
 20
2813.5144830889
 30
0.0
  0
VERTEX
  5
795
  8
0
  6
CONTINUOUS
 62
     7
 10
3454.8269600447
 20
2813.5066152758
 30
0.0
  0
VERTEX
  5
796
  8
0
  6
CONTINUOUS
 62
     7
 10
3461.8377477701
 20
2813.4990454859
 30
0.0
  0
VERTEX
  5
797
  8
0
  6
CONTINUOUS
 62
     7
 10
3468.5733110483
 20
2813.4917141146
 30
0.0
  0
VERTEX
  5
798
  8
0
  6
CONTINUOUS
 62
     7
 10
3475.0266165312
 20
2813.4847403712
 30
0.0
  0
VERTEX
  5
799
  8
0
  6
CONTINUOUS
 62
     7
 10
3481.1908394869
 20
2813.4780646509
 30
0.0
  0
VERTEX
  5
79A
  8
0
  6
CONTINUOUS
 62
     7
 10
3487.0595426138
 20
2813.4716869539
 30
0.0
  0
VERTEX
  5
79B
  8
0
  6
CONTINUOUS
 62
     7
 10
3492.6265568312
 20
2813.4656668848
 30
0.0
  0
VERTEX
  5
79C
  8
0
  6
CONTINUOUS
 62
     7
 10
3497.8860706862
 20
2813.4600044436
 30
0.0
  0
VERTEX
  5
79D
  8
0
  6
CONTINUOUS
 62
     7
 10
3502.8325707491
 20
2813.4546400255
 30
0.0
  0
VERTEX
  5
79E
  8
0
  6
CONTINUOUS
 62
     7
 10
3507.4608118113
 20
2813.4496332354
 30
0.0
  0
VERTEX
  5
79F
  8
0
  6
CONTINUOUS
 62
     7
 10
3511.7660255011
 20
2813.4449840731
 30
0.0
  0
VERTEX
  5
7A0
  8
0
  6
CONTINUOUS
 62
     7
 10
3515.7436222609
 20
2813.440632934
 30
0.0
  0
VERTEX
  5
7A1
  8
0
  6
CONTINUOUS
 62
     7
 10
3519.3894297655
 20
2813.4366990275
 30
0.0
  0
VERTEX
  5
7A2
  8
0
  6
CONTINUOUS
 62
     7
 10
3522.6996929224
 20
2813.4331227488
 30
0.0
  0
VERTEX
  5
7A3
  8
0
  6
CONTINUOUS
 62
     7
 10
3525.6708652552
 20
2813.429904098
 30
0.0
  0
VERTEX
  5
7A4
  8
0
  6
CONTINUOUS
 62
     7
 10
3528.2998771246
 20
2813.427043075
 30
0.0
  0
VERTEX
  5
7A5
  8
0
  6
CONTINUOUS
 62
     7
 10
3530.5839569147
 20
2813.4245992846
 30
0.0
  0
VERTEX
  5
7A6
  8
0
  6
CONTINUOUS
 62
     7
 10
3532.5207204397
 20
2813.4224535174
 30
0.0
  0
VERTEX
  5
7A7
  8
0
  6
CONTINUOUS
 62
     7
 10
3534.1081113394
 20
2813.4207845873
 30
0.0
  0
VERTEX
  5
7A8
  8
0
  6
CONTINUOUS
 62
     7
 10
3535.344490486
 20
2813.4194136805
 30
0.0
  0
VERTEX
  5
7A9
  8
0
  6
CONTINUOUS
 62
     7
 10
3536.2285465773
 20
2813.4184600062
 30
0.0
  0
VERTEX
  5
7AA
  8
0
  6
CONTINUOUS
 62
     7
 10
3536.759325939
 20
2813.4178639597
 30
0.0
  0
VERTEX
  5
7AB
  8
0
  6
CONTINUOUS
 62
     7
 10
3536.9363219317
 20
2813.4176851458
 30
0.0
  0
SEQEND
  5
9B1
  8
0
  6
CONTINUOUS
 62
     7
  0
POLYLINE
  5
253
  8
0
  6
CONTINUOUS
 62
     7
 66
     1
 10
0.0
 20
0.0
 30
0.0
  0
VERTEX
  5
7AC
  8
0
  6
CONTINUOUS
 62
     7
 10
3536.9634122427
 20
2838.4176613039
 30
0.0
  0
VERTEX
  5
7AD
  8
0
  6
CONTINUOUS
 62
     7
 10
3536.78641625
 20
2838.4178997225
 30
0.0
  0
VERTEX
  5
7AE
  8
0
  6
CONTINUOUS
 62
     7
 10
3536.255607086
 20
2838.4184361643
 30
0.0
  0
VERTEX
  5
7AF
  8
0
  6
CONTINUOUS
 62
     7
 10
3535.3715509947
 20
2838.4193898386
 30
0.0
  0
VERTEX
  5
7B0
  8
0
  6
CONTINUOUS
 62
     7
 10
3534.1352016504
 20
2838.4207607455
 30
0.0
  0
VERTEX
  5
7B1
  8
0
  6
CONTINUOUS
 62
     7
 10
3532.5477809485
 20
2838.4224892802
 30
0.0
  0
VERTEX
  5
7B2
  8
0
  6
CONTINUOUS
 62
     7
 10
3530.6110472258
 20
2838.4245754427
 30
0.0
  0
VERTEX
  5
7B3
  8
0
  6
CONTINUOUS
 62
     7
 10
3528.3269674357
 20
2838.4270192332
 30
0.0
  0
VERTEX
  5
7B4
  8
0
  6
CONTINUOUS
 62
     7
 10
3525.6979555662
 20
2838.4298802561
 30
0.0
  0
VERTEX
  5
7B5
  8
0
  6
CONTINUOUS
 62
     7
 10
3522.7267534311
 20
2838.4330989069
 30
0.0
  0
VERTEX
  5
7B6
  8
0
  6
CONTINUOUS
 62
     7
 10
3519.4165200766
 20
2838.4366751856
 30
0.0
  0
VERTEX
  5
7B7
  8
0
  6
CONTINUOUS
 62
     7
 10
3515.7706827696
 20
2838.4406090922
 30
0.0
  0
VERTEX
  5
7B8
  8
0
  6
CONTINUOUS
 62
     7
 10
3511.7930860098
 20
2838.4449602312
 30
0.0
  0
VERTEX
  5
7B9
  8
0
  6
CONTINUOUS
 62
     7
 10
3507.4879021223
 20
2838.4496093935
 30
0.0
  0
VERTEX
  5
7BA
  8
0
  6
CONTINUOUS
 62
     7
 10
3502.8596312578
 20
2838.4546161837
 30
0.0
  0
VERTEX
  5
7BB
  8
0
  6
CONTINUOUS
 62
     7
 10
3497.9131609972
 20
2838.4599806017
 30
0.0
  0
VERTEX
  5
7BC
  8
0
  6
CONTINUOUS
 62
     7
 10
3492.6536471422
 20
2838.465643043
 30
0.0
  0
VERTEX
  5
7BD
  8
0
  6
CONTINUOUS
 62
     7
 10
3487.0866031225
 20
2838.4716631121
 30
0.0
  0
VERTEX
  5
7BE
  8
0
  6
CONTINUOUS
 62
     7
 10
3481.2178999956
 20
2838.4780408091
 30
0.0
  0
VERTEX
  5
7BF
  8
0
  6
CONTINUOUS
 62
     7
 10
3475.0536770399
 20
2838.4847165293
 30
0.0
  0
VERTEX
  5
7C0
  8
0
  6
CONTINUOUS
 62
     7
 10
3468.6004013594
 20
2838.4916902727
 30
0.0
  0
VERTEX
  5
7C1
  8
0
  6
CONTINUOUS
 62
     7
 10
3461.8648082789
 20
2838.499021644
 30
0.0
  0
VERTEX
  5
7C2
  8
0
  6
CONTINUOUS
 62
     7
 10
3454.8540205534
 20
2838.5065914339
 30
0.0
  0
VERTEX
  5
7C3
  8
0
  6
CONTINUOUS
 62
     7
 10
3447.5753695543
 20
2838.514459247
 30
0.0
  0
VERTEX
  5
7C4
  8
0
  6
CONTINUOUS
 62
     7
 10
3440.0364548739
 20
2838.5226250834
 30
0.0
  0
VERTEX
  5
7C5
  8
0
  6
CONTINUOUS
 62
     7
 10
3432.245233732
 20
2838.5310889429
 30
0.0
  0
VERTEX
  5
7C6
  8
0
  6
CONTINUOUS
 62
     7
 10
3424.2098421629
 20
2838.5397912211
 30
0.0
  0
VERTEX
  5
7C7
  8
0
  6
CONTINUOUS
 62
     7
 10
3415.938744026
 20
2838.5487319178
 30
0.0
  0
VERTEX
  5
7C8
  8
0
  6
CONTINUOUS
 62
     7
 10
3407.4405819948
 20
2838.5579110331
 30
0.0
  0
VERTEX
  5
7C9
  8
0
  6
CONTINUOUS
 62
     7
 10
3398.7242967661
 20
2838.5673881716
 30
0.0
  0
VERTEX
  5
7CA
  8
0
  6
CONTINUOUS
 62
     7
 10
3389.7989780481
 20
2838.5770441241
 30
0.0
  0
VERTEX
  5
7CB
  8
0
  6
CONTINUOUS
 62
     7
 10
3380.6740433748
 20
2838.5869384951
 30
0.0
  0
VERTEX
  5
7CC
  8
0
  6
CONTINUOUS
 62
     7
 10
3371.3590592917
 20
2838.5970116801
 30
0.0
  0
VERTEX
  5
7CD
  8
0
  6
CONTINUOUS
 62
     7
 10
3361.863771158
 20
2838.607263679
 30
0.0
  0
VERTEX
  5
7CE
  8
0
  6
CONTINUOUS
 62
     7
 10
3352.1981329496
 20
2838.6177540964
 30
0.0
  0
VERTEX
  5
7CF
  8
0
  6
CONTINUOUS
 62
     7
 10
3342.3723072584
 20
2838.6283637232
 30
0.0
  0
VERTEX
  5
7D0
  8
0
  6
CONTINUOUS
 62
     7
 10
3332.3965758856
 20
2838.6392117686
 30
0.0
  0
VERTEX
  5
7D1
  8
0
  6
CONTINUOUS
 62
     7
 10
3322.2814590509
 20
2838.6501194185
 30
0.0
  0
VERTEX
  5
7D2
  8
0
  6
CONTINUOUS
 62
     7
 10
3312.0374769743
 20
2838.6612058825
 30
0.0
  0
VERTEX
  5
7D3
  8
0
  6
CONTINUOUS
 62
     7
 10
3301.6754478987
 20
2838.6724711603
 30
0.0
  0
VERTEX
  5
7D4
  8
0
  6
CONTINUOUS
 62
     7
 10
3291.2061900671
 20
2838.6837960428
 30
0.0
  0
VERTEX
  5
7D5
  8
0
  6
CONTINUOUS
 62
     7
 10
3280.6407303389
 20
2838.6952401346
 30
0.0
  0
VERTEX
  5
7D6
  8
0
  6
CONTINUOUS
 62
     7
 10
3269.9901104744
 20
2838.7067438311
 30
0.0
  0
VERTEX
  5
7D7
  8
0
  6
CONTINUOUS
 62
     7
 10
3259.2655212458
 20
2838.7183667368
 30
0.0
  0
VERTEX
  5
7D8
  8
0
  6
CONTINUOUS
 62
     7
 10
3248.4782130297
 20
2838.7300492472
 30
0.0
  0
VERTEX
  5
7D9
  8
0
  6
CONTINUOUS
 62
     7
 10
3237.6394958075
 20
2838.7417913622
 30
0.0
  0
VERTEX
  5
7DA
  8
0
  6
CONTINUOUS
 62
     7
 10
3226.7607391651
 20
2838.7535930819
 30
0.0
  0
VERTEX
  5
7DB
  8
0
  6
CONTINUOUS
 62
     7
 10
3215.853342491
 20
2838.7653948015
 30
0.0
  0
VERTEX
  5
7DC
  8
0
  6
CONTINUOUS
 62
     7
 10
3204.928764778
 20
2838.7771965212
 30
0.0
  0
VERTEX
  5
7DD
  8
0
  6
CONTINUOUS
 62
     7
 10
3193.9984501179
 20
2838.7890578455
 30
0.0
  0
VERTEX
  5
7DE
  8
0
  6
CONTINUOUS
 62
     7
 10
3183.0738575037
 20
2838.8008595652
 30
0.0
  0
VERTEX
  5
7DF
  8
0
  6
CONTINUOUS
 62
     7
 10
3172.1664682801
 20
2838.8126612849
 30
0.0
  0
VERTEX
  5
7E0
  8
0
  6
CONTINUOUS
 62
     7
 10
3161.2877041872
 20
2838.8244630045
 30
0.0
  0
VERTEX
  5
7E1
  8
0
  6
CONTINUOUS
 62
     7
 10
3150.448986965
 20
2838.8362051195
 30
0.0
  0
VERTEX
  5
7E2
  8
0
  6
CONTINUOUS
 62
     7
 10
3139.6616787489
 20
2838.8478876299
 30
0.0
  0
VERTEX
  5
7E3
  8
0
  6
CONTINUOUS
 62
     7
 10
3128.9370895203
 20
2838.8595105356
 30
0.0
  0
VERTEX
  5
7E4
  8
0
  6
CONTINUOUS
 62
     7
 10
3118.2864733811
 20
2838.8710142321
 30
0.0
  0
VERTEX
  5
7E5
  8
0
  6
CONTINUOUS
 62
     7
 10
3107.7210062023
 20
2838.8824583239
 30
0.0
  0
VERTEX
  5
7E6
  8
0
  6
CONTINUOUS
 62
     7
 10
3097.2517595466
 20
2838.8937832064
 30
0.0
  0
VERTEX
  5
7E7
  8
0
  6
CONTINUOUS
 62
     7
 10
3086.8897211577
 20
2838.9049888796
 30
0.0
  0
VERTEX
  5
7E8
  8
0
  6
CONTINUOUS
 62
     7
 10
3076.6457558449
 20
2838.9161349482
 30
0.0
  0
VERTEX
  5
7E9
  8
0
  6
CONTINUOUS
 62
     7
 10
3066.5306106049
 20
2838.9270425982
 30
0.0
  0
VERTEX
  5
7EA
  8
0
  6
CONTINUOUS
 62
     7
 10
3056.5548932019
 20
2838.9378906435
 30
0.0
  0
VERTEX
  5
7EB
  8
0
  6
CONTINUOUS
 62
     7
 10
3046.7290679763
 20
2838.9485002703
 30
0.0
  0
VERTEX
  5
7EC
  8
0
  6
CONTINUOUS
 62
     7
 10
3037.0634400125
 20
2838.9589906878
 30
0.0
  0
VERTEX
  5
7ED
  8
0
  6
CONTINUOUS
 62
     7
 10
3027.5681444283
 20
2838.9692426867
 30
0.0
  0
VERTEX
  5
7EE
  8
0
  6
CONTINUOUS
 62
     7
 10
3018.2531491693
 20
2838.9793158716
 30
0.0
  0
VERTEX
  5
7EF
  8
0
  6
CONTINUOUS
 62
     7
 10
3009.128214496
 20
2838.9892102427
 30
0.0
  0
VERTEX
  5
7F0
  8
0
  6
CONTINUOUS
 62
     7
 10
3000.2029144044
 20
2838.9988661951
 30
0.0
  0
VERTEX
  5
7F1
  8
0
  6
CONTINUOUS
 62
     7
 10
2991.4866179998
 20
2839.0083433336
 30
0.0
  0
VERTEX
  5
7F2
  8
0
  6
CONTINUOUS
 62
     7
 10
2982.9884559687
 20
2839.0175224489
 30
0.0
  0
VERTEX
  5
7F3
  8
0
  6
CONTINUOUS
 62
     7
 10
2974.7173429306
 20
2839.0264631457
 30
0.0
  0
VERTEX
  5
7F4
  8
0
  6
CONTINUOUS
 62
     7
 10
2966.6819588121
 20
2839.0351654238
 30
0.0
  0
VERTEX
  5
7F5
  8
0
  6
CONTINUOUS
 62
     7
 10
2958.8907376702
 20
2839.0436292834
 30
0.0
  0
VERTEX
  5
7F6
  8
0
  6
CONTINUOUS
 62
     7
 10
2951.3518378909
 20
2839.0517951197
 30
0.0
  0
VERTEX
  5
7F7
  8
0
  6
CONTINUOUS
 62
     7
 10
2944.0731719907
 20
2839.0596629328
 30
0.0
  0
VERTEX
  5
7F8
  8
0
  6
CONTINUOUS
 62
     7
 10
2937.0623842652
 20
2839.0672327227
 30
0.0
  0
VERTEX
  5
7F9
  8
0
  6
CONTINUOUS
 62
     7
 10
2930.3268135365
 20
2839.074564094
 30
0.0
  0
VERTEX
  5
7FA
  8
0
  6
CONTINUOUS
 62
     7
 10
2923.8735229548
 20
2839.0815378374
 30
0.0
  0
VERTEX
  5
7FB
  8
0
  6
CONTINUOUS
 62
     7
 10
2917.7092999991
 20
2839.0882135576
 30
0.0
  0
VERTEX
  5
7FC
  8
0
  6
CONTINUOUS
 62
     7
 10
2911.8405968721
 20
2839.09453165
 30
0.0
  0
VERTEX
  5
7FD
  8
0
  6
CONTINUOUS
 62
     7
 10
2906.2735677536
 20
2839.1006113238
 30
0.0
  0
VERTEX
  5
7FE
  8
0
  6
CONTINUOUS
 62
     7
 10
2901.0140538986
 20
2839.106273765
 30
0.0
  0
VERTEX
  5
7FF
  8
0
  6
CONTINUOUS
 62
     7
 10
2896.0675687368
 20
2839.111638183
 30
0.0
  0
VERTEX
  5
800
  8
0
  6
CONTINUOUS
 62
     7
 10
2891.4392978724
 20
2839.1166449732
 30
0.0
  0
VERTEX
  5
801
  8
0
  6
CONTINUOUS
 62
     7
 10
2887.1341139849
 20
2839.1212941355
 30
0.0
  0
VERTEX
  5
802
  8
0
  6
CONTINUOUS
 62
     7
 10
2883.1565172251
 20
2839.1255856699
 30
0.0
  0
VERTEX
  5
803
  8
0
  6
CONTINUOUS
 62
     7
 10
2879.5106948193
 20
2839.1295791811
 30
0.0
  0
VERTEX
  5
804
  8
0
  6
CONTINUOUS
 62
     7
 10
2876.2004465635
 20
2839.1331554598
 30
0.0
  0
VERTEX
  5
805
  8
0
  6
CONTINUOUS
 62
     7
 10
2873.2292593296
 20
2839.1363741106
 30
0.0
  0
VERTEX
  5
806
  8
0
  6
CONTINUOUS
 62
     7
 10
2870.6002474602
 20
2839.1392351336
 30
0.0
  0
VERTEX
  5
807
  8
0
  6
CONTINUOUS
 62
     7
 10
2868.3161527689
 20
2839.141678924
 30
0.0
  0
VERTEX
  5
808
  8
0
  6
CONTINUOUS
 62
     7
 10
2866.3794041451
 20
2839.1437650866
 30
0.0
  0
VERTEX
  5
809
  8
0
  6
CONTINUOUS
 62
     7
 10
2864.7920132454
 20
2839.1454936213
 30
0.0
  0
VERTEX
  5
80A
  8
0
  6
CONTINUOUS
 62
     7
 10
2863.555649
 20
2839.1468645281
 30
0.0
  0
VERTEX
  5
80B
  8
0
  6
CONTINUOUS
 62
     7
 10
2862.6715929087
 20
2839.1478182024
 30
0.0
  0
VERTEX
  5
80C
  8
0
  6
CONTINUOUS
 62
     7
 10
2862.1407986458
 20
2839.1483546442
 30
0.0
  0
VERTEX
  5
80D
  8
0
  6
CONTINUOUS
 62
     7
 10
2861.9638026531
 20
2839.1485334582
 30
0.0
  0
SEQEND
  5
9B0
  8
0
  6
CONTINUOUS
 62
     7
  0
LINE
  5
254
  8
0
  6
CONTINUOUS
 62
     7
 10
3211.6734028633
 20
2737.5291408247
 30
0.0
 11
3240.4381126936
 21
2813.7387157625
 31
0.0
  0
LINE
  5
255
  8
0
  6
CONTINUOUS
 62
     7
 10
3223.3433366592
 20
2813.7572528071
 30
0.0
 11
3196.8874127443
 21
2743.664574737
 31
0.0
  0
LINE
  5
256
  8
0
  6
CONTINUOUS
 62
     7
 10
3136.3030836757
 20
2521.8390346712
 30
0.0
 11
3138.1706238564
 21
2466.6462362952
 31
0.0
  0
LINE
  5
257
  8
0
  6
CONTINUOUS
 62
     7
 10
3259.9505574282
 20
2466.5143759197
 30
0.0
 11
3261.9376123722
 21
2521.7030019707
 31
0.0
  0
LINE
  5
258
  8
0
  6
CONTINUOUS
 62
     7
 10
3261.9376123722
 20
2521.7030019707
 30
0.0
 11
3261.7652208384
 21
2526.7976344771
 31
0.0
  0
LINE
  5
259
  8
0
  6
CONTINUOUS
 62
     7
 10
3136.4865020688
 20
2526.9332946486
 30
0.0
 11
3136.3030836757
 21
2521.8390346712
 31
0.0
  0
ARC
  5
25A
  8
0
  6
CONTINUOUS
 62
     7
 10
3138.4852035992
 20
2526.8613259718
 30
0.0
 40
1.999999999999962
 50
89.9379614244
 51
177.9379614244
  0
ARC
  5
25B
  8
0
  6
CONTINUOUS
 62
     7
 10
3259.7663708102
 20
2526.7300054126
 30
0.0
 40
2.000000000000132
 50
1.9379614244
 51
89.9379614244
  0
ARC
  5
25C
  8
0
  6
CONTINUOUS
 62
     7
 10
3147.6079188062
 20
2463.3390526104
 30
0.0
 40
10.00000000000005
 50
160.687630731
 51
269.9379614244
  0
ARC
  5
25D
  8
0
  6
CONTINUOUS
 62
     7
 10
3250.5061161368
 20
2463.2276367235
 30
0.0
 40
10.00000000000015
 50
269.9379614244
 51
19.1882921177
  0
LINE
  5
25E
  8
0
  6
CONTINUOUS
 62
     7
 10
3246.0279256876
 20
2528.7448884196
 30
0.0
 11
3224.857428747
 21
2537.5278116411
 31
0.0
  0
LINE
  5
25F
  8
0
  6
CONTINUOUS
 62
     7
 10
3173.4174505647
 20
2537.5835121817
 30
0.0
 11
3152.2279769953
 21
2528.8464398331
 31
0.0
  0
LINE
  5
260
  8
0
  6
CONTINUOUS
 62
     7
 10
3244.3642855461
 20
2747.0402837939
 30
0.0
 11
3244.37370308
 21
2755.7344556994
 31
0.0
  0
LINE
  5
261
  8
0
  6
CONTINUOUS
 62
     7
 10
3244.294294792
 20
2682.3944867796
 30
0.0
 11
3244.3504572685
 21
2734.2662633604
 31
0.0
  0
LINE
  5
262
  8
0
  6
CONTINUOUS
 62
     7
 10
3154.3485686954
 20
2732.5696767515
 30
0.0
 11
3154.2943433698
 21
2682.4919403738
 31
0.0
  0
LINE
  5
263
  8
0
  6
CONTINUOUS
 62
     7
 10
3154.3737591084
 20
2755.8319092936
 30
0.0
 11
3154.3666363533
 21
2749.2588878817
 31
0.0
  0
LINE
  5
264
  8
0
  6
CONTINUOUS
 62
     7
 10
3154.6887845572
 20
2749.1629244036
 30
0.0
 11
2936.7684514101
 21
2814.0675545878
 31
0.0
  0
LINE
  5
265
  8
0
  6
CONTINUOUS
 62
     7
 10
2880.5110991772
 20
2814.1284705347
 30
0.0
 11
3154.5870170768
 21
2732.4986578173
 31
0.0
  0
LINE
  5
266
  8
0
  6
CONTINUOUS
 62
     7
 10
3173.4406069692
 20
2558.9674980587
 30
0.0
 11
3173.4174505647
 21
2537.5835121817
 31
0.0
  0
LINE
  5
267
  8
0
  6
CONTINUOUS
 62
     7
 10
3224.857428747
 20
2537.5278116411
 30
0.0
 11
3224.8805702503
 21
2558.9117975182
 31
0.0
  0
ARC
  5
268
  8
0
  6
CONTINUOUS
 62
     7
 10
3175.1427716271
 20
2560.9656514186
 30
0.0
 40
1.999999999999919
 50
269.9379614244
 51
359.9379614244
  0
ARC
  5
269
  8
0
  6
CONTINUOUS
 62
     7
 10
3223.1827434659
 20
2560.9136348021
 30
0.0
 40
2.000000000000373
 50
179.9379614244
 51
269.9379614244
  0
LINE
  5
26A
  8
0
  6
CONTINUOUS
 62
     7
 10
3209.1627509172
 20
2560.9288037962
 30
0.0
 11
3209.2943132694
 21
2682.4323953337
 31
0.0
  0
LINE
  5
26B
  8
0
  6
CONTINUOUS
 62
     7
 10
3189.2943174418
 20
2682.4540318197
 30
0.0
 11
3189.1627699907
 21
2560.9504700846
 31
0.0
  0
LINE
  5
26C
  8
0
  6
CONTINUOUS
 62
     7
 10
3244.3485201176
 20
2732.4722231573
 30
0.0
 11
3518.3619648989
 21
2813.4378315157
 31
0.0
  0
LINE
  5
26D
  8
0
  6
CONTINUOUS
 62
     7
 10
3462.1046275671
 20
2813.4987474627
 30
0.0
 11
3244.3665803249
 21
2749.1614342875
 31
0.0
  0
LINE
  5
26E
  8
0
  6
CONTINUOUS
 62
     7
 10
3197.2868383701
 20
2755.785447473
 30
0.0
 11
3175.5297348674
 21
2813.8090492434
 31
0.0
  0
LINE
  5
26F
  8
0
  6
CONTINUOUS
 62
     7
 10
3158.4349513825
 20
2813.8275266833
 30
0.0
 11
3180.1920548852
 21
2755.8039547152
 31
0.0
  0
ARC
  5
270
  8
0
  6
CONTINUOUS
 62
     7
 10
2786.8936001833
 20
1751.4350219912
 30
0.0
 40
2.000000000000227
 50
0.0
 51
90.0
  0
ARC
  5
271
  8
0
  6
CONTINUOUS
 62
     7
 10
2786.8936001833
 20
2867.4350219912
 30
0.0
 40
2.0
 50
270.0
 51
0.0
  0
ARC
  5
272
  8
0
  6
CONTINUOUS
 62
     7
 10
3330.8936001833
 20
2867.4350219912
 30
0.0
 40
2.0
 50
180.0
 51
270.0
  0
ARC
  5
273
  8
0
  6
CONTINUOUS
 62
     7
 10
3330.8936001833
 20
1751.4350219912
 30
0.0
 40
2.000000000000227
 50
90.0
 51
180.0
  0
LINE
  5
274
  8
0
  6
CONTINUOUS
 62
     7
 10
2783.8935942228
 20
1753.4350277132
 30
0.0
 11
2786.8935854013
 21
1753.4350277132
 31
0.0
  0
LINE
  5
275
  8
0
  6
CONTINUOUS
 62
     7
 10
2786.8935854013
 20
2865.4350162691
 30
0.0
 11
2783.8935942228
 21
2865.4350162691
 31
0.0
  0
LINE
  5
276
  8
0
  6
CONTINUOUS
 62
     7
 10
3333.8936061438
 20
2865.4350162691
 30
0.0
 11
3330.8936149653
 21
2865.4350162691
 31
0.0
  0
LINE
  5
277
  8
0
  6
CONTINUOUS
 62
     7
 10
3330.8936149653
 20
1753.4350277132
 30
0.0
 11
3333.8936061438
 21
1753.4350277132
 31
0.0
  0
ARC
  5
278
  8
0
  6
CONTINUOUS
 62
     7
 10
3204.2168603341
 20
2740.4005545503
 30
0.0
 40
7.933667965755869
 50
156.0115214154
 51
338.8843104402
  0
CIRCLE
  5
279
  8
0
  6
CONTINUOUS
 62
     7
 10
3058.8936001833
 20
2312.4350219912
 30
0.0
 40
77.00000000000003
  0
POLYLINE
  5
27A
  8
0
  6
CONTINUOUS
 62
     7
 66
     1
 10
0.0
 20
0.0
 30
0.0
  0
VERTEX
  5
80E
  8
0
  6
CONTINUOUS
 62
     7
 10
3136.3030836757
 20
2521.8390346712
 30
0.0
  0
VERTEX
  5
80F
  8
0
  6
CONTINUOUS
 62
     7
 10
3136.4787311132
 20
2521.8388409561
 30
0.0
  0
VERTEX
  5
810
  8
0
  6
CONTINUOUS
 62
     7
 10
3137.0046973999
 20
2521.838274712
 30
0.0
  0
VERTEX
  5
811
  8
0
  6
CONTINUOUS
 62
     7
 10
3137.8780395563
 20
2521.8373210377
 30
0.0
  0
VERTEX
  5
812
  8
0
  6
CONTINUOUS
 62
     7
 10
3139.0938774522
 20
2521.8360097355
 30
0.0
  0
VERTEX
  5
813
  8
0
  6
CONTINUOUS
 62
     7
 10
3140.6454012569
 20
2521.8343259043
 30
0.0
  0
VERTEX
  5
814
  8
0
  6
CONTINUOUS
 62
     7
 10
3142.5239459451
 20
2521.8322993464
 30
0.0
  0
VERTEX
  5
815
  8
0
  6
CONTINUOUS
 62
     7
 10
3144.7189987476
 20
2521.8299151606
 30
0.0
  0
VERTEX
  5
816
  8
0
  6
CONTINUOUS
 62
     7
 10
3147.2182885583
 20
2521.8272031492
 30
0.0
  0
VERTEX
  5
817
  8
0
  6
CONTINUOUS
 62
     7
 10
3150.0078306373
 20
2521.8241931147
 30
0.0
  0
VERTEX
  5
818
  8
0
  6
CONTINUOUS
 62
     7
 10
3153.0720309194
 20
2521.8208701557
 30
0.0
  0
VERTEX
  5
819
  8
0
  6
CONTINUOUS
 62
     7
 10
3156.3937530692
 20
2521.8172789759
 30
0.0
  0
VERTEX
  5
81A
  8
0
  6
CONTINUOUS
 62
     7
 10
3159.9544227894
 20
2521.8134195751
 30
0.0
  0
VERTEX
  5
81B
  8
0
  6
CONTINUOUS
 62
     7
 10
3163.7341172274
 20
2521.8093217558
 30
0.0
  0
VERTEX
  5
81C
  8
0
  6
CONTINUOUS
 62
     7
 10
3167.7117139872
 20
2521.8050153202
 30
0.0
  0
VERTEX
  5
81D
  8
0
  6
CONTINUOUS
 62
     7
 10
3171.8649581845
 20
2521.8005300707
 30
0.0
  0
VERTEX
  5
81E
  8
0
  6
CONTINUOUS
 62
     7
 10
3176.1706189092
 20
2521.7958660073
 30
0.0
  0
VERTEX
  5
81F
  8
0
  6
CONTINUOUS
 62
     7
 10
3180.6046307858
 20
2521.7910529322
 30
0.0
  0
VERTEX
  5
820
  8
0
  6
CONTINUOUS
 62
     7
 10
3185.1421833809
 20
2521.7861504502
 30
0.0
  0
VERTEX
  5
821
  8
0
  6
CONTINUOUS
 62
     7
 10
3189.7579223688
 20
2521.78114366
 30
0.0
  0
VERTEX
  5
822
  8
0
  6
CONTINUOUS
 62
     7
 10
3194.426009136
 20
2521.7760921664
 30
0.0
  0
VERTEX
  5
823
  8
0
  6
CONTINUOUS
 62
     7
 10
3199.1203517492
 20
2521.7710108704
 30
0.0
  0
VERTEX
  5
824
  8
0
  6
CONTINUOUS
 62
     7
 10
3203.8146794613
 20
2521.7659295744
 30
0.0
  0
VERTEX
  5
825
  8
0
  6
CONTINUOUS
 62
     7
 10
3208.4827811297
 20
2521.7608780808
 30
0.0
  0
VERTEX
  5
826
  8
0
  6
CONTINUOUS
 62
     7
 10
3213.0985052164
 20
2521.7558712906
 30
0.0
  0
VERTEX
  5
827
  8
0
  6
CONTINUOUS
 62
     7
 10
3217.6360578116
 20
2521.7509688086
 30
0.0
  0
VERTEX
  5
828
  8
0
  6
CONTINUOUS
 62
     7
 10
3222.0700771387
 20
2521.7461557335
 30
0.0
  0
VERTEX
  5
829
  8
0
  6
CONTINUOUS
 62
     7
 10
3226.3757378634
 20
2521.7415065712
 30
0.0
  0
VERTEX
  5
82A
  8
0
  6
CONTINUOUS
 62
     7
 10
3230.5289746101
 20
2521.7370064205
 30
0.0
  0
VERTEX
  5
82B
  8
0
  6
CONTINUOUS
 62
     7
 10
3234.5065713699
 20
2521.732699985
 30
0.0
  0
VERTEX
  5
82C
  8
0
  6
CONTINUOUS
 62
     7
 10
3238.2862658079
 20
2521.7286021656
 30
0.0
  0
VERTEX
  5
82D
  8
0
  6
CONTINUOUS
 62
     7
 10
3241.8469429787
 20
2521.7247427649
 30
0.0
  0
VERTEX
  5
82E
  8
0
  6
CONTINUOUS
 62
     7
 10
3245.1686651285
 20
2521.721151585
 30
0.0
  0
VERTEX
  5
82F
  8
0
  6
CONTINUOUS
 62
     7
 10
3248.2328654106
 20
2521.7178286261
 30
0.0
  0
VERTEX
  5
830
  8
0
  6
CONTINUOUS
 62
     7
 10
3251.0224074896
 20
2521.7148185915
 30
0.0
  0
VERTEX
  5
831
  8
0
  6
CONTINUOUS
 62
     7
 10
3253.5216898497
 20
2521.7121065802
 30
0.0
  0
VERTEX
  5
832
  8
0
  6
CONTINUOUS
 62
     7
 10
3255.7167501028
 20
2521.7097372956
 30
0.0
  0
VERTEX
  5
833
  8
0
  6
CONTINUOUS
 62
     7
 10
3257.595294791
 20
2521.7076958365
 30
0.0
  0
VERTEX
  5
834
  8
0
  6
CONTINUOUS
 62
     7
 10
3259.1468185957
 20
2521.7060120053
 30
0.0
  0
VERTEX
  5
835
  8
0
  6
CONTINUOUS
 62
     7
 10
3260.362649041
 20
2521.7047007031
 30
0.0
  0
VERTEX
  5
836
  8
0
  6
CONTINUOUS
 62
     7
 10
3261.2359911974
 20
2521.7037470288
 30
0.0
  0
VERTEX
  5
837
  8
0
  6
CONTINUOUS
 62
     7
 10
3261.7619574841
 20
2521.7031807846
 30
0.0
  0
VERTEX
  5
838
  8
0
  6
CONTINUOUS
 62
     7
 10
3261.9376123722
 20
2521.7030019707
 30
0.0
  0
SEQEND
  5
9AF
  8
0
  6
CONTINUOUS
 62
     7
  0
POLYLINE
  5
27B
  8
0
  6
CONTINUOUS
 62
     7
 66
     1
 10
0.0
 20
0.0
 30
0.0
  0
VERTEX
  5
839
  8
0
  6
CONTINUOUS
 62
     7
 10
3138.1706238564
 20
2466.6462362952
 30
0.0
  0
VERTEX
  5
83A
  8
0
  6
CONTINUOUS
 62
     7
 10
3138.2153049882
 20
2466.6461915917
 30
0.0
  0
VERTEX
  5
83B
  8
0
  6
CONTINUOUS
 62
     7
 10
3138.5723666127
 20
2466.6458041615
 30
0.0
  0
VERTEX
  5
83C
  8
0
  6
CONTINUOUS
 62
     7
 10
3139.2844036992
 20
2466.6450293011
 30
0.0
  0
VERTEX
  5
83D
  8
0
  6
CONTINUOUS
 62
     7
 10
3140.3472290214
 20
2466.6438819117
 30
0.0
  0
VERTEX
  5
83E
  8
0
  6
CONTINUOUS
 62
     7
 10
3141.7546064432
 20
2466.6423470921
 30
0.0
  0
VERTEX
  5
83F
  8
0
  6
CONTINUOUS
 62
     7
 10
3143.4982732709
 20
2466.6404695458
 30
0.0
  0
VERTEX
  5
840
  8
0
  6
CONTINUOUS
 62
     7
 10
3145.5680073078
 20
2466.6382194704
 30
0.0
  0
VERTEX
  5
841
  8
0
  6
CONTINUOUS
 62
     7
 10
3147.951656657
 20
2466.6356415695
 30
0.0
  0
VERTEX
  5
842
  8
0
  6
CONTINUOUS
 62
     7
 10
3150.6352291282
 20
2466.6327358431
 30
0.0
  0
VERTEX
  5
843
  8
0
  6
CONTINUOUS
 62
     7
 10
3153.602989095
 20
2466.6295171923
 30
0.0
  0
VERTEX
  5
844
  8
0
  6
CONTINUOUS
 62
     7
 10
3156.8375096496
 20
2466.6260154194
 30
0.0
  0
VERTEX
  5
845
  8
0
  6
CONTINUOUS
 62
     7
 10
3160.3198067124
 20
2466.6222454256
 30
0.0
  0
VERTEX
  5
846
  8
0
  6
CONTINUOUS
 62
     7
 10
3164.0294582422
 20
2466.6182370133
 30
0.0
  0
VERTEX
  5
847
  8
0
  6
CONTINUOUS
 62
     7
 10
3167.9446787413
 20
2466.6139901823
 30
0.0
  0
VERTEX
  5
848
  8
0
  6
CONTINUOUS
 62
     7
 10
3172.0425055202
 20
2466.6095645375
 30
0.0
  0
VERTEX
  5
849
  8
0
  6
CONTINUOUS
 62
     7
 10
3176.2988806541
 20
2466.6049451775
 30
0.0
  0
VERTEX
  5
84A
  8
0
  6
CONTINUOUS
 62
     7
 10
3180.6888297971
 20
2466.6001917071
 30
0.0
  0
VERTEX
  5
84B
  8
0
  6
CONTINUOUS
 62
     7
 10
3185.1865888413
 20
2466.5953190274
 30
0.0
  0
VERTEX
  5
84C
  8
0
  6
CONTINUOUS
 62
     7
 10
3189.7657752808
 20
2466.5903718418
 30
0.0
  0
VERTEX
  5
84D
  8
0
  6
CONTINUOUS
 62
     7
 10
3194.3994999703
 20
2466.5853501505
 30
0.0
  0
VERTEX
  5
84E
  8
0
  6
CONTINUOUS
 62
     7
 10
3199.0605831917
 20
2466.5802986569
 30
0.0
  0
VERTEX
  5
84F
  8
0
  6
CONTINUOUS
 62
     7
 10
3203.7216664131
 20
2466.5752620644
 30
0.0
  0
VERTEX
  5
850
  8
0
  6
CONTINUOUS
 62
     7
 10
3208.3553911026
 20
2466.5702403731
 30
0.0
  0
VERTEX
  5
851
  8
0
  6
CONTINUOUS
 62
     7
 10
3212.9345775421
 20
2466.5652782864
 30
0.0
  0
VERTEX
  5
852
  8
0
  6
CONTINUOUS
 62
     7
 10
3217.4323440369
 20
2466.5604056067
 30
0.0
  0
VERTEX
  5
853
  8
0
  6
CONTINUOUS
 62
     7
 10
3221.8223006304
 20
2466.5556521363
 30
0.0
  0
VERTEX
  5
854
  8
0
  6
CONTINUOUS
 62
     7
 10
3226.0786683138
 20
2466.5510476774
 30
0.0
  0
VERTEX
  5
855
  8
0
  6
CONTINUOUS
 62
     7
 10
3230.1765025433
 20
2466.5466071314
 30
0.0
  0
VERTEX
  5
856
  8
0
  6
CONTINUOUS
 62
     7
 10
3234.0917230423
 20
2466.5423752016
 30
0.0
  0
VERTEX
  5
857
  8
0
  6
CONTINUOUS
 62
     7
 10
3237.8013671215
 20
2466.5383518881
 30
0.0
  0
VERTEX
  5
858
  8
0
  6
CONTINUOUS
 62
     7
 10
3241.2836641844
 20
2466.5345818943
 30
0.0
  0
VERTEX
  5
859
  8
0
  6
CONTINUOUS
 62
     7
 10
3244.5181847389
 20
2466.5310801214
 30
0.0
  0
VERTEX
  5
85A
  8
0
  6
CONTINUOUS
 62
     7
 10
3247.4859447058
 20
2466.5278763718
 30
0.0
  0
VERTEX
  5
85B
  8
0
  6
CONTINUOUS
 62
     7
 10
3250.1695246275
 20
2466.5249706454
 30
0.0
  0
VERTEX
  5
85C
  8
0
  6
CONTINUOUS
 62
     7
 10
3252.5531739767
 20
2466.5223778433
 30
0.0
  0
VERTEX
  5
85D
  8
0
  6
CONTINUOUS
 62
     7
 10
3254.6229005631
 20
2466.5201426691
 30
0.0
  0
VERTEX
  5
85E
  8
0
  6
CONTINUOUS
 62
     7
 10
3256.3665748413
 20
2466.5182502217
 30
0.0
  0
VERTEX
  5
85F
  8
0
  6
CONTINUOUS
 62
     7
 10
3257.7739448126
 20
2466.5167303032
 30
0.0
  0
VERTEX
  5
860
  8
0
  6
CONTINUOUS
 62
     7
 10
3258.8367701347
 20
2466.5155829138
 30
0.0
  0
VERTEX
  5
861
  8
0
  6
CONTINUOUS
 62
     7
 10
3259.5488072212
 20
2466.5148080534
 30
0.0
  0
VERTEX
  5
862
  8
0
  6
CONTINUOUS
 62
     7
 10
3259.9058688458
 20
2466.5144206232
 30
0.0
  0
VERTEX
  5
863
  8
0
  6
CONTINUOUS
 62
     7
 10
3259.9505574282
 20
2466.5143759197
 30
0.0
  0
SEQEND
  5
9AE
  8
0
  6
CONTINUOUS
 62
     7
  0
POLYLINE
  5
27C
  8
0
  6
CONTINUOUS
 62
     7
 66
     1
 10
0.0
 20
0.0
 30
0.0
  0
VERTEX
  5
864
  8
0
  6
CONTINUOUS
 62
     7
 10
3138.4873703893
 20
2528.8613260931
 30
0.0
  0
VERTEX
  5
865
  8
0
  6
CONTINUOUS
 62
     7
 10
3138.5318652566
 20
2528.8612813896
 30
0.0
  0
VERTEX
  5
866
  8
0
  6
CONTINUOUS
 62
     7
 10
3138.8874665673
 20
2528.8608939595
 30
0.0
  0
VERTEX
  5
867
  8
0
  6
CONTINUOUS
 62
     7
 10
3139.5965904768
 20
2528.8601190991
 30
0.0
  0
VERTEX
  5
868
  8
0
  6
CONTINUOUS
 62
     7
 10
3140.6550572093
 20
2528.8589717097
 30
0.0
  0
VERTEX
  5
869
  8
0
  6
CONTINUOUS
 62
     7
 10
3142.0566678818
 20
2528.8574666924
 30
0.0
  0
VERTEX
  5
86A
  8
0
  6
CONTINUOUS
 62
     7
 10
3143.7932045038
 20
2528.8555742449
 30
0.0
  0
VERTEX
  5
86B
  8
0
  6
CONTINUOUS
 62
     7
 10
3145.85445978
 20
2528.8533539719
 30
0.0
  0
VERTEX
  5
86C
  8
0
  6
CONTINUOUS
 62
     7
 10
3148.2283414181
 20
2528.850776071
 30
0.0
  0
VERTEX
  5
86D
  8
0
  6
CONTINUOUS
 62
     7
 10
3150.9009317334
 20
2528.8478852457
 30
0.0
  0
VERTEX
  5
86E
  8
0
  6
CONTINUOUS
 62
     7
 10
3153.8565323527
 20
2528.8446814961
 30
0.0
  0
VERTEX
  5
86F
  8
0
  6
CONTINUOUS
 62
     7
 10
3157.0777983244
 20
2528.8411946244
 30
0.0
  0
VERTEX
  5
870
  8
0
  6
CONTINUOUS
 62
     7
 10
3160.5458424266
 20
2528.8374395317
 30
0.0
  0
VERTEX
  5
871
  8
0
  6
CONTINUOUS
 62
     7
 10
3164.240294772
 20
2528.8334460205
 30
0.0
  0
VERTEX
  5
872
  8
0
  6
CONTINUOUS
 62
     7
 10
3168.1394816216
 20
2528.8292140908
 30
0.0
  0
VERTEX
  5
873
  8
0
  6
CONTINUOUS
 62
     7
 10
3172.2205222424
 20
2528.824803347
 30
0.0
  0
VERTEX
  5
874
  8
0
  6
CONTINUOUS
 62
     7
 10
3176.4594704683
 20
2528.8202137894
 30
0.0
  0
VERTEX
  5
875
  8
0
  6
CONTINUOUS
 62
     7
 10
3180.8314413603
 20
2528.8154752201
 30
0.0
  0
VERTEX
  5
876
  8
0
  6
CONTINUOUS
 62
     7
 10
3185.3107900198
 20
2528.8106323427
 30
0.0
  0
VERTEX
  5
877
  8
0
  6
CONTINUOUS
 62
     7
 10
3189.8712158974
 20
2528.8056851572
 30
0.0
  0
VERTEX
  5
878
  8
0
  6
CONTINUOUS
 62
     7
 10
3194.4859565075
 20
2528.8006932682
 30
0.0
  0
VERTEX
  5
879
  8
0
  6
CONTINUOUS
 62
     7
 10
3199.1279513414
 20
2528.7956715769
 30
0.0
  0
VERTEX
  5
87A
  8
0
  6
CONTINUOUS
 62
     7
 10
3203.7699461754
 20
2528.7906349844
 30
0.0
  0
VERTEX
  5
87B
  8
0
  6
CONTINUOUS
 62
     7
 10
3208.3847016867
 20
2528.7856430954
 30
0.0
  0
VERTEX
  5
87C
  8
0
  6
CONTINUOUS
 62
     7
 10
3212.9451275642
 20
2528.7807108111
 30
0.0
  0
VERTEX
  5
87D
  8
0
  6
CONTINUOUS
 62
     7
 10
3217.4244613226
 20
2528.7758530325
 30
0.0
  0
VERTEX
  5
87E
  8
0
  6
CONTINUOUS
 62
     7
 10
3221.7964322146
 20
2528.7711144633
 30
0.0
  0
VERTEX
  5
87F
  8
0
  6
CONTINUOUS
 62
     7
 10
3226.0353804405
 20
2528.7665249056
 30
0.0
  0
VERTEX
  5
880
  8
0
  6
CONTINUOUS
 62
     7
 10
3230.1164210613
 20
2528.7621141619
 30
0.0
  0
VERTEX
  5
881
  8
0
  6
CONTINUOUS
 62
     7
 10
3234.0156079109
 20
2528.7578822321
 30
0.0
  0
VERTEX
  5
882
  8
0
  6
CONTINUOUS
 62
     7
 10
3237.7100677069
 20
2528.7538887209
 30
0.0
  0
VERTEX
  5
883
  8
0
  6
CONTINUOUS
 62
     7
 10
3241.1781043585
 20
2528.7501336283
 30
0.0
  0
VERTEX
  5
884
  8
0
  6
CONTINUOUS
 62
     7
 10
3244.3993777807
 20
2528.7466467566
 30
0.0
  0
VERTEX
  5
885
  8
0
  6
CONTINUOUS
 62
     7
 10
3247.3549784
 20
2528.7434430069
 30
0.0
  0
VERTEX
  5
886
  8
0
  6
CONTINUOUS
 62
     7
 10
3250.0275612648
 20
2528.7405521816
 30
0.0
  0
VERTEX
  5
887
  8
0
  6
CONTINUOUS
 62
     7
 10
3252.4014503534
 20
2528.7379742808
 30
0.0
  0
VERTEX
  5
888
  8
0
  6
CONTINUOUS
 62
     7
 10
3254.4626981791
 20
2528.7357540077
 30
0.0
  0
VERTEX
  5
889
  8
0
  6
CONTINUOUS
 62
     7
 10
3256.1992348011
 20
2528.7338615603
 30
0.0
  0
VERTEX
  5
88A
  8
0
  6
CONTINUOUS
 62
     7
 10
3257.6008529242
 20
2528.732356543
 30
0.0
  0
VERTEX
  5
88B
  8
0
  6
CONTINUOUS
 62
     7
 10
3258.6593122061
 20
2528.7312091536
 30
0.0
  0
VERTEX
  5
88C
  8
0
  6
CONTINUOUS
 62
     7
 10
3259.368428665
 20
2528.7304342932
 30
0.0
  0
VERTEX
  5
88D
  8
0
  6
CONTINUOUS
 62
     7
 10
3259.7240299757
 20
2528.730046863
 30
0.0
  0
VERTEX
  5
88E
  8
0
  6
CONTINUOUS
 62
     7
 10
3259.7685397442
 20
2528.7300021595
 30
0.0
  0
SEQEND
  5
9AD
  8
0
  6
CONTINUOUS
 62
     7
  0
POLYLINE
  5
27D
  8
0
  6
CONTINUOUS
 62
     7
 66
     1
 10
0.0
 20
0.0
 30
0.0
  0
VERTEX
  5
88F
  8
0
  6
CONTINUOUS
 62
     7
 10
3147.597090977
 20
2453.3390523142
 30
0.0
  0
VERTEX
  5
890
  8
0
  6
CONTINUOUS
 62
     7
 10
3147.7728129204
 20
2453.3388735003
 30
0.0
  0
VERTEX
  5
891
  8
0
  6
CONTINUOUS
 62
     7
 10
3148.2987866576
 20
2453.338292355
 30
0.0
  0
VERTEX
  5
892
  8
0
  6
CONTINUOUS
 62
     7
 10
3149.1714210089
 20
2453.3373535818
 30
0.0
  0
VERTEX
  5
893
  8
0
  6
CONTINUOUS
 62
     7
 10
3150.3847480591
 20
2453.3360422796
 30
0.0
  0
VERTEX
  5
894
  8
0
  6
CONTINUOUS
 62
     7
 10
3151.930475312
 20
2453.3343733496
 30
0.0
  0
VERTEX
  5
895
  8
0
  6
CONTINUOUS
 62
     7
 10
3153.7980601962
 20
2453.3323467917
 30
0.0
  0
VERTEX
  5
896
  8
0
  6
CONTINUOUS
 62
     7
 10
3155.9747324164
 20
2453.3299924082
 30
0.0
  0
VERTEX
  5
897
  8
0
  6
CONTINUOUS
 62
     7
 10
3158.4456206139
 20
2453.3273101992
 30
0.0
  0
VERTEX
  5
898
  8
0
  6
CONTINUOUS
 62
     7
 10
3161.193856674
 20
2453.3243299669
 30
0.0
  0
VERTEX
  5
899
  8
0
  6
CONTINUOUS
 62
     7
 10
3164.2006651338
 20
2453.3210815138
 30
0.0
  0
VERTEX
  5
89A
  8
0
  6
CONTINUOUS
 62
     7
 10
3167.4454972919
 20
2453.3175648398
 30
0.0
  0
VERTEX
  5
89B
  8
0
  6
CONTINUOUS
 62
     7
 10
3170.9062025722
 20
2453.3138246483
 30
0.0
  0
VERTEX
  5
89C
  8
0
  6
CONTINUOUS
 62
     7
 10
3174.5591253813
 20
2453.3098609394
 30
0.0
  0
VERTEX
  5
89D
  8
0
  6
CONTINUOUS
 62
     7
 10
3178.3793211754
 20
2453.3057333178
 30
0.0
  0
VERTEX
  5
89E
  8
0
  6
CONTINUOUS
 62
     7
 10
3182.3406980212
 20
2453.3014417834
 30
0.0
  0
VERTEX
  5
89F
  8
0
  6
CONTINUOUS
 62
     7
 10
3186.4161879595
 20
2453.2970310396
 30
0.0
  0
VERTEX
  5
8A0
  8
0
  6
CONTINUOUS
 62
     7
 10
3190.5779481705
 20
2453.2925159878
 30
0.0
  0
VERTEX
  5
8A1
  8
0
  6
CONTINUOUS
 62
     7
 10
3194.7975546892
 20
2453.2879562325
 30
0.0
  0
VERTEX
  5
8A2
  8
0
  6
CONTINUOUS
 62
     7
 10
3199.04618867
 20
2453.2833517737
 30
0.0
  0
VERTEX
  5
8A3
  8
0
  6
CONTINUOUS
 62
     7
 10
3203.2948226507
 20
2453.2787473149
 30
0.0
  0
VERTEX
  5
8A4
  8
0
  6
CONTINUOUS
 62
     7
 10
3207.5144291695
 20
2453.2741875595
 30
0.0
  0
VERTEX
  5
8A5
  8
0
  6
CONTINUOUS
 62
     7
 10
3211.6761893805
 20
2453.2696725077
 30
0.0
  0
VERTEX
  5
8A6
  8
0
  6
CONTINUOUS
 62
     7
 10
3215.7516867693
 20
2453.265261764
 30
0.0
  0
VERTEX
  5
8A7
  8
0
  6
CONTINUOUS
 62
     7
 10
3219.7130561646
 20
2453.2609702296
 30
0.0
  0
VERTEX
  5
8A8
  8
0
  6
CONTINUOUS
 62
     7
 10
3223.5332519587
 20
2453.2568426079
 30
0.0
  0
VERTEX
  5
8A9
  8
0
  6
CONTINUOUS
 62
     7
 10
3227.1861822184
 20
2453.252878899
 30
0.0
  0
VERTEX
  5
8AA
  8
0
  6
CONTINUOUS
 62
     7
 10
3230.6468874987
 20
2453.2491387076
 30
0.0
  0
VERTEX
  5
8AB
  8
0
  6
CONTINUOUS
 62
     7
 10
3233.8917196568
 20
2453.2456220335
 30
0.0
  0
VERTEX
  5
8AC
  8
0
  6
CONTINUOUS
 62
     7
 10
3236.8985206659
 20
2453.2423586792
 30
0.0
  0
VERTEX
  5
8AD
  8
0
  6
CONTINUOUS
 62
     7
 10
3239.6467567261
 20
2453.2393933481
 30
0.0
  0
VERTEX
  5
8AE
  8
0
  6
CONTINUOUS
 62
     7
 10
3242.1176523741
 20
2453.2367111391
 30
0.0
  0
VERTEX
  5
8AF
  8
0
  6
CONTINUOUS
 62
     7
 10
3244.2943245943
 20
2453.2343567557
 30
0.0
  0
VERTEX
  5
8B0
  8
0
  6
CONTINUOUS
 62
     7
 10
3246.1619020279
 20
2453.2323301977
 30
0.0
  0
VERTEX
  5
8B1
  8
0
  6
CONTINUOUS
 62
     7
 10
3247.7076292809
 20
2453.2306612677
 30
0.0
  0
VERTEX
  5
8B2
  8
0
  6
CONTINUOUS
 62
     7
 10
3248.9209563311
 20
2453.2293499655
 30
0.0
  0
VERTEX
  5
8B3
  8
0
  6
CONTINUOUS
 62
     7
 10
3249.7935832317
 20
2453.2283962912
 30
0.0
  0
VERTEX
  5
8B4
  8
0
  6
CONTINUOUS
 62
     7
 10
3250.3195644196
 20
2453.2278300471
 30
0.0
  0
VERTEX
  5
8B5
  8
0
  6
CONTINUOUS
 62
     7
 10
3250.4952938135
 20
2453.227636332
 30
0.0
  0
SEQEND
  5
9AC
  8
0
  6
CONTINUOUS
 62
     7
  0
LINE
  5
27E
  8
0
  6
CONTINUOUS
 62
     7
 10
3253.80709179
 20
2232.4339271731
 30
0.0
 11
3253.8016826685
 21
2227.4339319414
 31
0.0
  0
LINE
  5
27F
  8
0
  6
CONTINUOUS
 62
     7
 10
3221.9424486931
 20
2227.4684281296
 30
0.0
 11
3253.8016826685
 21
2227.4339319414
 31
0.0
  0
ARC
  5
280
  8
0
  6
CONTINUOUS
 62
     7
 10
3221.8341730229
 20
2127.4684852265
 30
0.0
 40
100.0000000000001
 50
89.9379614244
 51
131.377444738
  0
ARC
  5
281
  8
0
  6
CONTINUOUS
 62
     7
 10
3058.8936001833
 20
2312.4350219912
 30
0.0
 40
146.5000000000001
 50
229.5120551771
 51
311.377444738
  0
LINE
  5
282
  8
0
  6
CONTINUOUS
 62
     7
 10
2963.7729019697
 20
2201.0155291504
 30
0.0
 11
2964.0144125398
 21
2424.0602375216
 31
0.0
  0
ARC
  5
283
  8
0
  6
CONTINUOUS
 62
     7
 10
3058.8936001833
 20
2312.4350219912
 30
0.0
 40
146.5000000000001
 50
48.4984781107
 51
130.3638676716
  0
ARC
  5
284
  8
0
  6
CONTINUOUS
 62
     7
 10
3222.2343458191
 20
2497.0482685775
 30
0.0
 40
100.0
 50
228.4984781107
 51
269.9379614244
  0
LINE
  5
285
  8
0
  6
CONTINUOUS
 62
     7
 10
3248.9852995451
 20
2397.0192418641
 30
0.0
 11
3222.1260608013
 21
2397.0483289308
 31
0.0
  0
ARC
  5
286
  8
0
  6
CONTINUOUS
 62
     7
 10
3248.9798835972
 20
2392.0192475507
 30
0.0
 40
5.00000000000025
 50
359.9379614244
 51
89.9379614244
  0
LINE
  5
287
  8
0
  6
CONTINUOUS
 62
     7
 10
3253.80709179
 20
2232.4339271731
 30
0.0
 11
3253.9798856552
 21
2392.0138300604
 31
0.0
  0
POLYLINE
  5
288
  8
0
  6
CONTINUOUS
 62
     7
 66
     1
 10
0.0
 20
0.0
 30
0.0
  0
VERTEX
  5
8B6
  8
0
  6
CONTINUOUS
 62
     7
 10
3173.4174505647
 20
2537.5835121817
 30
0.0
  0
VERTEX
  5
8B7
  8
0
  6
CONTINUOUS
 62
     7
 10
3173.5190541323
 20
2537.5833929724
 30
0.0
  0
VERTEX
  5
8B8
  8
0
  6
CONTINUOUS
 62
     7
 10
3173.9689797934
 20
2537.5829161352
 30
0.0
  0
VERTEX
  5
8B9
  8
0
  6
CONTINUOUS
 62
     7
 10
3174.7722194369
 20
2537.5820369667
 30
0.0
  0
VERTEX
  5
8BA
  8
0
  6
CONTINUOUS
 62
     7
 10
3175.917492884
 20
2537.5808001703
 30
0.0
  0
VERTEX
  5
8BB
  8
0
  6
CONTINUOUS
 62
     7
 10
3177.3887217815
 20
2537.5792057461
 30
0.0
  0
VERTEX
  5
8BC
  8
0
  6
CONTINUOUS
 62
     7
 10
3179.1652531202
 20
2537.5772834963
 30
0.0
  0
VERTEX
  5
8BD
  8
0
  6
CONTINUOUS
 62
     7
 10
3181.2221572574
 20
2537.5750632233
 30
0.0
  0
VERTEX
  5
8BE
  8
0
  6
CONTINUOUS
 62
     7
 10
3183.530548292
 20
2537.5725598282
 30
0.0
  0
VERTEX
  5
8BF
  8
0
  6
CONTINUOUS
 62
     7
 10
3186.058023649
 20
2537.5698180145
 30
0.0
  0
VERTEX
  5
8C0
  8
0
  6
CONTINUOUS
 62
     7
 10
3188.7691111143
 20
2537.5668824858
 30
0.0
  0
VERTEX
  5
8C1
  8
0
  6
CONTINUOUS
 62
     7
 10
3191.625738221
 20
2537.5637979454
 30
0.0
  0
VERTEX
  5
8C2
  8
0
  6
CONTINUOUS
 62
     7
 10
3194.5878208454
 20
2537.5605792946
 30
0.0
  0
VERTEX
  5
8C3
  8
0
  6
CONTINUOUS
 62
     7
 10
3197.6137698467
 20
2537.5573159403
 30
0.0
  0
VERTEX
  5
8C4
  8
0
  6
CONTINUOUS
 62
     7
 10
3200.6611020144
 20
2537.5540078825
 30
0.0
  0
VERTEX
  5
8C5
  8
0
  6
CONTINUOUS
 62
     7
 10
3203.6870510157
 20
2537.5507296271
 30
0.0
  0
VERTEX
  5
8C6
  8
0
  6
CONTINUOUS
 62
     7
 10
3206.6491336401
 20
2537.5475258774
 30
0.0
  0
VERTEX
  5
8C7
  8
0
  6
CONTINUOUS
 62
     7
 10
3209.5057607468
 20
2537.5444264359
 30
0.0
  0
VERTEX
  5
8C8
  8
0
  6
CONTINUOUS
 62
     7
 10
3212.2168482121
 20
2537.5414909071
 30
0.0
  0
VERTEX
  5
8C9
  8
0
  6
CONTINUOUS
 62
     7
 10
3214.7443235691
 20
2537.5387639946
 30
0.0
  0
VERTEX
  5
8CA
  8
0
  6
CONTINUOUS
 62
     7
 10
3217.0527220543
 20
2537.5362605995
 30
0.0
  0
VERTEX
  5
8CB
  8
0
  6
CONTINUOUS
 62
     7
 10
3219.1096187408
 20
2537.5340403265
 30
0.0
  0
VERTEX
  5
8CC
  8
0
  6
CONTINUOUS
 62
     7
 10
3220.8861500795
 20
2537.5321031756
 30
0.0
  0
VERTEX
  5
8CD
  8
0
  6
CONTINUOUS
 62
     7
 10
3222.3573864277
 20
2537.5305236525
 30
0.0
  0
VERTEX
  5
8CE
  8
0
  6
CONTINUOUS
 62
     7
 10
3223.5026598747
 20
2537.5292719549
 30
0.0
  0
VERTEX
  5
8CF
  8
0
  6
CONTINUOUS
 62
     7
 10
3224.3058920677
 20
2537.5284076876
 30
0.0
  0
VERTEX
  5
8D0
  8
0
  6
CONTINUOUS
 62
     7
 10
3224.7558177288
 20
2537.5279159493
 30
0.0
  0
VERTEX
  5
8D1
  8
0
  6
CONTINUOUS
 62
     7
 10
3224.857428747
 20
2537.5278116411
 30
0.0
  0
SEQEND
  5
9AB
  8
0
  6
CONTINUOUS
 62
     7
  0
POLYLINE
  5
289
  8
0
  6
CONTINUOUS
 62
     7
 66
     1
 10
0.0
 20
0.0
 30
0.0
  0
VERTEX
  5
8D2
  8
0
  6
CONTINUOUS
 62
     7
 10
3244.294294792
 20
2682.3944867796
 30
0.0
  0
VERTEX
  5
8D3
  8
0
  6
CONTINUOUS
 62
     7
 10
3244.1202790316
 20
2682.3946655936
 30
0.0
  0
VERTEX
  5
8D4
  8
0
  6
CONTINUOUS
 62
     7
 10
3243.5954452332
 20
2682.39526164
 30
0.0
  0
VERTEX
  5
8D5
  8
0
  6
CONTINUOUS
 62
     7
 10
3242.7239061173
 20
2682.396185512
 30
0.0
  0
VERTEX
  5
8D6
  8
0
  6
CONTINUOUS
 62
     7
 10
3241.5124715145
 20
2682.3974968142
 30
0.0
  0
VERTEX
  5
8D7
  8
0
  6
CONTINUOUS
 62
     7
 10
3239.9706185635
 20
2682.3991657442
 30
0.0
  0
VERTEX
  5
8D8
  8
0
  6
CONTINUOUS
 62
     7
 10
3238.1104023035
 20
2682.4011923022
 30
0.0
  0
VERTEX
  5
8D9
  8
0
  6
CONTINUOUS
 62
     7
 10
3235.9464258726
 20
2682.4035168833
 30
0.0
  0
VERTEX
  5
8DA
  8
0
  6
CONTINUOUS
 62
     7
 10
3233.4955722864
 20
2682.40616929
 30
0.0
  0
VERTEX
  5
8DB
  8
0
  6
CONTINUOUS
 62
     7
 10
3230.7770640429
 20
2682.4091197199
 30
0.0
  0
VERTEX
  5
8DC
  8
0
  6
CONTINUOUS
 62
     7
 10
3227.8121501978
 20
2682.4123383707
 30
0.0
  0
VERTEX
  5
8DD
  8
0
  6
CONTINUOUS
 62
     7
 10
3224.6240467604
 20
2682.4157954401
 30
0.0
  0
VERTEX
  5
8DE
  8
0
  6
CONTINUOUS
 62
     7
 10
3221.2377131756
 20
2682.4194611258
 30
0.0
  0
VERTEX
  5
8DF
  8
0
  6
CONTINUOUS
 62
     7
 10
3217.6796288069
 20
2682.4233056254
 30
0.0
  0
VERTEX
  5
8E0
  8
0
  6
CONTINUOUS
 62
     7
 10
3213.9776737268
 20
2682.4273289389
 30
0.0
  0
VERTEX
  5
8E1
  8
0
  6
CONTINUOUS
 62
     7
 10
3210.1607859905
 20
2682.4314416594
 30
0.0
  0
VERTEX
  5
8E2
  8
0
  6
CONTINUOUS
 62
     7
 10
3206.2588573273
 20
2682.4356735892
 30
0.0
  0
VERTEX
  5
8E3
  8
0
  6
CONTINUOUS
 62
     7
 10
3202.3024202164
 20
2682.4399651236
 30
0.0
  0
VERTEX
  5
8E4
  8
0
  6
CONTINUOUS
 62
     7
 10
3198.3224392708
 20
2682.444256658
 30
0.0
  0
VERTEX
  5
8E5
  8
0
  6
CONTINUOUS
 62
     7
 10
3194.3500728186
 20
2682.4485779948
 30
0.0
  0
VERTEX
  5
8E6
  8
0
  6
CONTINUOUS
 62
     7
 10
3190.4163897808
 20
2682.4528397269
 30
0.0
  0
VERTEX
  5
8E7
  8
0
  6
CONTINUOUS
 62
     7
 10
3186.5522057589
 20
2682.457012052
 30
0.0
  0
VERTEX
  5
8E8
  8
0
  6
CONTINUOUS
 62
     7
 10
3182.787732857
 20
2682.4610949702
 30
0.0
  0
VERTEX
  5
8E9
  8
0
  6
CONTINUOUS
 62
     7
 10
3179.1524455722
 20
2682.4650288767
 30
0.0
  0
VERTEX
  5
8EA
  8
0
  6
CONTINUOUS
 62
     7
 10
3175.6748051222
 20
2682.4687839693
 30
0.0
  0
VERTEX
  5
8EB
  8
0
  6
CONTINUOUS
 62
     7
 10
3172.3820135768
 20
2682.472360248
 30
0.0
  0
VERTEX
  5
8EC
  8
0
  6
CONTINUOUS
 62
     7
 10
3169.2998424943
 20
2682.4756981081
 30
0.0
  0
VERTEX
  5
8ED
  8
0
  6
CONTINUOUS
 62
     7
 10
3166.4524243053
 20
2682.4787677473
 30
0.0
  0
VERTEX
  5
8EE
  8
0
  6
CONTINUOUS
 62
     7
 10
3163.8620362456
 20
2682.4815691656
 30
0.0
  0
VERTEX
  5
8EF
  8
0
  6
CONTINUOUS
 62
     7
 10
3161.5489587958
 20
2682.4840725607
 30
0.0
  0
VERTEX
  5
8F0
  8
0
  6
CONTINUOUS
 62
     7
 10
3159.5312894161
 20
2682.4862779326
 30
0.0
  0
VERTEX
  5
8F1
  8
0
  6
CONTINUOUS
 62
     7
 10
3157.8248158868
 20
2682.4881256766
 30
0.0
  0
VERTEX
  5
8F2
  8
0
  6
CONTINUOUS
 62
     7
 10
3156.4428970988
 20
2682.4896157927
 30
0.0
  0
VERTEX
  5
8F3
  8
0
  6
CONTINUOUS
 62
     7
 10
3155.3963512953
 20
2682.4907482809
 30
0.0
  0
VERTEX
  5
8F4
  8
0
  6
CONTINUOUS
 62
     7
 10
3154.6933666642
 20
2682.4915231413
 30
0.0
  0
VERTEX
  5
8F5
  8
0
  6
CONTINUOUS
 62
     7
 10
3154.3394417341
 20
2682.4918807692
 30
0.0
  0
VERTEX
  5
8F6
  8
0
  6
CONTINUOUS
 62
     7
 10
3154.2943433698
 20
2682.4919403738
 30
0.0
  0
SEQEND
  5
9AA
  8
0
  6
CONTINUOUS
 62
     7
  0
POLYLINE
  5
28A
  8
0
  6
CONTINUOUS
 62
     7
 66
     1
 10
0.0
 20
0.0
 30
0.0
  0
VERTEX
  5
8F7
  8
0
  6
CONTINUOUS
 62
     7
 10
3218.5553998526
 20
2755.7624102778
 30
0.0
  0
VERTEX
  5
8F8
  8
0
  6
CONTINUOUS
 62
     7
 10
3219.5578456696
 20
2755.7613075918
 30
0.0
  0
VERTEX
  5
8F9
  8
0
  6
CONTINUOUS
 62
     7
 10
3223.0334521111
 20
2755.7575524992
 30
0.0
  0
VERTEX
  5
8FA
  8
0
  6
CONTINUOUS
 62
     7
 10
3226.3238967236
 20
2755.7540060229
 30
0.0
  0
VERTEX
  5
8FB
  8
0
  6
CONTINUOUS
 62
     7
 10
3229.4034153994
 20
2755.7506681628
 30
0.0
  0
VERTEX
  5
8FC
  8
0
  6
CONTINUOUS
 62
     7
 10
3232.2479129608
 20
2755.7475687212
 30
0.0
  0
VERTEX
  5
8FD
  8
0
  6
CONTINUOUS
 62
     7
 10
3234.8351121719
 20
2755.7447673029
 30
0.0
  0
VERTEX
  5
8FE
  8
0
  6
CONTINUOUS
 62
     7
 10
3237.144792157
 20
2755.7422639078
 30
0.0
  0
VERTEX
  5
8FF
  8
0
  6
CONTINUOUS
 62
     7
 10
3239.1588629063
 20
2755.7400883383
 30
0.0
  0
VERTEX
  5
900
  8
0
  6
CONTINUOUS
 62
     7
 10
3240.8615589912
 20
2755.7382405943
 30
0.0
  0
VERTEX
  5
901
  8
0
  6
CONTINUOUS
 62
     7
 10
3242.2395587738
 20
2755.7367504782
 30
0.0
  0
VERTEX
  5
902
  8
0
  6
CONTINUOUS
 62
     7
 10
3243.2820738133
 20
2755.7356179899
 30
0.0
  0
VERTEX
  5
903
  8
0
  6
CONTINUOUS
 62
     7
 10
3243.9809382732
 20
2755.7348729319
 30
0.0
  0
VERTEX
  5
904
  8
0
  6
CONTINUOUS
 62
     7
 10
3244.3306983288
 20
2755.7344855017
 30
0.0
  0
VERTEX
  5
905
  8
0
  6
CONTINUOUS
 62
     7
 10
3244.37370308
 20
2755.7344556994
 30
0.0
  0
SEQEND
  5
9A9
  8
0
  6
CONTINUOUS
 62
     7
  0
POLYLINE
  5
28B
  8
0
  6
CONTINUOUS
 62
     7
 66
     1
 10
0.0
 20
0.0
 30
0.0
  0
VERTEX
  5
906
  8
0
  6
CONTINUOUS
 62
     7
 10
3154.3737591084
 20
2755.8319092936
 30
0.0
  0
VERTEX
  5
907
  8
0
  6
CONTINUOUS
 62
     7
 10
3154.3737591084
 20
2755.8319092936
 30
0.0
  0
VERTEX
  5
908
  8
0
  6
CONTINUOUS
 62
     7
 10
3154.5519397433
 20
2755.8317006773
 30
0.0
  0
VERTEX
  5
909
  8
0
  6
CONTINUOUS
 62
     7
 10
3155.0809160646
 20
2755.8311344332
 30
0.0
  0
VERTEX
  5
90A
  8
0
  6
CONTINUOUS
 62
     7
 10
3155.9565380986
 20
2755.8301807589
 30
0.0
  0
VERTEX
  5
90B
  8
0
  6
CONTINUOUS
 62
     7
 10
3157.171958762
 20
2755.8288694567
 30
0.0
  0
VERTEX
  5
90C
  8
0
  6
CONTINUOUS
 62
     7
 10
3158.7176711138
 20
2755.8272005266
 30
0.0
  0
VERTEX
  5
90D
  8
0
  6
CONTINUOUS
 62
     7
 10
3160.5815679606
 20
2755.8251739687
 30
0.0
  0
VERTEX
  5
90E
  8
0
  6
CONTINUOUS
 62
     7
 10
3162.7490610655
 20
2755.8228195853
 30
0.0
  0
VERTEX
  5
90F
  8
0
  6
CONTINUOUS
 62
     7
 10
3165.2032003577
 20
2755.8201671786
 30
0.0
  0
VERTEX
  5
910
  8
0
  6
CONTINUOUS
 62
     7
 10
3167.9247633393
 20
2755.8172167486
 30
0.0
  0
VERTEX
  5
911
  8
0
  6
CONTINUOUS
 62
     7
 10
3170.8924637015
 20
2755.8139980978
 30
0.0
  0
VERTEX
  5
912
  8
0
  6
CONTINUOUS
 62
     7
 10
3174.0830630835
 20
2755.8105708307
 30
0.0
  0
VERTEX
  5
913
  8
0
  6
CONTINUOUS
 62
     7
 10
3177.4716020401
 20
2755.8068753428
 30
0.0
  0
VERTEX
  5
914
  8
0
  6
CONTINUOUS
 62
     7
 10
3181.031549054
 20
2755.8030308432
 30
0.0
  0
VERTEX
  5
915
  8
0
  6
CONTINUOUS
 62
     7
 10
3184.7350538548
 20
2755.799037332
 30
0.0
  0
VERTEX
  5
916
  8
0
  6
CONTINUOUS
 62
     7
 10
3188.5531187828
 20
2755.7948948092
 30
0.0
  0
VERTEX
  5
917
  8
0
  6
CONTINUOUS
 62
     7
 10
3192.4558670099
 20
2755.7906628794
 30
0.0
  0
VERTEX
  5
918
  8
0
  6
CONTINUOUS
 62
     7
 10
3196.4127660568
 20
2755.786371345
 30
0.0
  0
VERTEX
  5
919
  8
0
  6
CONTINUOUS
 62
     7
 10
3200.3928364094
 20
2755.7820798105
 30
0.0
  0
VERTEX
  5
91A
  8
0
  6
CONTINUOUS
 62
     7
 10
3201.4606238182
 20
2755.78091752
 30
0.0
  0
SEQEND
  5
9A8
  8
0
  6
CONTINUOUS
 62
     7
  0
POLYLINE
  5
28C
  8
0
  6
CONTINUOUS
 62
     7
 66
     1
 10
0.0
 20
0.0
 30
0.0
  0
VERTEX
  5
91B
  8
0
  6
CONTINUOUS
 62
     7
 10
3244.3539590414
 20
2747.0402837939
 30
0.0
  0
VERTEX
  5
91C
  8
0
  6
CONTINUOUS
 62
     7
 10
3244.3531394775
 20
2746.2004841513
 30
0.0
  0
VERTEX
  5
91D
  8
0
  6
CONTINUOUS
 62
     7
 10
3244.296887594
 20
2743.808043117
 30
0.0
  0
VERTEX
  5
91E
  8
0
  6
CONTINUOUS
 62
     7
 10
3244.2555070694
 20
2740.9091712183
 30
0.0
  0
VERTEX
  5
91F
  8
0
  6
CONTINUOUS
 62
     7
 10
3244.2766667183
 20
2737.9750729746
 30
0.0
  0
VERTEX
  5
920
  8
0
  6
CONTINUOUS
 62
     7
 10
3244.3320543345
 20
2735.4797543234
 30
0.0
  0
VERTEX
  5
921
  8
0
  6
CONTINUOUS
 62
     7
 10
3244.3405628975
 20
2734.2662633604
 30
0.0
  0
SEQEND
  5
9A7
  8
0
  6
CONTINUOUS
 62
     7
  0
POLYLINE
  5
28D
  8
0
  6
CONTINUOUS
 62
     7
 66
     1
 10
0.0
 20
0.0
 30
0.0
  0
VERTEX
  5
922
  8
0
  6
CONTINUOUS
 62
     7
 10
3154.6782717879
 20
2749.1292775816
 30
0.0
  0
VERTEX
  5
923
  8
0
  6
CONTINUOUS
 62
     7
 10
3154.9853027638
 20
2748.7438143439
 30
0.0
  0
VERTEX
  5
924
  8
0
  6
CONTINUOUS
 62
     7
 10
3155.399696606
 20
2747.5389958567
 30
0.0
  0
VERTEX
  5
925
  8
0
  6
CONTINUOUS
 62
     7
 10
3155.8172569449
 20
2745.6290842242
 30
0.0
  0
VERTEX
  5
926
  8
0
  6
CONTINUOUS
 62
     7
 10
3156.1396584685
 20
2743.044746036
 30
0.0
  0
VERTEX
  5
927
  8
0
  6
CONTINUOUS
 62
     7
 10
3156.2291473921
 20
2740.0762261099
 30
0.0
  0
VERTEX
  5
928
  8
0
  6
CONTINUOUS
 62
     7
 10
3156.0327649887
 20
2737.2376145071
 30
0.0
  0
VERTEX
  5
929
  8
0
  6
CONTINUOUS
 62
     7
 10
3155.6360141213
 20
2734.9353851027
 30
0.0
  0
VERTEX
  5
92A
  8
0
  6
CONTINUOUS
 62
     7
 10
3155.1714406188
 20
2733.3448053545
 30
0.0
  0
VERTEX
  5
92B
  8
0
  6
CONTINUOUS
 62
     7
 10
3154.7569871719
 20
2732.5616599268
 30
0.0
  0
VERTEX
  5
92C
  8
0
  6
CONTINUOUS
 62
     7
 10
3154.6190024193
 20
2732.6059461779
 30
0.0
  0
SEQEND
  5
9A6
  8
0
  6
CONTINUOUS
 62
     7
  0
LINE
  5
28E
  8
0
  6
CONTINUOUS
 62
     7
 10
3161.2312138851
 20
2453.3243001646
 30
0.0
 11
3161.1965612348
 21
2421.3243172712
 31
0.0
  0
POLYLINE
  5
28F
  8
0
  6
CONTINUOUS
 62
     7
 66
     1
 10
0.0
 20
0.0
 30
0.0
  0
VERTEX
  5
92D
  8
0
  6
CONTINUOUS
 62
     7
 10
3175.0972733672
 20
2421.3092596478
 30
0.0
  0
VERTEX
  5
92E
  8
0
  6
CONTINUOUS
 62
     7
 10
3175.2730251129
 20
2421.3090733833
 30
0.0
  0
VERTEX
  5
92F
  8
0
  6
CONTINUOUS
 62
     7
 10
3175.4489407714
 20
2421.3088796682
 30
0.0
  0
VERTEX
  5
930
  8
0
  6
CONTINUOUS
 62
     7
 10
3175.6249905403
 20
2421.3086934036
 30
0.0
  0
VERTEX
  5
931
  8
0
  6
CONTINUOUS
 62
     7
 10
3175.8011669691
 20
2421.3084996886
 30
0.0
  0
VERTEX
  5
932
  8
0
  6
CONTINUOUS
 62
     7
 10
3175.9774328049
 20
2421.308313424
 30
0.0
  0
VERTEX
  5
933
  8
0
  6
CONTINUOUS
 62
     7
 10
3176.1537656959
 20
2421.3081197089
 30
0.0
  0
VERTEX
  5
934
  8
0
  6
CONTINUOUS
 62
     7
 10
3176.3301507409
 20
2421.3079259938
 30
0.0
  0
VERTEX
  5
935
  8
0
  6
CONTINUOUS
 62
     7
 10
3176.5065506871
 20
2421.3077397293
 30
0.0
  0
SEQEND
  5
9A5
  8
0
  6
CONTINUOUS
 62
     7
  0
LINE
  5
290
  8
0
  6
CONTINUOUS
 62
     7
 10
3236.8611634548
 20
2453.2424033827
 30
0.0
 11
3236.826518255
 21
2421.2424204892
 31
0.0
  0
POLYLINE
  5
291
  8
0
  6
CONTINUOUS
 62
     7
 66
     1
 10
0.0
 20
0.0
 30
0.0
  0
VERTEX
  5
936
  8
0
  6
CONTINUOUS
 62
     7
 10
3221.5165288027
 20
2421.2589980311
 30
0.0
  0
VERTEX
  5
937
  8
0
  6
CONTINUOUS
 62
     7
 10
3221.6929287489
 20
2421.2588117666
 30
0.0
  0
VERTEX
  5
938
  8
0
  6
CONTINUOUS
 62
     7
 10
3221.869313794
 20
2421.2586180515
 30
0.0
  0
VERTEX
  5
939
  8
0
  6
CONTINUOUS
 62
     7
 10
3222.0456541355
 20
2421.2584317869
 30
0.0
  0
VERTEX
  5
93A
  8
0
  6
CONTINUOUS
 62
     7
 10
3222.2219199713
 20
2421.2582380718
 30
0.0
  0
VERTEX
  5
93B
  8
0
  6
CONTINUOUS
 62
     7
 10
3222.3980964001
 20
2421.2580443568
 30
0.0
  0
VERTEX
  5
93C
  8
0
  6
CONTINUOUS
 62
     7
 10
3222.5741387184
 20
2421.2578580922
 30
0.0
  0
VERTEX
  5
93D
  8
0
  6
CONTINUOUS
 62
     7
 10
3222.7500618275
 20
2421.2576643771
 30
0.0
  0
VERTEX
  5
93E
  8
0
  6
CONTINUOUS
 62
     7
 10
3222.9258061226
 20
2421.2574781126
 30
0.0
  0
SEQEND
  5
9A4
  8
0
  6
CONTINUOUS
 62
     7
  0
LINE
  5
292
  8
0
  6
CONTINUOUS
 62
     7
 10
3176.5065506871
 20
2421.3077397293
 30
0.0
 11
3221.5165288027
 21
2421.2589980311
 31
0.0
  0
LINE
  5
293
  8
0
  6
CONTINUOUS
 62
     7
 10
3159.1305152352
 20
2203.3264235801
 30
0.0
 11
3238.4204656656
 21
2203.2405705399
 31
0.0
  0
LINE
  5
294
  8
0
  6
CONTINUOUS
 62
     7
 10
3159.1327280577
 20
2205.3692461199
 30
0.0
 11
3159.1305152352
 21
2203.3264235801
 31
0.0
  0
LINE
  5
295
  8
0
  6
CONTINUOUS
 62
     7
 10
3238.4466917093
 20
2227.4505541867
 30
0.0
 11
3238.4204656656
 21
2203.2405705399
 31
0.0
  0
LINE
  5
296
  8
0
  6
CONTINUOUS
 62
     7
 10
3159.3665645297
 20
2421.3262991256
 30
0.0
 11
3159.3643517073
 21
2419.2834691352
 31
0.0
  0
LINE
  5
297
  8
0
  6
CONTINUOUS
 62
     7
 10
3159.3665645297
 20
2421.3262991256
 30
0.0
 11
3175.0972733672
 21
2421.3092596478
 31
0.0
  0
LINE
  5
298
  8
0
  6
CONTINUOUS
 62
     7
 10
3222.9258061226
 20
2421.2574781126
 30
0.0
 11
3238.6565149601
 21
2421.2404460854
 31
0.0
  0
LINE
  5
299
  8
0
  6
CONTINUOUS
 62
     7
 10
3238.6565149601
 20
2421.2404460854
 30
0.0
 11
3238.6303038176
 21
2397.0304549879
 31
0.0
  0
POLYLINE
  5
29A
  8
0
  6
CONTINUOUS
 62
     7
 66
     1
 10
0.0
 20
0.0
 30
0.0
  0
VERTEX
  5
93F
  8
0
  6
CONTINUOUS
 62
     7
 10
3173.4406069692
 20
2558.9674980587
 30
0.0
  0
VERTEX
  5
940
  8
0
  6
CONTINUOUS
 62
     7
 10
3173.5422030862
 20
2558.9673788494
 30
0.0
  0
VERTEX
  5
941
  8
0
  6
CONTINUOUS
 62
     7
 10
3173.9921361979
 20
2558.9669020123
 30
0.0
  0
VERTEX
  5
942
  8
0
  6
CONTINUOUS
 62
     7
 10
3174.7953758414
 20
2558.9660228438
 30
0.0
  0
VERTEX
  5
943
  8
0
  6
CONTINUOUS
 62
     7
 10
3175.9406418379
 20
2558.9647860474
 30
0.0
  0
VERTEX
  5
944
  8
0
  6
CONTINUOUS
 62
     7
 10
3177.411878186
 20
2558.9631916231
 30
0.0
  0
VERTEX
  5
945
  8
0
  6
CONTINUOUS
 62
     7
 10
3179.1884095247
 20
2558.9612693733
 30
0.0
  0
VERTEX
  5
946
  8
0
  6
CONTINUOUS
 62
     7
 10
3181.2453136619
 20
2558.9590491003
 30
0.0
  0
VERTEX
  5
947
  8
0
  6
CONTINUOUS
 62
     7
 10
3183.5537046965
 20
2558.9565457052
 30
0.0
  0
VERTEX
  5
948
  8
0
  6
CONTINUOUS
 62
     7
 10
3186.0811800535
 20
2558.9538038916
 30
0.0
  0
VERTEX
  5
949
  8
0
  6
CONTINUOUS
 62
     7
 10
3188.7922675188
 20
2558.9508683628
 30
0.0
  0
VERTEX
  5
94A
  8
0
  6
CONTINUOUS
 62
     7
 10
3191.6488946255
 20
2558.9477838225
 30
0.0
  0
VERTEX
  5
94B
  8
0
  6
CONTINUOUS
 62
     7
 10
3194.6109772499
 20
2558.9445651716
 30
0.0
  0
VERTEX
  5
94C
  8
0
  6
CONTINUOUS
 62
     7
 10
3197.6369262512
 20
2558.9412869162
 30
0.0
  0
VERTEX
  5
94D
  8
0
  6
CONTINUOUS
 62
     7
 10
3200.6842584189
 20
2558.9379937596
 30
0.0
  0
VERTEX
  5
94E
  8
0
  6
CONTINUOUS
 62
     7
 10
3203.7102074202
 20
2558.9347155041
 30
0.0
  0
VERTEX
  5
94F
  8
0
  6
CONTINUOUS
 62
     7
 10
3206.6722900446
 20
2558.9315117544
 30
0.0
  0
VERTEX
  5
950
  8
0
  6
CONTINUOUS
 62
     7
 10
3209.5289171513
 20
2558.9284123129
 30
0.0
  0
VERTEX
  5
951
  8
0
  6
CONTINUOUS
 62
     7
 10
3212.2400046166
 20
2558.9254767842
 30
0.0
  0
VERTEX
  5
952
  8
0
  6
CONTINUOUS
 62
     7
 10
3214.7674799736
 20
2558.9227498717
 30
0.0
  0
VERTEX
  5
953
  8
0
  6
CONTINUOUS
 62
     7
 10
3217.0758784588
 20
2558.9202464766
 30
0.0
  0
VERTEX
  5
954
  8
0
  6
CONTINUOUS
 62
     7
 10
3219.1327751453
 20
2558.9180262036
 30
0.0
  0
VERTEX
  5
955
  8
0
  6
CONTINUOUS
 62
     7
 10
3220.909306484
 20
2558.9160890526
 30
0.0
  0
VERTEX
  5
956
  8
0
  6
CONTINUOUS
 62
     7
 10
3222.3805428322
 20
2558.9145095295
 30
0.0
  0
VERTEX
  5
957
  8
0
  6
CONTINUOUS
 62
     7
 10
3223.5258162792
 20
2558.913257832
 30
0.0
  0
VERTEX
  5
958
  8
0
  6
CONTINUOUS
 62
     7
 10
3224.3290484722
 20
2558.9123935646
 30
0.0
  0
VERTEX
  5
959
  8
0
  6
CONTINUOUS
 62
     7
 10
3224.7789741333
 20
2558.9119018263
 30
0.0
  0
VERTEX
  5
95A
  8
0
  6
CONTINUOUS
 62
     7
 10
3224.8805702503
 20
2558.9117975182
 30
0.0
  0
SEQEND
  5
9A3
  8
0
  6
CONTINUOUS
 62
     7
  0
POLYLINE
  5
29B
  8
0
  6
CONTINUOUS
 62
     7
 66
     1
 10
0.0
 20
0.0
 30
0.0
  0
VERTEX
  5
95B
  8
0
  6
CONTINUOUS
 62
     7
 10
3177.1427706655
 20
2560.9634936995
 30
0.0
  0
VERTEX
  5
95C
  8
0
  6
CONTINUOUS
 62
     7
 10
3177.2445232447
 20
2560.9633744902
 30
0.0
  0
VERTEX
  5
95D
  8
0
  6
CONTINUOUS
 62
     7
 10
3177.6948586877
 20
2560.962897653
 30
0.0
  0
VERTEX
  5
95E
  8
0
  6
CONTINUOUS
 62
     7
 10
3178.4976959999
 20
2560.9620333857
 30
0.0
  0
VERTEX
  5
95F
  8
0
  6
CONTINUOUS
 62
     7
 10
3179.6398551043
 20
2560.9607816881
 30
0.0
  0
VERTEX
  5
960
  8
0
  6
CONTINUOUS
 62
     7
 10
3181.1025754388
 20
2560.9592021651
 30
0.0
  0
VERTEX
  5
961
  8
0
  6
CONTINUOUS
 62
     7
 10
3182.8618437822
 20
2560.9572948164
 30
0.0
  0
VERTEX
  5
962
  8
0
  6
CONTINUOUS
 62
     7
 10
3184.8887742336
 20
2560.9550894446
 30
0.0
  0
VERTEX
  5
963
  8
0
  6
CONTINUOUS
 62
     7
 10
3187.1500850494
 20
2560.9526456541
 30
0.0
  0
VERTEX
  5
964
  8
0
  6
CONTINUOUS
 62
     7
 10
3189.608642536
 20
2560.9499932474
 30
0.0
  0
VERTEX
  5
965
  8
0
  6
CONTINUOUS
 62
     7
 10
3192.2240794476
 20
2560.9471620268
 30
0.0
  0
VERTEX
  5
966
  8
0
  6
CONTINUOUS
 62
     7
 10
3194.9534506376
 20
2560.9442115969
 30
0.0
  0
VERTEX
  5
967
  8
0
  6
CONTINUOUS
 62
     7
 10
3197.7519334133
 20
2560.94117176
 30
0.0
  0
VERTEX
  5
968
  8
0
  6
CONTINUOUS
 62
     7
 10
3200.5735874947
 20
2560.9381021208
 30
0.0
  0
VERTEX
  5
969
  8
0
  6
CONTINUOUS
 62
     7
 10
3203.3720702704
 20
2560.9350920862
 30
0.0
  0
VERTEX
  5
96A
  8
0
  6
CONTINUOUS
 62
     7
 10
3206.1014414604
 20
2560.9321416563
 30
0.0
  0
VERTEX
  5
96B
  8
0
  6
CONTINUOUS
 62
     7
 10
3208.716878372
 20
2560.9293104357
 30
0.0
  0
VERTEX
  5
96C
  8
0
  6
CONTINUOUS
 62
     7
 10
3211.1754358585
 20
2560.9266282267
 30
0.0
  0
VERTEX
  5
96D
  8
0
  6
CONTINUOUS
 62
     7
 10
3213.4367317732
 20
2560.9241844362
 30
0.0
  0
VERTEX
  5
96E
  8
0
  6
CONTINUOUS
 62
     7
 10
3215.4636622246
 20
2560.9219790644
 30
0.0
  0
VERTEX
  5
96F
  8
0
  6
CONTINUOUS
 62
     7
 10
3217.2229380186
 20
2560.9201015181
 30
0.0
  0
VERTEX
  5
970
  8
0
  6
CONTINUOUS
 62
     7
 10
3218.6856658037
 20
2560.9184921927
 30
0.0
  0
VERTEX
  5
971
  8
0
  6
CONTINUOUS
 62
     7
 10
3219.8278249081
 20
2560.9172702975
 30
0.0
  0
VERTEX
  5
972
  8
0
  6
CONTINUOUS
 62
     7
 10
3220.6306547697
 20
2560.9164060301
 30
0.0
  0
VERTEX
  5
973
  8
0
  6
CONTINUOUS
 62
     7
 10
3221.0809976633
 20
2560.9158993906
 30
0.0
  0
VERTEX
  5
974
  8
0
  6
CONTINUOUS
 62
     7
 10
3221.1827427919
 20
2560.9158099837
 30
0.0
  0
SEQEND
  5
9A2
  8
0
  6
CONTINUOUS
 62
     7
  0
ARC
  5
29C
  8
0
  6
CONTINUOUS
 62
     7
 10
3058.8936001833
 20
2312.4350219912
 30
0.0
 40
146.5000000000001
 50
130.3638676716
 51
229.5120551771
  0
ARC
  5
29D
  8
0
  6
CONTINUOUS
 62
     7
 10
3058.8936001833
 20
2312.4350219912
 30
0.0
 40
149.9999999999999
 50
46.9978660275
 51
313.3302894201
  0
LINE
  5
29E
  8
0
  6
CONTINUOUS
 62
     7
 10
2823.8936007793
 20
2327.4350212163
 30
0.0
 11
2823.8936007793
 21
2872.6810933298
 31
0.0
  0
LINE
  5
29F
  8
0
  6
CONTINUOUS
 62
     7
 10
2823.8936007793
 20
1746.1889506525
 30
0.0
 11
2823.8936007793
 21
2297.4350218869
 31
0.0
  0
LINE
  5
2A0
  8
0
  6
CONTINUOUS
 62
     7
 10
2788.8935894545
 20
1746.1889506525
 30
0.0
 11
2788.8935894545
 21
2872.6810933298
 31
0.0
  0
LINE
  5
2A1
  8
0
  6
CONTINUOUS
 62
     7
 10
2909.6454919155
 20
2297.4350218869
 30
0.0
 11
2823.8936007793
 21
2297.4350218869
 31
0.0
  0
LINE
  5
2A2
  8
0
  6
CONTINUOUS
 62
     7
 10
2909.6454919155
 20
2327.4350212163
 30
0.0
 11
2823.8936007793
 21
2327.4350212163
 31
0.0
  0
LINE
  5
2A3
  8
0
  6
CONTINUOUS
 62
     7
 10
3293.8935995873
 20
2327.4350212163
 30
0.0
 11
3293.8935995873
 21
2747.1118391699
 31
0.0
  0
LINE
  5
2A4
  8
0
  6
CONTINUOUS
 62
     7
 10
3293.8935995873
 20
2763.795685882
 30
0.0
 11
3293.8935995873
 21
2813.6808396525
 31
0.0
  0
LINE
  5
2A5
  8
0
  6
CONTINUOUS
 62
     7
 10
3293.8935995873
 20
2838.6808754153
 30
0.0
 11
3293.8935995873
 21
2872.6810933298
 31
0.0
  0
LINE
  5
2A6
  8
0
  6
CONTINUOUS
 62
     7
 10
3293.8935995873
 20
1746.1889506525
 30
0.0
 11
3293.8935995873
 21
2297.4350218869
 31
0.0
  0
LINE
  5
2A7
  8
0
  6
CONTINUOUS
 62
     7
 10
3328.8936109121
 20
1746.1889506525
 30
0.0
 11
3328.8936109121
 21
2757.4536324686
 31
0.0
  0
LINE
  5
2A8
  8
0
  6
CONTINUOUS
 62
     7
 10
3328.8936109121
 20
2774.1374791807
 30
0.0
 11
3328.8936109121
 21
2813.642990703
 31
0.0
  0
LINE
  5
2A9
  8
0
  6
CONTINUOUS
 62
     7
 10
3328.8936109121
 20
2838.6429668612
 30
0.0
 11
3328.8936109121
 21
2872.6810933298
 31
0.0
  0
LINE
  5
2AA
  8
0
  6
CONTINUOUS
 62
     7
 10
3253.9099545057
 20
2327.4350212163
 30
0.0
 11
3293.8935995873
 21
2327.4350212163
 31
0.0
  0
LINE
  5
2AB
  8
0
  6
CONTINUOUS
 62
     7
 10
3253.8774699743
 20
2297.4350218869
 30
0.0
 11
3293.8935995873
 21
2297.4350218869
 31
0.0
  0
LINE
  5
2AC
  8
0
  6
CONTINUOUS
 62
     7
 10
2783.8935942228
 20
2309.4350219912
 30
0.0
 11
2783.8935942228
 21
2865.4350162691
 31
0.0
  0
LINE
  5
2AD
  8
0
  6
CONTINUOUS
 62
     7
 10
2783.8935942228
 20
1753.4350277132
 30
0.0
 11
2783.8935942228
 21
2309.4350219912
 31
0.0
  0
LINE
  5
2AE
  8
0
  6
CONTINUOUS
 62
     7
 10
3333.8936061438
 20
2309.4350219912
 30
0.0
 11
3333.8936061438
 21
2758.9310527987
 31
0.0
  0
LINE
  5
2AF
  8
0
  6
CONTINUOUS
 62
     7
 10
3333.8936061438
 20
2775.6148995108
 30
0.0
 11
3333.8936061438
 21
2813.6375666804
 31
0.0
  0
LINE
  5
2B0
  8
0
  6
CONTINUOUS
 62
     7
 10
3333.8936061438
 20
2838.6375428385
 30
0.0
 11
3333.8936061438
 21
2865.4350162691
 31
0.0
  0
LINE
  5
2B1
  8
0
  6
CONTINUOUS
 62
     7
 10
3333.8936061438
 20
1753.4350277132
 30
0.0
 11
3333.8936061438
 21
2309.4350219912
 31
0.0
  0
LINE
  5
2B2
  8
0
  6
CONTINUOUS
 62
     7
 10
2823.8936007793
 20
2909.3150020785
 30
0.0
 11
2823.8936007793
 21
2872.6810933298
 31
0.0
  0
LINE
  5
2B3
  8
0
  6
CONTINUOUS
 62
     7
 10
2788.8935894545
 20
2872.6810933298
 30
0.0
 11
2788.8935894545
 21
2909.3150020785
 31
0.0
  0
LINE
  5
2B4
  8
0
  6
CONTINUOUS
 62
     7
 10
3293.8935995873
 20
2872.6810933298
 30
0.0
 11
3293.8935995873
 21
2909.3150020785
 31
0.0
  0
LINE
  5
2B5
  8
0
  6
CONTINUOUS
 62
     7
 10
3328.8936109121
 20
2909.3150020785
 30
0.0
 11
3328.8936109121
 21
2872.6810933298
 31
0.0
  0
LINE
  5
2B6
  8
0
  6
CONTINUOUS
 62
     7
 10
3293.8935995873
 20
1709.5550419039
 30
0.0
 11
3293.8935995873
 21
1746.1889506525
 31
0.0
  0
LINE
  5
2B7
  8
0
  6
CONTINUOUS
 62
     7
 10
3328.8936109121
 20
1746.1889506525
 30
0.0
 11
3328.8936109121
 21
1709.5550419039
 31
0.0
  0
LINE
  5
2B8
  8
0
  6
CONTINUOUS
 62
     7
 10
2823.8936007793
 20
1746.1889506525
 30
0.0
 11
2823.8936007793
 21
1709.5550419039
 31
0.0
  0
LINE
  5
2B9
  8
0
  6
CONTINUOUS
 62
     7
 10
2788.8935894545
 20
1709.5550419039
 30
0.0
 11
2788.8935894545
 21
1746.1889506525
 31
0.0
  0
LINE
  5
2BA
  8
0
  6
CONTINUOUS
 62
     7
 10
2788.8935894545
 20
2924.4350315279
 30
0.0
 11
2823.8936007793
 21
2924.4350315279
 31
0.0
  0
LINE
  5
2BB
  8
0
  6
CONTINUOUS
 62
     7
 10
2823.8936007793
 20
2909.3150020785
 30
0.0
 11
2823.8936007793
 21
2924.4350315279
 31
0.0
  0
LINE
  5
2BC
  8
0
  6
CONTINUOUS
 62
     7
 10
2788.8935894545
 20
2909.3150020785
 30
0.0
 11
2788.8935894545
 21
2924.4350315279
 31
0.0
  0
LINE
  5
2BD
  8
0
  6
CONTINUOUS
 62
     7
 10
3293.8935995873
 20
2924.4350315279
 30
0.0
 11
3328.8936109121
 21
2924.4350315279
 31
0.0
  0
LINE
  5
2BE
  8
0
  6
CONTINUOUS
 62
     7
 10
3293.8935995873
 20
2909.3150020785
 30
0.0
 11
3293.8935995873
 21
2924.4350315279
 31
0.0
  0
LINE
  5
2BF
  8
0
  6
CONTINUOUS
 62
     7
 10
3328.8936109121
 20
2909.3150020785
 30
0.0
 11
3328.8936109121
 21
2924.4350315279
 31
0.0
  0
LINE
  5
2C0
  8
0
  6
CONTINUOUS
 62
     7
 10
3328.8936109121
 20
1694.4350124544
 30
0.0
 11
3293.8935995873
 21
1694.4350124544
 31
0.0
  0
LINE
  5
2C1
  8
0
  6
CONTINUOUS
 62
     7
 10
3293.8935995873
 20
1709.5550419039
 30
0.0
 11
3293.8935995873
 21
1694.4350124544
 31
0.0
  0
LINE
  5
2C2
  8
0
  6
CONTINUOUS
 62
     7
 10
3328.8936109121
 20
1709.5550419039
 30
0.0
 11
3328.8936109121
 21
1694.4350124544
 31
0.0
  0
LINE
  5
2C3
  8
0
  6
CONTINUOUS
 62
     7
 10
2823.8936007793
 20
1694.4350124544
 30
0.0
 11
2788.8935894545
 21
1694.4350124544
 31
0.0
  0
LINE
  5
2C4
  8
0
  6
CONTINUOUS
 62
     7
 10
2823.8936007793
 20
1709.5550419039
 30
0.0
 11
2823.8936007793
 21
1694.4350124544
 31
0.0
  0
LINE
  5
2C5
  8
0
  6
CONTINUOUS
 62
     7
 10
2788.8935894545
 20
1709.5550419039
 30
0.0
 11
2788.8935894545
 21
1694.4350124544
 31
0.0
  0
ARC
  5
2C6
  8
0
  6
CONTINUOUS
 62
     7
 10
3282.0615121253
 20
2926.434957657
 30
0.0
 40
11.99991659259809
 50
269.9996405816
 51
350.4062221708
  0
LINE
  5
2C7
  8
0
  6
CONTINUOUS
 62
     7
 10
3281.8936050709
 20
2914.4350410647
 30
0.0
 11
3282.0614368494
 21
2914.4350410647
 31
0.0
  0
LINE
  5
2C8
  8
0
  6
CONTINUOUS
 62
     7
 10
2835.7257635172
 20
2914.4350410647
 30
0.0
 11
2835.8935952957
 21
2914.4350410647
 31
0.0
  0
ARC
  5
2C9
  8
0
  6
CONTINUOUS
 62
     7
 10
2835.7256793611
 20
2926.4349471499
 30
0.0
 40
11.99990608548936
 50
189.5937354289
 51
270.0004018187
  0
LINE
  5
2CA
  8
0
  6
CONTINUOUS
 62
     7
 10
3282.0614368494
 20
1704.4350029177
 30
0.0
 11
3281.8936050709
 21
1704.4350029177
 31
0.0
  0
ARC
  5
2CB
  8
0
  6
CONTINUOUS
 62
     7
 10
3282.0614832025
 20
1692.4350521034
 30
0.0
 40
11.99995081441096
 50
9.593915927
 51
90.0002213206
  0
LINE
  5
2CC
  8
0
  6
CONTINUOUS
 62
     7
 10
2835.8935952957
 20
1704.4350029177
 30
0.0
 11
2835.7257635172
 21
1704.4350029177
 31
0.0
  0
ARC
  5
2CD
  8
0
  6
CONTINUOUS
 62
     7
 10
2835.725704615
 20
1692.4350669517
 30
0.0
 40
11.9999359660969
 50
89.999718761
 51
170.4061439913
  0
CIRCLE
  5
2CE
  8
0
  6
CONTINUOUS
 62
     7
 10
3158.8936001833
 20
2874.4350219912
 30
0.0
 40
17.5
  0
CIRCLE
  5
2CF
  8
0
  6
CONTINUOUS
 62
     7
 10
2958.8936001833
 20
2874.4350219912
 30
0.0
 40
17.5
  0
LINE
  5
2D0
  8
0
  6
CONTINUOUS
 62
     7
 10
3281.8936050709
 20
2914.4350410647
 30
0.0
 11
2835.8935952957
 21
2914.4350410647
 31
0.0
  0
CIRCLE
  5
2D1
  8
0
  6
CONTINUOUS
 62
     7
 10
2958.8936001833
 20
1744.4350219912
 30
0.0
 40
17.5
  0
CIRCLE
  5
2D2
  8
0
  6
CONTINUOUS
 62
     7
 10
3158.8936001833
 20
1744.4350219912
 30
0.0
 40
17.5
  0
LINE
  5
2D3
  8
0
  6
CONTINUOUS
 62
     7
 10
3281.8936050709
 20
1704.4350029177
 30
0.0
 11
2835.8935952957
 21
1704.4350029177
 31
0.0
  0
POLYLINE
  5
2D4
  8
0
  6
CONTINUOUS
 62
     7
 66
     1
 10
0.0
 20
0.0
 30
0.0
  0
VERTEX
  5
975
  8
0
  6
CONTINUOUS
 62
     7
 10
3136.4865020688
 20
2526.9332946486
 30
0.0
  0
VERTEX
  5
976
  8
0
  6
CONTINUOUS
 62
     7
 10
3136.6616503175
 20
2526.9331009335
 30
0.0
  0
VERTEX
  5
977
  8
0
  6
CONTINUOUS
 62
     7
 10
3137.186126488
 20
2526.9325346894
 30
0.0
  0
VERTEX
  5
978
  8
0
  6
CONTINUOUS
 62
     7
 10
3138.0569950517
 20
2526.9315959162
 30
0.0
  0
VERTEX
  5
979
  8
0
  6
CONTINUOUS
 62
     7
 10
3139.2693907793
 20
2526.9302697129
 30
0.0
  0
VERTEX
  5
97A
  8
0
  6
CONTINUOUS
 62
     7
 10
3140.816526192
 20
2526.9286007828
 30
0.0
  0
VERTEX
  5
97B
  8
0
  6
CONTINUOUS
 62
     7
 10
3142.6897437151
 20
2526.9265742249
 30
0.0
  0
VERTEX
  5
97C
  8
0
  6
CONTINUOUS
 62
     7
 10
3144.8785827334
 20
2526.9242049402
 30
0.0
  0
VERTEX
  5
97D
  8
0
  6
CONTINUOUS
 62
     7
 10
3147.3707944925
 20
2526.9215078301
 30
0.0
  0
VERTEX
  5
97E
  8
0
  6
CONTINUOUS
 62
     7
 10
3150.1524389561
 20
2526.9184977955
 30
0.0
  0
VERTEX
  5
97F
  8
0
  6
CONTINUOUS
 62
     7
 10
3153.2079593118
 20
2526.9151897377
 30
0.0
  0
VERTEX
  5
980
  8
0
  6
CONTINUOUS
 62
     7
 10
3156.5202713783
 20
2526.9115985579
 30
0.0
  0
VERTEX
  5
981
  8
0
  6
CONTINUOUS
 62
     7
 10
3160.070860463
 20
2526.9077540583
 30
0.0
  0
VERTEX
  5
982
  8
0
  6
CONTINUOUS
 62
     7
 10
3163.8398558672
 20
2526.9036711401
 30
0.0
  0
VERTEX
  5
983
  8
0
  6
CONTINUOUS
 62
     7
 10
3167.8061798986
 20
2526.8993796057
 30
0.0
  0
VERTEX
  5
984
  8
0
  6
CONTINUOUS
 62
     7
 10
3171.9476596292
 20
2526.8948943562
 30
0.0
  0
VERTEX
  5
985
  8
0
  6
CONTINUOUS
 62
     7
 10
3176.2411312039
 20
2526.8902451939
 30
0.0
  0
VERTEX
  5
986
  8
0
  6
CONTINUOUS
 62
     7
 10
3180.6625888522
 20
2526.8854619211
 30
0.0
  0
VERTEX
  5
987
  8
0
  6
CONTINUOUS
 62
     7
 10
3185.1872891958
 20
2526.8805594391
 30
0.0
  0
VERTEX
  5
988
  8
0
  6
CONTINUOUS
 62
     7
 10
3189.7899449642
 20
2526.8755675501
 30
0.0
  0
VERTEX
  5
989
  8
0
  6
CONTINUOUS
 62
     7
 10
3194.4448144014
 20
2526.8705309576
 30
0.0
  0
VERTEX
  5
98A
  8
0
  6
CONTINUOUS
 62
     7
 10
3199.1258651789
 20
2526.8654645628
 30
0.0
  0
VERTEX
  5
98B
  8
0
  6
CONTINUOUS
 62
     7
 10
3203.8069010552
 20
2526.860398168
 30
0.0
  0
VERTEX
  5
98C
  8
0
  6
CONTINUOUS
 62
     7
 10
3208.4617704924
 20
2526.8553615755
 30
0.0
  0
VERTEX
  5
98D
  8
0
  6
CONTINUOUS
 62
     7
 10
3213.0644262608
 20
2526.8503696865
 30
0.0
  0
VERTEX
  5
98E
  8
0
  6
CONTINUOUS
 62
     7
 10
3217.589134055
 20
2526.8454672045
 30
0.0
  0
VERTEX
  5
98F
  8
0
  6
CONTINUOUS
 62
     7
 10
3222.0105917032
 20
2526.8406839318
 30
0.0
  0
VERTEX
  5
990
  8
0
  6
CONTINUOUS
 62
     7
 10
3226.304063278
 20
2526.8360347695
 30
0.0
  0
VERTEX
  5
991
  8
0
  6
CONTINUOUS
 62
     7
 10
3230.4455430086
 20
2526.8315495199
 30
0.0
  0
VERTEX
  5
992
  8
0
  6
CONTINUOUS
 62
     7
 10
3234.4118744906
 20
2526.8272579855
 30
0.0
  0
VERTEX
  5
993
  8
0
  6
CONTINUOUS
 62
     7
 10
3238.1808698948
 20
2526.8231750674
 30
0.0
  0
VERTEX
  5
994
  8
0
  6
CONTINUOUS
 62
     7
 10
3241.7314440783
 20
2526.8193305678
 30
0.0
  0
VERTEX
  5
995
  8
0
  6
CONTINUOUS
 62
     7
 10
3245.0437635954
 20
2526.8157393879
 30
0.0
  0
VERTEX
  5
996
  8
0
  6
CONTINUOUS
 62
     7
 10
3248.0992914017
 20
2526.8124313301
 30
0.0
  0
VERTEX
  5
997
  8
0
  6
CONTINUOUS
 62
     7
 10
3250.8809358652
 20
2526.8094212956
 30
0.0
  0
VERTEX
  5
998
  8
0
  6
CONTINUOUS
 62
     7
 10
3253.3731401737
 20
2526.8067241854
 30
0.0
  0
VERTEX
  5
999
  8
0
  6
CONTINUOUS
 62
     7
 10
3255.5619866427
 20
2526.8043549008
 30
0.0
  0
VERTEX
  5
99A
  8
0
  6
CONTINUOUS
 62
     7
 10
3257.4351967152
 20
2526.8023283428
 30
0.0
  0
VERTEX
  5
99B
  8
0
  6
CONTINUOUS
 62
     7
 10
3258.9823395784
 20
2526.8006594128
 30
0.0
  0
VERTEX
  5
99C
  8
0
  6
CONTINUOUS
 62
     7
 10
3260.1947278555
 20
2526.7993332094
 30
0.0
  0
VERTEX
  5
99D
  8
0
  6
CONTINUOUS
 62
     7
 10
3261.0655964191
 20
2526.7983944363
 30
0.0
  0
VERTEX
  5
99E
  8
0
  6
CONTINUOUS
 62
     7
 10
3261.5900725897
 20
2526.7978281922
 30
0.0
  0
VERTEX
  5
99F
  8
0
  6
CONTINUOUS
 62
     7
 10
3261.7652208384
 20
2526.7976344771
 30
0.0
  0
VERTEX
  5
9A0
  8
0
  6
CONTINUOUS
 62
     7
 10
3261.7652208384
 20
2526.7976344771
 30
0.0
  0
SEQEND
  5
9A1
  8
0
  6
CONTINUOUS
 62
     7
  0
LINE
  5
2D5
  8
0
  6
CONTINUOUS
 62
     7
 10
3176.5412033375
 20
2453.3077151722
 30
0.0
 11
3176.5065506871
 21
2421.3077397293
 31
0.0
  0
LINE
  5
2D6
  8
0
  6
CONTINUOUS
 62
     7
 10
3221.5511740025
 20
2453.2589883751
 30
0.0
 11
3221.5165288027
 21
2421.2589980311
 31
0.0
  0
LINE
  5
2D7
  8
0
  6
CONTINUOUS
 62
     7
 10
2823.8936007793
 20
2872.6810933298
 30
0.0
 11
2788.8935894545
 21
2872.6810933298
 31
0.0
  0
LINE
  5
2D8
  8
0
  6
CONTINUOUS
 62
     7
 10
2788.8935894545
 20
1746.1889506525
 30
0.0
 11
2823.8936007793
 21
1746.1889506525
 31
0.0
  0
LINE
  5
2D9
  8
0
  6
CONTINUOUS
 62
     7
 10
3328.8936109121
 20
2872.6810933298
 30
0.0
 11
3293.8935995873
 21
2872.6810933298
 31
0.0
  0
LINE
  5
2DA
  8
0
  6
CONTINUOUS
 62
     7
 10
3293.8935995873
 20
1746.1889506525
 30
0.0
 11
3328.8936109121
 21
1746.1889506525
 31
0.0
  0
LINE
  5
2DB
  8
0
  6
CONTINUOUS
 62
     7
 10
2786.8935854013
 20
2309.4350219912
 30
0.0
 11
2786.8935854013
 21
2865.4350162691
 31
0.0
  0
LINE
  5
2DC
  8
0
  6
CONTINUOUS
 62
     7
 10
2786.8935854013
 20
1753.4350277132
 30
0.0
 11
2786.8935854013
 21
2309.4350219912
 31
0.0
  0
LINE
  5
2DD
  8
0
  6
CONTINUOUS
 62
     7
 10
3330.8936149653
 20
2309.4350219912
 30
0.0
 11
3330.8936149653
 21
2758.0446125216
 31
0.0
  0
LINE
  5
2DE
  8
0
  6
CONTINUOUS
 62
     7
 10
3330.8936149653
 20
2774.7284592337
 30
0.0
 11
3330.8936149653
 21
2813.6407853312
 31
0.0
  0
LINE
  5
2DF
  8
0
  6
CONTINUOUS
 62
     7
 10
3330.8936149653
 20
2838.640821094
 30
0.0
 11
3330.8936149653
 21
2865.4350162691
 31
0.0
  0
LINE
  5
2E0
  8
0
  6
CONTINUOUS
 62
     7
 10
3330.8936149653
 20
1753.4350277132
 30
0.0
 11
3330.8936149653
 21
2309.4350219912
 31
0.0
  0
LINE
  5
2E1
  8
0
  6
CONTINUOUS
 62
     7
 10
2835.8935952957
 20
1781.4563037104
 30
0.0
 11
2835.8935952957
 21
2297.4350218869
 31
0.0
  0
ARC
  5
2E2
  8
0
  6
CONTINUOUS
 62
     7
 10
2835.8879524836
 20
1769.4619517367
 30
0.0
 40
11.99435330098936
 50
89.9730448718
 51
179.9704358878
  0
ARC
  5
2E3
  8
0
  6
CONTINUOUS
 62
     7
 10
3281.8997110175
 20
1769.4624153283
 30
0.0
 40
11.99388993632139
 50
0.0273506398
 51
90.0291686005
  0
LINE
  5
2E4
  8
0
  6
CONTINUOUS
 62
     7
 10
3281.8936050709
 20
1781.4563037104
 30
0.0
 11
3281.8936050709
 21
2297.4350218869
 31
0.0
  0
ARC
  5
2E5
  8
0
  6
CONTINUOUS
 62
     7
 10
2835.8874893491
 20
2849.4076286541
 30
0.0
 40
11.99388993632211
 50
180.0273506398
 51
270.0291686005
  0
LINE
  5
2E6
  8
0
  6
CONTINUOUS
 62
     7
 10
2835.8935952957
 20
2327.4350212163
 30
0.0
 11
2835.8935952957
 21
2837.413740272
 31
0.0
  0
ARC
  5
2E7
  8
0
  6
CONTINUOUS
 62
     7
 10
3281.9052163101
 20
2849.4053151775
 30
0.0
 40
11.98838376271853
 50
296.6232266301
 51
359.9836935393
  0
LINE
  5
2E8
  8
0
  6
CONTINUOUS
 62
     7
 10
3281.8936050709
 20
2327.4350212163
 30
0.0
 11
3281.8936050709
 21
2743.5660780615
 31
0.0
  0
LINE
  5
2E9
  8
0
  6
CONTINUOUS
 62
     7
 10
3281.8936050709
 20
2760.2499247736
 30
0.0
 11
3281.8936050709
 21
2813.693833465
 31
0.0
  0
LINE
  5
2EA
  8
0
  6
CONTINUOUS
 62
     7
 10
2855.5972517307
 20
2837.413740272
 30
0.0
 11
2835.8935952957
 21
2837.413740272
 31
0.0
  0
LINE
  5
2EB
  8
0
  6
CONTINUOUS
 62
     7
 10
2835.8935952957
 20
1781.4563037104
 30
0.0
 11
3281.8936050709
 21
1781.4563037104
 31
0.0
  0
LINE
  5
2EC
  8
0
  6
CONTINUOUS
 62
     7
 10
2788.8935894545
 20
2909.3150020785
 30
0.0
 11
2823.8936007793
 21
2909.3150020785
 31
0.0
  0
LINE
  5
2ED
  8
0
  6
CONTINUOUS
 62
     7
 10
3293.8935995873
 20
2909.3150020785
 30
0.0
 11
3328.8936109121
 21
2909.3150020785
 31
0.0
  0
LINE
  5
2EE
  8
0
  6
CONTINUOUS
 62
     7
 10
3328.8936109121
 20
1709.5550419039
 30
0.0
 11
3293.8935995873
 21
1709.5550419039
 31
0.0
  0
LINE
  5
2EF
  8
0
  6
CONTINUOUS
 62
     7
 10
2823.8936007793
 20
1709.5550419039
 30
0.0
 11
2788.8935894545
 21
1709.5550419039
 31
0.0
  0
LINE
  5
2F0
  8
0
  6
CONTINUOUS
 62
     7
 10
3293.8935995873
 20
2849.4019032664
 30
0.0
 11
3281.8936050709
 21
2849.4019032664
 31
0.0
  0
LINE
  5
2F1
  8
0
  6
CONTINUOUS
 62
     7
 10
3281.8936050709
 20
2849.4019032664
 30
0.0
 11
3281.8936050709
 21
2914.4350410647
 31
0.0
  0
LINE
  5
2F2
  8
0
  6
CONTINUOUS
 62
     7
 10
2835.8935952957
 20
2914.4350410647
 30
0.0
 11
2835.8935952957
 21
2849.4019032664
 31
0.0
  0
LINE
  5
2F3
  8
0
  6
CONTINUOUS
 62
     7
 10
2823.8936007793
 20
2849.4019032664
 30
0.0
 11
2835.8935952957
 21
2849.4019032664
 31
0.0
  0
LINE
  5
2F4
  8
0
  6
CONTINUOUS
 62
     7
 10
3281.8936050709
 20
1704.4350029177
 30
0.0
 11
3281.8936050709
 21
1769.468140716
 31
0.0
  0
LINE
  5
2F5
  8
0
  6
CONTINUOUS
 62
     7
 10
3281.8936050709
 20
1769.468140716
 30
0.0
 11
3293.8935995873
 21
1769.468140716
 31
0.0
  0
LINE
  5
2F6
  8
0
  6
CONTINUOUS
 62
     7
 10
2835.8935952957
 20
1769.468140716
 30
0.0
 11
2835.8935952957
 21
1704.4350029177
 31
0.0
  0
LINE
  5
2F7
  8
0
  6
CONTINUOUS
 62
     7
 10
2835.8935952957
 20
1769.468140716
 30
0.0
 11
2823.8936007793
 21
1769.468140716
 31
0.0
  0
LINE
  5
2F8
  8
0
  6
CONTINUOUS
 62
     7
 10
3281.8936050709
 20
2838.6938692278
 30
0.0
 11
3281.8936050709
 21
2849.4019032664
 31
0.0
  0
LINE
  5
2F9
  8
0
  6
CONTINUOUS
 62
     7
 10
2835.8935952957
 20
2837.413740272
 30
0.0
 11
2835.8935952957
 21
2849.4019032664
 31
0.0
  0
LINE
  5
2FA
  8
0
  6
CONTINUOUS
 62
     7
 10
2835.8935952957
 20
1769.468140716
 30
0.0
 11
2835.8935952957
 21
1781.4563037104
 31
0.0
  0
LINE
  5
2FB
  8
0
  6
CONTINUOUS
 62
     7
 10
3281.8936050709
 20
1769.468140716
 30
0.0
 11
3281.8936050709
 21
1781.4563037104
 31
0.0
  0
LINE
  5
2FC
  8
0
  6
CONTINUOUS
 62
     7
 10
2835.8935952957
 20
2849.4019032664
 30
0.0
 11
3281.8936050709
 21
2849.4019032664
 31
0.0
  0
LINE
  5
2FD
  8
0
  6
CONTINUOUS
 62
     7
 10
3281.8936050709
 20
1769.468140716
 30
0.0
 11
2835.8935952957
 21
1769.468140716
 31
0.0
  0
INSERT
  5
309
  8
FORMAT
  2
SW_CENTERMARKSYMBOL_1
 10
3058.8936001833
 20
2312.4350219912
 30
0.0
  0
ENDSEC
  0
EOF
