  0
SECTION
  2
HEADER
  9
$ACADVER
  1
AC1015
  9
$ACADMAINTVER
 70
     6
  9
$DWGCODEPAGE
  3
ANSI_1252
  9
$INSBASE
 10
0.0
 20
0.0
 30
0.0
  9
$EXTMIN
 10
0.0
 20
0.0
 30
0.0
  9
$EXTMAX
 10
431.8
 20
279.4
 30
0.0
  9
$LIMMIN
 10
0.0
 20
0.0
  9
$LIMMAX
 10
431.8
 20
279.4
  9
$ORTHOMODE
 70
     0
  9
$REGENMODE
 70
     1
  9
$FILLMODE
 70
     1
  9
$QTEXTMODE
 70
     0
  9
$MIRRTEXT
 70
     1
  9
$LTSCALE
 40
1.0
  9
$ATTMODE
 70
     1
  9
$TEXTSIZE
 40
2.5
  9
$TRACEWID
 40
1.0
  9
$TEXTSTYLE
  7
Standard
  9
$CLAYER
  8
0
  9
$CELTYPE
  6
ByLayer
  9
$CECOLOR
 62
   256
  9
$CELTSCALE
 40
1.0
  9
$DISPSILH
 70
     0
  9
$DIMSCALE
 40
1.0
  9
$DIMASZ
 40
2.5
  9
$DIMEXO
 40
1.0
  9
$DIMDLI
 40
3.75
  9
$DIMRND
 40
0.0
  9
$DIMDLE
 40
0.0
  9
$DIMEXE
 40
1.0
  9
$DIMTP
 40
0.0
  9
$DIMTM
 40
0.0
  9
$DIMTXT
 40
2.5
  9
$DIMCEN
 40
2.5
  9
$DIMTSZ
 40
0.0
  9
$DIMTOL
 70
     0
  9
$DIMLIM
 70
     0
  9
$DIMTIH
 70
     1
  9
$DIMTOH
 70
     1
  9
$DIMSE1
 70
     0
  9
$DIMSE2
 70
     0
  9
$DIMTAD
 70
     1
  9
$DIMZIN
 70
     0
  9
$DIMBLK
  1

  9
$DIMASO
 70
     1
  9
$DIMSHO
 70
     1
  9
$DIMPOST
  1

  9
$DIMAPOST
  1

  9
$DIMALT
 70
     0
  9
$DIMALTD
 70
     3
  9
$DIMALTF
 40
0.0393700787
  9
$DIMLFAC
 40
1.0
  9
$DIMTOFL
 70
     1
  9
$DIMTVP
 40
0.0
  9
$DIMTIX
 70
     0
  9
$DIMSOXD
 70
     0
  9
$DIMSAH
 70
     0
  9
$DIMBLK1
  1

  9
$DIMBLK2
  1

  9
$DIMSTYLE
  2
ISO-25
  9
$DIMCLRD
 70
     0
  9
$DIMCLRE
 70
     0
  9
$DIMCLRT
 70
     0
  9
$DIMTFAC
 40
1.0
  9
$DIMGAP
 40
1.524
  9
$DIMJUST
 70
     0
  9
$DIMSD1
 70
     0
  9
$DIMSD2
 70
     0
  9
$DIMTOLJ
 70
     0
  9
$DIMTZIN
 70
     0
  9
$DIMALTZ
 70
     0
  9
$DIMALTTZ
 70
     0
  9
$DIMUPT
 70
     0
  9
$DIMDEC
 70
     2
  9
$DIMTDEC
 70
     2
  9
$DIMALTU
 70
     2
  9
$DIMALTTD
 70
     3
  9
$DIMTXSTY
  7
Standard
  9
$DIMAUNIT
 70
     0
  9
$DIMADEC
 70
     2
  9
$DIMALTRND
 40
0.0
  9
$DIMAZIN
 70
     0
  9
$DIMDSEP
 70
    44
  9
$DIMATFIT
 70
     3
  9
$DIMFRAC
 70
     0
  9
$DIMLDRBLK
  1

  9
$DIMLUNIT
 70
     2
  9
$DIMLWD
 70
    -2
  9
$DIMLWE
 70
    -2
  9
$DIMTMOVE
 70
     0
  9
$LUNITS
 70
     2
  9
$LUPREC
 70
     2
  9
$SKETCHINC
 40
1.0
  9
$FILLETRAD
 40
10.0
  9
$AUNITS
 70
     0
  9
$AUPREC
 70
     2
  9
$MENU
  1
.
  9
$ELEVATION
 40
0.0
  9
$PELEVATION
 40
0.0
  9
$THICKNESS
 40
0.0
  9
$LIMCHECK
 70
     0
  9
$CHAMFERA
 40
10.0
  9
$CHAMFERB
 40
10.0
  9
$CHAMFERC
 40
20.0
  9
$CHAMFERD
 40
0.0
  9
$SKPOLY
 70
     0
  9
$TDCREATE
 40
2457199.381029687
  9
$TDUCREATE
 40
2457199.047696354
  9
$TDUPDATE
 40
2457199.381030417
  9
$TDUUPDATE
 40
2457199.047697084
  9
$TDINDWG
 40
0.0000000116
  9
$TDUSRTIMER
 40
0.0000000116
  9
$USRTIMER
 70
     1
  9
$ANGBASE
 50
0.0
  9
$ANGDIR
 70
     0
  9
$PDMODE
 70
     0
  9
$PDSIZE
 40
-1.0
  9
$PLINEWID
 40
0.0
  9
$SPLFRAME
 70
     0
  9
$SPLINETYPE
 70
     6
  9
$SPLINESEGS
 70
     8
  9
$HANDSEED
  5
373
  9
$SURFTAB1
 70
     6
  9
$SURFTAB2
 70
     6
  9
$SURFTYPE
 70
     6
  9
$SURFU
 70
     6
  9
$SURFV
 70
     6
  9
$UCSBASE
  2

  9
$UCSNAME
  2

  9
$UCSORG
 10
0.0
 20
0.0
 30
0.0
  9
$UCSXDIR
 10
1.0
 20
0.0
 30
0.0
  9
$UCSYDIR
 10
0.0
 20
1.0
 30
0.0
  9
$UCSORTHOREF
  2

  9
$UCSORTHOVIEW
 70
     0
  9
$UCSORGTOP
 10
0.0
 20
0.0
 30
0.0
  9
$UCSORGBOTTOM
 10
0.0
 20
0.0
 30
0.0
  9
$UCSORGLEFT
 10
0.0
 20
0.0
 30
0.0
  9
$UCSORGRIGHT
 10
0.0
 20
0.0
 30
0.0
  9
$UCSORGFRONT
 10
0.0
 20
0.0
 30
0.0
  9
$UCSORGBACK
 10
0.0
 20
0.0
 30
0.0
  9
$PUCSBASE
  2

  9
$PUCSNAME
  2

  9
$PUCSORG
 10
0.0
 20
0.0
 30
0.0
  9
$PUCSXDIR
 10
1.0
 20
0.0
 30
0.0
  9
$PUCSYDIR
 10
0.0
 20
1.0
 30
0.0
  9
$PUCSORTHOREF
  2

  9
$PUCSORTHOVIEW
 70
     0
  9
$PUCSORGTOP
 10
0.0
 20
0.0
 30
0.0
  9
$PUCSORGBOTTOM
 10
0.0
 20
0.0
 30
0.0
  9
$PUCSORGLEFT
 10
0.0
 20
0.0
 30
0.0
  9
$PUCSORGRIGHT
 10
0.0
 20
0.0
 30
0.0
  9
$PUCSORGFRONT
 10
0.0
 20
0.0
 30
0.0
  9
$PUCSORGBACK
 10
0.0
 20
0.0
 30
0.0
  9
$USERI1
 70
     0
  9
$USERI2
 70
     0
  9
$USERI3
 70
     0
  9
$USERI4
 70
     0
  9
$USERI5
 70
     0
  9
$USERR1
 40
0.0
  9
$USERR2
 40
0.0
  9
$USERR3
 40
0.0
  9
$USERR4
 40
0.0
  9
$USERR5
 40
0.0
  9
$WORLDVIEW
 70
     1
  9
$SHADEDGE
 70
     3
  9
$SHADEDIF
 70
    70
  9
$TILEMODE
 70
     1
  9
$MAXACTVP
 70
    64
  9
$PINSBASE
 10
0.0
 20
0.0
 30
0.0
  9
$PLIMCHECK
 70
     0
  9
$PEXTMIN
 10
1.0000000000E+20
 20
1.0000000000E+20
 30
1.0000000000E+20
  9
$PEXTMAX
 10
-1.0000000000E+20
 20
-1.0000000000E+20
 30
-1.0000000000E+20
  9
$PLIMMIN
 10
0.0
 20
0.0
  9
$PLIMMAX
 10
420.0
 20
297.0
  9
$UNITMODE
 70
     0
  9
$VISRETAIN
 70
     1
  9
$PLINEGEN
 70
     0
  9
$PSLTSCALE
 70
     1
  9
$TREEDEPTH
 70
  3020
  9
$CMLSTYLE
  2
Standard
  9
$CMLJUST
 70
     0
  9
$CMLSCALE
 40
20.0
  9
$PROXYGRAPHICS
 70
     1
  9
$MEASUREMENT
 70
     1
  9
$CELWEIGHT
370
    -1
  9
$ENDCAPS
280
     0
  9
$JOINSTYLE
280
     0
  9
$LWDISPLAY
290
     1
  9
$INSUNITS
 70
     4
  9
$HYPERLINKBASE
  1

  9
$STYLESHEET
  1

  9
$XEDIT
290
     1
  9
$CEPSNTYPE
380
     0
  9
$PSTYLEMODE
290
     1
  9
$FINGERPRINTGUID
  2
{C8FD4DB0-B95F-42BA-9113-01191CAFCA81}
  9
$VERSIONGUID
  2
{FAEB1C32-E019-11D5-929B-00C0DF256EC4}
  9
$EXTNAMES
290
     1
  9
$PSVPSCALE
 40
0.0
  9
$OLESTARTUP
290
     0
  0
ENDSEC
  0
SECTION
  2
CLASSES
  0
CLASS
  1
ACDBDICTIONARYWDFLT
  2
AcDbDictionaryWithDefault
  3
ObjectDBX Classes
 90
        0
280
     0
281
     0
  0
CLASS
  1
VISUALSTYLE
  2
AcDbVisualStyle
  3
ObjectDBX Classes
 90
     4095
280
     0
281
     0
  0
CLASS
  1
MATERIAL
  2
AcDbMaterial
  3
ObjectDBX Classes
 90
     1153
280
     0
281
     0
  0
CLASS
  1
ACDBPLACEHOLDER
  2
AcDbPlaceHolder
  3
ObjectDBX Classes
 90
        0
280
     0
281
     0
  0
CLASS
  1
LAYOUT
  2
AcDbLayout
  3
ObjectDBX Classes
 90
        0
280
     0
281
     0
  0
ENDSEC
  0
SECTION
  2
TABLES
  0
TABLE
  2
VPORT
  5
8
330
0
100
AcDbSymbolTable
 70
     1
  0
VPORT
  5
29
330
8
100
AcDbSymbolTableRecord
100
AcDbViewportTableRecord
  2
*Active
 70
     0
 10
0.0
 20
0.0
 11
1.0
 21
1.0
 12
215.9
 22
139.7
 13
0.0
 23
0.0
 14
10.0
 24
10.0
 15
10.0
 25
10.0
 16
0.0
 26
0.0
 36
1.0
 17
0.0
 27
0.0
 37
0.0
 40
279.4
 41
1.5454545455
 42
50.0
 43
0.0
 44
0.0
 50
0.0
 51
0.0
 71
     0
 72
  2000
 73
     1
 74
     3
 75
     0
 76
     0
 77
     0
 78
     0
281
     0
 65
     1
110
0.0
120
0.0
130
0.0
111
1.0
121
0.0
131
0.0
112
0.0
122
1.0
132
0.0
 79
     0
146
0.0
  0
ENDTAB
  0
TABLE
  2
LTYPE
  5
5
330
0
100
AcDbSymbolTable
 70
     6
  0
LTYPE
  5
14
330
5
100
AcDbSymbolTableRecord
100
AcDbLinetypeTableRecord
  2
ByBlock
 70
     0
  3

 72
    65
 73
     0
 40
0.0
  0
LTYPE
  5
15
330
5
100
AcDbSymbolTableRecord
100
AcDbLinetypeTableRecord
  2
ByLayer
 70
     0
  3

 72
    65
 73
     0
 40
0.0
  0
LTYPE
  5
16
330
5
100
AcDbSymbolTableRecord
100
AcDbLinetypeTableRecord
  2
Continuous
 70
     0
  3
Solid line
 72
    65
 73
     0
 40
0.0
  0
LTYPE
  5
3F
330
5
100
AcDbSymbolTableRecord
100
AcDbLinetypeTableRecord
  2
HIDDEN
 70
     0
  3
Hidden __ __ __ __ __ __ __ __ __ __ __ __ __ __
 72
    65
 73
     2
 40
1.905
 49
1.27
 74
     0
 49
-0.635
 74
     0
  0
LTYPE
  5
40
330
5
100
AcDbSymbolTableRecord
100
AcDbLinetypeTableRecord
  2
PHANTOM
 70
     0
  3
Phantom ______  __  __  ______  __  __  ______
 72
    65
 73
     6
 40
12.7
 49
6.35
 74
     0
 49
-1.27
 74
     0
 49
1.27
 74
     0
 49
-1.27
 74
     0
 49
1.27
 74
     0
 49
-1.27
 74
     0
  0
LTYPE
  5
41
330
5
100
AcDbSymbolTableRecord
100
AcDbLinetypeTableRecord
  2
CENTER
 70
     0
  3
Center ____ _ ____ _ ____ _ ____ _ ____ _ ____
 72
    65
 73
     4
 40
10.16
 49
6.35
 74
     0
 49
-1.27
 74
     0
 49
1.27
 74
     0
 49
-1.27
 74
     0
  0
LTYPE
  5
42
330
5
100
AcDbSymbolTableRecord
100
AcDbLinetypeTableRecord
  2
CENTERX2
 70
     0
  3
Center (2x) ________  __  ________  __  _____
 72
    65
 73
     4
 40
20.32
 49
12.7
 74
     0
 49
-2.54
 74
     0
 49
2.54
 74
     0
 49
-2.54
 74
     0
  0
LTYPE
  5
43
330
5
100
AcDbSymbolTableRecord
100
AcDbLinetypeTableRecord
  2
DOT2
 70
     0
  3
Dot (.5x) ........................................
 72
    65
 73
     2
 40
0.635
 49
0.0
 74
     0
 49
-0.635
 74
     0
  0
ENDTAB
  0
TABLE
  2
LAYER
  5
2
330
0
100
AcDbSymbolTable
 70
     3
  0
LAYER
  5
10
330
2
100
AcDbSymbolTableRecord
100
AcDbLayerTableRecord
  2
0
 70
     0
 62
     7
  6
Continuous
370
    -3
390
F
  0
LAYER
  5
44
330
2
100
AcDbSymbolTableRecord
100
AcDbLayerTableRecord
  2
FORMAT
 70
     0
 62
     7
  6
Continuous
370
    -3
390
F
  0
LAYER
  5
45
330
2
100
AcDbSymbolTableRecord
100
AcDbLayerTableRecord
  2
PROTOTYPE
 70
     0
 62
     7
  6
Continuous
370
    -3
390
F
  0
ENDTAB
  0
TABLE
  2
STYLE
  5
3
330
0
100
AcDbSymbolTable
 70
     1
  0
STYLE
  5
11
330
3
100
AcDbSymbolTableRecord
100
AcDbTextStyleTableRecord
  2
Standard
 70
     0
 40
0.0
 41
1.0
 50
0.0
 71
     0
 42
2.5
  3
txt
  4

  0
ENDTAB
  0
TABLE
  2
VIEW
  5
6
330
0
100
AcDbSymbolTable
 70
     0
  0
ENDTAB
  0
TABLE
  2
UCS
  5
7
330
0
100
AcDbSymbolTable
 70
     0
  0
ENDTAB
  0
TABLE
  2
APPID
  5
9
330
0
100
AcDbSymbolTable
 70
     1
  0
APPID
  5
12
330
9
100
AcDbSymbolTableRecord
100
AcDbRegAppTableRecord
  2
ACAD
 70
     0
  0
ENDTAB
  0
TABLE
  2
DIMSTYLE
  5
A
330
0
100
AcDbSymbolTable
 70
     1
100
AcDbDimStyleTable
  0
DIMSTYLE
105
27
330
A
100
AcDbSymbolTableRecord
100
AcDbDimStyleTableRecord
  2
ISO-25
 70
     0
 41
2.5
 42
0.625
 43
3.75
 44
1.25
 73
     0
 74
     0
 77
     1
 78
     8
140
2.5
141
2.5
143
0.0393700787
147
0.625
171
     3
172
     1
178
     0
271
     2
272
     2
274
     3
278
    44
283
     0
284
     8
340
11
  0
ENDTAB
  0
TABLE
  2
BLOCK_RECORD
  5
1
330
0
100
AcDbSymbolTable
 70
     2
  0
BLOCK_RECORD
  5
1F
330
1
100
AcDbSymbolTableRecord
100
AcDbBlockTableRecord
  2
*Model_Space
340
22
  0
BLOCK_RECORD
  5
1B
330
1
100
AcDbSymbolTableRecord
100
AcDbBlockTableRecord
  2
*Paper_Space
340
1E
  0
BLOCK_RECORD
  5
23
330
1
100
AcDbSymbolTableRecord
100
AcDbBlockTableRecord
  2
*Paper_Space0
340
26
  0
BLOCK_RECORD
  5
367
330
1
100
AcDbSymbolTableRecord
100
AcDbBlockTableRecord
  2
SW_CENTERMARKSYMBOL_0
340
0
102
{BLKREFS
331
372
102
}
  0
ENDTAB
  0
ENDSEC
  0
SECTION
  2
BLOCKS
  0
BLOCK
  5
20
330
1F
100
AcDbEntity
  8
0
100
AcDbBlockBegin
  2
*Model_Space
 70
     0
 10
0.0
 20
0.0
 30
0.0
  3
*Model_Space
  1

  0
ENDBLK
  5
21
330
1F
100
AcDbEntity
  8
0
100
AcDbBlockEnd
  0
BLOCK
  5
1C
330
1B
100
AcDbEntity
 67
     1
  8
0
100
AcDbBlockBegin
  2
*Paper_Space
 70
     0
 10
0.0
 20
0.0
 30
0.0
  3
*Paper_Space
  1

  0
ENDBLK
  5
1D
330
1B
100
AcDbEntity
 67
     1
  8
0
100
AcDbBlockEnd
  0
BLOCK
  5
24
330
23
100
AcDbEntity
  8
0
100
AcDbBlockBegin
  2
*Paper_Space0
 70
     0
 10
0.0
 20
0.0
 30
0.0
  3
*Paper_Space0
  1

  0
ENDBLK
  5
25
330
23
100
AcDbEntity
  8
0
100
AcDbBlockEnd
  0
BLOCK
  5
368
330
367
100
AcDbEntity
  8
0
100
AcDbBlockBegin
  2
SW_CENTERMARKSYMBOL_0
 70
     0
 10
0.0
 20
0.0
 30
0.0
  3
SW_CENTERMARKSYMBOL_0
  1

  0
LINE
  5
36A
330
367
100
AcDbEntity
  8
0
  6
Continuous
 62
     0
370
     0
100
AcDbLine
 10
0.0
 20
0.0
 30
0.0
 11
0.0
 21
2.5
 31
0.0
  0
LINE
  5
36B
330
367
100
AcDbEntity
  8
0
  6
Continuous
 62
     0
370
     0
100
AcDbLine
 10
0.0
 20
0.0
 30
0.0
 11
-2.5
 21
0.0
 31
0.0
  0
LINE
  5
36C
330
367
100
AcDbEntity
  8
0
  6
Continuous
 62
     0
370
     0
100
AcDbLine
 10
0.0
 20
0.0
 30
0.0
 11
0.0
 21
-2.5
 31
0.0
  0
LINE
  5
36D
330
367
100
AcDbEntity
  8
0
  6
Continuous
 62
     0
370
     0
100
AcDbLine
 10
0.0
 20
0.0
 30
0.0
 11
2.5
 21
0.0
 31
0.0
  0
LINE
  5
36E
330
367
100
AcDbEntity
  8
0
  6
Continuous
 62
     0
370
     0
100
AcDbLine
 10
0.0
 20
5.0
 30
0.0
 11
0.0
 21
156.1120875908
 31
0.0
  0
LINE
  5
36F
330
367
100
AcDbEntity
  8
0
  6
Continuous
 62
     0
370
     0
100
AcDbLine
 10
-5.0
 20
0.0
 30
0.0
 11
-159.2628428288
 21
0.0
 31
0.0
  0
LINE
  5
370
330
367
100
AcDbEntity
  8
0
  6
Continuous
 62
     0
370
     0
100
AcDbLine
 10
0.0
 20
-5.0
 30
0.0
 11
0.0
 21
-157.5106532108
 31
0.0
  0
LINE
  5
371
330
367
100
AcDbEntity
  8
0
  6
Continuous
 62
     0
370
     0
100
AcDbLine
 10
5.0
 20
0.0
 30
0.0
 11
155.2823177987
 21
0.0
 31
0.0
  0
ENDBLK
  5
369
330
367
100
AcDbEntity
  8
0
100
AcDbBlockEnd
  0
ENDSEC
  0
SECTION
  2
ENTITIES
  0
LINE
  5
46
330
1F
100
AcDbEntity
  8
0
  6
Continuous
 62
     7
370
    15
100
AcDbLine
 10
230.9986311236
 20
189.8684619799
 30
0.0
 11
230.9986311236
 21
201.8684611528
 31
0.0
  0
LINE
  5
47
330
1F
100
AcDbEntity
  8
0
  6
Continuous
 62
     7
370
    15
100
AcDbLine
 10
-54.0013653001
 20
201.8684611528
 30
0.0
 11
-54.0013653001
 21
189.8684619799
 31
0.0
  0
LINE
  5
48
330
1F
100
AcDbEntity
  8
0
  6
Continuous
 62
     7
370
    15
100
AcDbLine
 10
230.9986311236
 20
201.8684611528
 30
0.0
 11
180.0689581076
 21
204.5375720471
 31
0.0
  0
LINE
  5
49
330
1F
100
AcDbEntity
  8
0
  6
Continuous
 62
     7
370
    15
100
AcDbLine
 10
-3.0858409366
 20
204.5368307143
 30
0.0
 11
-54.0013653001
 21
201.8684611528
 31
0.0
  0
LINE
  5
4A
330
1F
100
AcDbEntity
  8
0
  6
Continuous
 62
     7
370
    15
100
AcDbLine
 10
156.6119897405
 20
185.8684617899
 30
0.0
 11
156.8216192761
 21
189.8684619799
 31
0.0
  0
LINE
  5
4B
330
1F
100
AcDbEntity
  8
0
  6
Continuous
 62
     7
370
    15
100
AcDbLine
 10
20.1756465474
 20
189.8684619799
 30
0.0
 11
20.3852760831
 21
185.8684617899
 31
0.0
  0
ARC
  5
4C
330
1F
100
AcDbEntity
  8
0
  6
Continuous
 62
     7
370
    15
100
AcDbCircle
 10
182.9986329118
 20
291.4293621326
 30
0.0
 40
3.0
100
AcDbArc
 50
310.0
 51
0.0
  0
ARC
  5
4D
330
1F
100
AcDbEntity
  8
0
  6
Continuous
 62
     7
370
    15
100
AcDbCircle
 10
-6.0013670882
 20
291.4293621326
 30
0.0
 40
3.000000000000004
100
AcDbArc
 50
180.0
 51
230.0
  0
ARC
  5
4E
330
1F
100
AcDbEntity
  8
0
  6
Continuous
 62
     7
370
    15
100
AcDbCircle
 10
183.9986329118
 20
292.2684617638
 30
0.0
 40
2.0
100
AcDbArc
 50
0.0
 51
90.0
  0
ARC
  5
4F
330
1F
100
AcDbEntity
  8
0
  6
Continuous
 62
     7
370
    15
100
AcDbCircle
 10
-7.0013670882
 20
292.2684617638
 30
0.0
 40
2.000000000000003
100
AcDbArc
 50
90.0
 51
180.0
  0
LINE
  5
50
330
1F
100
AcDbEntity
  8
0
  6
Continuous
 62
     7
370
    15
100
AcDbLine
 10
185.9986293355
 20
291.4293591737
 30
0.0
 11
185.9986293355
 21
292.2684584617
 31
0.0
  0
LINE
  5
51
330
1F
100
AcDbEntity
  8
0
  6
Continuous
 62
     7
370
    15
100
AcDbLine
 10
-9.001363512
 20
292.2684584617
 30
0.0
 11
-9.001363512
 21
291.4293591737
 31
0.0
  0
LINE
  5
52
330
1F
100
AcDbEntity
  8
0
  6
Continuous
 62
     7
370
    15
100
AcDbLine
 10
-8.0725592336
 20
298.3684648632
 30
0.0
 11
-7.0013669094
 21
295.2684645414
 31
0.0
  0
LINE
  5
53
330
1F
100
AcDbEntity
  8
0
  6
Continuous
 62
     7
370
    15
100
AcDbLine
 10
183.998632733
 20
295.2684645414
 30
0.0
 11
185.0698250571
 21
298.3684648632
 31
0.0
  0
LINE
  5
54
330
1F
100
AcDbEntity
  8
0
  6
Continuous
 62
     7
370
    15
100
AcDbLine
 10
-7.9297316035
 20
289.1312275886
 30
0.0
 11
0.2833265105
 21
282.2396566033
 31
0.0
  0
LINE
  5
55
330
1F
100
AcDbEntity
  8
0
  6
Continuous
 62
     7
370
    15
100
AcDbLine
 10
176.699798111
 20
282.2277878284
 30
0.0
 11
184.9269974271
 21
289.1312275886
 31
0.0
  0
LINE
  5
56
330
1F
100
AcDbEntity
  8
0
  6
Continuous
 62
     7
370
    15
100
AcDbLine
 10
183.998632733
 20
294.2684625148
 30
0.0
 11
183.998632733
 21
295.2684645414
 31
0.0
  0
LINE
  5
57
330
1F
100
AcDbEntity
  8
0
  6
Continuous
 62
     7
370
    15
100
AcDbLine
 10
-7.0013669094
 20
295.2684645414
 30
0.0
 11
-7.0013669094
 21
294.2684625148
 31
0.0
  0
LINE
  5
58
330
1F
100
AcDbEntity
  8
0
  6
Continuous
 62
     7
370
    15
100
AcDbLine
 10
182.6997953692
 20
329.9180825114
 30
0.0
 11
182.6997953692
 21
332.4180950283
 31
0.0
  0
LINE
  5
59
330
1F
100
AcDbEntity
  8
0
  6
Continuous
 62
     7
370
    15
100
AcDbLine
 10
158.6997988859
 20
332.4180950283
 30
0.0
 11
158.6997988859
 21
329.9180825114
 31
0.0
  0
LINE
  5
5A
330
1F
100
AcDbEntity
  8
0
  6
Continuous
 62
     7
370
    15
100
AcDbLine
 10
18.2833257357
 20
329.9180825114
 30
0.0
 11
18.2833257357
 21
332.4180950283
 31
0.0
  0
LINE
  5
5B
330
1F
100
AcDbEntity
  8
0
  6
Continuous
 62
     7
370
    15
100
AcDbLine
 10
-5.7166707477
 20
332.4180950283
 30
0.0
 11
-5.7166707477
 21
329.9180825114
 31
0.0
  0
LINE
  5
5C
330
1F
100
AcDbEntity
  8
0
  6
Continuous
 62
     7
370
    15
100
AcDbLine
 10
178.8060176412
 20
206.1487004965
 30
0.0
 11
176.699798111
 21
236.2690676808
 31
0.0
  0
LINE
  5
5D
330
1F
100
AcDbEntity
  8
0
  6
Continuous
 62
     7
370
    15
100
AcDbLine
 10
0.2833265105
 20
236.0668253958
 30
0.0
 11
-1.8087518176
 21
206.1487004965
 31
0.0
  0
LINE
  5
5E
330
1F
100
AcDbEntity
  8
0
  6
Continuous
 62
     7
370
    15
100
AcDbLine
 10
178.6997947136
 20
354.9180884718
 30
0.0
 11
178.6997947136
 21
355.4180969357
 31
0.0
  0
LINE
  5
5F
330
1F
100
AcDbEntity
  8
0
  6
Continuous
 62
     7
370
    15
100
AcDbLine
 10
162.6997995416
 20
355.4180969357
 30
0.0
 11
162.6997995416
 21
354.9180884718
 31
0.0
  0
LINE
  5
60
330
1F
100
AcDbEntity
  8
0
  6
Continuous
 62
     7
370
    15
100
AcDbLine
 10
14.28332508
 20
354.9180884718
 30
0.0
 11
14.28332508
 21
355.4180969357
 31
0.0
  0
LINE
  5
61
330
1F
100
AcDbEntity
  8
0
  6
Continuous
 62
     7
370
    15
100
AcDbLine
 10
-1.716670092
 20
355.4180969357
 30
0.0
 11
-1.716670092
 21
354.9180884718
 31
0.0
  0
LINE
  5
62
330
1F
100
AcDbEntity
  8
0
  6
Continuous
 62
     7
370
    15
100
AcDbLine
 10
177.1997991243
 20
355.4180969357
 30
0.0
 11
177.1997991243
 21
366.9180829882
 31
0.0
  0
LINE
  5
63
330
1F
100
AcDbEntity
  8
0
  6
Continuous
 62
     7
370
    15
100
AcDbLine
 10
164.1997951308
 20
366.9180829882
 30
0.0
 11
164.1997951308
 21
355.4180969357
 31
0.0
  0
LINE
  5
64
330
1F
100
AcDbEntity
  8
0
  6
Continuous
 62
     7
370
    15
100
AcDbLine
 10
12.7833294907
 20
355.4180969357
 30
0.0
 11
12.7833294907
 21
366.9180829882
 31
0.0
  0
LINE
  5
65
330
1F
100
AcDbEntity
  8
0
  6
Continuous
 62
     7
370
    15
100
AcDbLine
 10
-0.2166745028
 20
366.9180829882
 30
0.0
 11
-0.2166745028
 21
355.4180969357
 31
0.0
  0
LINE
  5
66
330
1F
100
AcDbEntity
  8
0
  6
Continuous
 62
     7
370
    15
100
AcDbLine
 10
176.699798111
 20
342.4180854916
 30
0.0
 11
176.699798111
 21
354.9180884718
 31
0.0
  0
LINE
  5
67
330
1F
100
AcDbEntity
  8
0
  6
Continuous
 62
     7
370
    15
100
AcDbLine
 10
164.6997961441
 20
354.9180884718
 30
0.0
 11
164.6997961441
 21
342.4180854916
 31
0.0
  0
LINE
  5
68
330
1F
100
AcDbEntity
  8
0
  6
Continuous
 62
     7
370
    15
100
AcDbLine
 10
176.699798111
 20
205.7180904656
 30
0.0
 11
176.699798111
 21
324.9180872797
 31
0.0
  0
LINE
  5
69
330
1F
100
AcDbEntity
  8
0
  6
Continuous
 62
     7
370
    15
100
AcDbLine
 10
164.6997961441
 20
311.7241819262
 30
0.0
 11
164.6997961441
 21
205.7180904656
 31
0.0
  0
LINE
  5
6A
330
1F
100
AcDbEntity
  8
0
  6
Continuous
 62
     7
370
    15
100
AcDbLine
 10
12.2833284775
 20
205.7180904656
 30
0.0
 11
12.2833284775
 21
311.748202598
 31
0.0
  0
LINE
  5
6B
330
1F
100
AcDbEntity
  8
0
  6
Continuous
 62
     7
370
    15
100
AcDbLine
 10
0.2833265105
 20
324.9180872797
 30
0.0
 11
0.2833265105
 21
205.7180904656
 31
0.0
  0
LINE
  5
6C
330
1F
100
AcDbEntity
  8
0
  6
Continuous
 62
     7
370
    15
100
AcDbLine
 10
12.2833284775
 20
342.4180854916
 30
0.0
 11
12.2833284775
 21
354.9180884718
 31
0.0
  0
LINE
  5
6D
330
1F
100
AcDbEntity
  8
0
  6
Continuous
 62
     7
370
    15
100
AcDbLine
 10
0.2833265105
 20
354.9180884718
 30
0.0
 11
0.2833265105
 21
342.4180854916
 31
0.0
  0
LINE
  5
6E
330
1F
100
AcDbEntity
  8
0
  6
Continuous
 62
     7
370
    15
100
AcDbLine
 10
221.8261170426
 20
185.8684617899
 30
0.0
 11
221.8261170426
 21
189.8684619799
 31
0.0
  0
LINE
  5
6F
330
1F
100
AcDbEntity
  8
0
  6
Continuous
 62
     7
370
    15
100
AcDbLine
 10
-44.8288512191
 20
189.8684619799
 30
0.0
 11
-44.8288512191
 21
185.8684617899
 31
0.0
  0
ARC
  5
70
330
1F
100
AcDbEntity
  8
0
  6
Continuous
 62
     7
370
    15
100
AcDbCircle
 10
191.9191999142
 20
300.8684617638
 30
0.0
 40
2.500000000000057
100
AcDbArc
 50
270.0
 51
357.0
  0
ARC
  5
71
330
1F
100
AcDbEntity
  8
0
  6
Continuous
 62
     7
370
    15
100
AcDbCircle
 10
-14.9219340907
 20
300.8684617638
 30
0.0
 40
2.500000000000057
100
AcDbArc
 50
183.0
 51
270.0
  0
LINE
  5
72
330
1F
100
AcDbEntity
  8
0
  6
Continuous
 62
     7
370
    15
100
AcDbLine
 10
-18.4880834779
 20
321.1463947653
 30
0.0
 11
-17.4185079297
 21
300.7376228332
 31
0.0
  0
LINE
  5
73
330
1F
100
AcDbEntity
  8
0
  6
Continuous
 62
     7
370
    15
100
AcDbLine
 10
194.4157737533
 20
300.7376228332
 30
0.0
 11
195.4853493014
 21
321.1463947653
 31
0.0
  0
LINE
  5
74
330
1F
100
AcDbEntity
  8
0
  6
Continuous
 62
     7
370
    15
100
AcDbLine
 10
-11.6863292417
 20
323.6220289826
 30
0.0
 11
-18.4880834779
 21
321.1463947653
 31
0.0
  0
LINE
  5
75
330
1F
100
AcDbEntity
  8
0
  6
Continuous
 62
     7
370
    15
100
AcDbLine
 10
195.4853493014
 20
321.1463947653
 30
0.0
 11
188.6835950652
 21
323.6220289826
 31
0.0
  0
LINE
  5
76
330
1F
100
AcDbEntity
  8
0
  6
Continuous
 62
     7
370
    15
100
AcDbLine
 10
16.7335528174
 20
226.7980796158
 30
0.0
 11
16.7335528174
 21
213.0054660946
 31
0.0
  0
LINE
  5
77
330
1F
100
AcDbEntity
  8
0
  6
Continuous
 62
     7
370
    15
100
AcDbLine
 10
160.2637130061
 20
213.0054660946
 30
0.0
 11
160.2637130061
 21
226.7980796158
 31
0.0
  0
LINE
  5
78
330
1F
100
AcDbEntity
  8
0
  6
Continuous
 62
     7
370
    15
100
AcDbLine
 10
-19.0013688764
 20
185.8684617899
 30
0.0
 11
-16.0013702473
 21
182.8684617638
 31
0.0
  0
LINE
  5
79
330
1F
100
AcDbEntity
  8
0
  6
Continuous
 62
     7
370
    15
100
AcDbLine
 10
192.9986360708
 20
182.8684617638
 30
0.0
 11
195.9986346999
 21
185.8684617899
 31
0.0
  0
LINE
  5
7A
330
1F
100
AcDbEntity
  8
0
  6
Continuous
 62
     7
370
    15
100
AcDbLine
 10
-1.8087518176
 20
206.1516993552
 30
0.0
 11
-1.8087518176
 21
205.7180904656
 31
0.0
  0
LINE
  5
7B
330
1F
100
AcDbEntity
  8
0
  6
Continuous
 62
     7
370
    15
100
AcDbLine
 10
178.8060176412
 20
205.7180904656
 30
0.0
 11
178.8060176412
 21
206.1516993552
 31
0.0
  0
LINE
  5
7C
330
1F
100
AcDbEntity
  8
0
  6
Continuous
 62
     7
370
    15
100
AcDbLine
 10
182.7139365712
 20
329.9180825114
 30
0.0
 11
182.7139365712
 21
332.4180950283
 31
0.0
  0
LINE
  5
7D
330
1F
100
AcDbEntity
  8
0
  6
Continuous
 62
     7
370
    15
100
AcDbLine
 10
178.7139359156
 20
354.9180884718
 30
0.0
 11
178.7139359156
 21
355.4180969357
 31
0.0
  0
LINE
  5
7E
330
1F
100
AcDbEntity
  8
0
  6
Continuous
 62
     7
370
    15
100
AcDbLine
 10
14.297466282
 20
354.9180884718
 30
0.0
 11
14.297466282
 21
355.4180969357
 31
0.0
  0
LINE
  5
7F
330
1F
100
AcDbEntity
  8
0
  6
Continuous
 62
     7
370
    15
100
AcDbLine
 10
177.2139403263
 20
355.4180969357
 30
0.0
 11
177.2139403263
 21
366.9180829882
 31
0.0
  0
LINE
  5
80
330
1F
100
AcDbEntity
  8
0
  6
Continuous
 62
     7
370
    15
100
AcDbLine
 10
12.7974706927
 20
355.4180969357
 30
0.0
 11
12.7974706927
 21
366.9180829882
 31
0.0
  0
LINE
  5
81
330
1F
100
AcDbEntity
  8
0
  6
Continuous
 62
     7
370
    15
100
AcDbLine
 10
176.713939313
 20
236.0668253958
 30
0.0
 11
176.713939313
 21
282.2396566033
 31
0.0
  0
LINE
  5
82
330
1F
100
AcDbEntity
  8
0
  6
Continuous
 62
     7
370
    15
100
AcDbLine
 10
176.713939313
 20
342.4180854916
 30
0.0
 11
176.713939313
 21
354.9180884718
 31
0.0
  0
LINE
  5
83
330
1F
100
AcDbEntity
  8
0
  6
Continuous
 62
     7
370
    15
100
AcDbLine
 10
12.2974696794
 20
342.4180854916
 30
0.0
 11
12.2974696794
 21
354.9180884718
 31
0.0
  0
LINE
  5
84
330
1F
100
AcDbEntity
  8
0
  6
Continuous
 62
     7
370
    15
100
AcDbLine
 10
230.9986311236
 20
189.8684619799
 30
0.0
 11
220.151464943
 21
189.8684619799
 31
0.0
  0
LINE
  5
85
330
1F
100
AcDbEntity
  8
0
  6
Continuous
 62
     7
370
    15
100
AcDbLine
 10
220.151464943
 20
189.8684619799
 30
0.0
 11
143.0310229996
 21
189.8684619799
 31
0.0
  0
LINE
  5
86
330
1F
100
AcDbEntity
  8
0
  6
Continuous
 62
     7
370
    15
100
AcDbLine
 10
33.9662428239
 20
189.8684619799
 30
0.0
 11
-43.1541991195
 21
189.8684619799
 31
0.0
  0
LINE
  5
87
330
1F
100
AcDbEntity
  8
0
  6
Continuous
 62
     7
370
    15
100
AcDbLine
 10
-43.1541991195
 20
189.8684619799
 30
0.0
 11
-54.0013653001
 21
189.8684619799
 31
0.0
  0
LINE
  5
88
330
1F
100
AcDbEntity
  8
0
  6
Continuous
 62
     7
370
    15
100
AcDbLine
 10
-12.2640845141
 20
201.8684611528
 30
0.0
 11
-54.0013653001
 21
201.8684611528
 31
0.0
  0
LINE
  5
89
330
1F
100
AcDbEntity
  8
0
  6
Continuous
 62
     7
370
    15
100
AcDbLine
 10
230.9986311236
 20
201.8684611528
 30
0.0
 11
-12.2640845141
 21
201.8684611528
 31
0.0
  0
LINE
  5
8A
330
1F
100
AcDbEntity
  8
0
  6
Continuous
 62
     7
370
    15
100
AcDbLine
 10
143.0310229996
 20
189.8684619799
 30
0.0
 11
33.9662428239
 21
189.8684619799
 31
0.0
  0
SPLINE
  5
8B
330
1F
100
AcDbEntity
  8
0
  6
Continuous
 62
     7
370
    15
100
AcDbSpline
210
0.0
220
0.0
230
1.0
 70
     8
 71
     3
 72
     8
 73
     4
 74
     0
 42
0.00000001
 43
0.00000001
 12
1.0
 22
0.0
 32
0.0
 13
1.0
 23
0.0
 33
0.0
 40
0.0
 40
0.0
 40
0.0
 40
0.0
 40
1.0
 40
1.0
 40
1.0
 40
1.0
 10
-3.085837387513418
 20
202.8870597124224
 30
0.0
 10
0.0372175252042473
 20
202.8995393019069
 30
0.0
 10
3.160272475444523
 20
202.8995582200341
 30
0.0
 10
6.283327463208393
 20
202.8871161388469
 30
0.0
  0
LINE
  5
8C
330
1F
100
AcDbEntity
  8
0
  6
Continuous
 62
     7
370
    15
100
AcDbLine
 10
6.2833237687
 20
202.8871157079
 30
0.0
 11
15.6524959246
 21
203.5803940951
 31
0.0
  0
SPLINE
  5
8D
330
1F
100
AcDbEntity
  8
0
  6
Continuous
 62
     7
370
    15
100
AcDbSpline
210
0.0
220
0.0
230
1.0
 70
     8
 71
     3
 72
    19
 73
    15
 74
     0
 42
0.00000001
 43
0.00000001
 12
1.0
 22
0.0
 32
0.0
 13
1.0
 23
0.0
 33
0.0
 40
0.0
 40
0.0
 40
0.0
 40
0.0
 40
0.0834971225733143
 40
0.1672317896556296
 40
0.2509655525482772
 40
0.3344630076582989
 40
0.4279224948834373
 40
0.521717263128461
 40
0.6155107210334003
 40
0.7089708006770675
 40
0.8023680758366076
 40
0.8961005267623209
 40
0.9898316487509494
 40
1.0
 40
1.0
 40
1.0
 40
1.0
 10
187.2627469936265
 20
203.8974162995188
 30
0.0
 10
187.0580744204453
 20
203.9084384495314
 30
0.0
 10
186.6481469923898
 20
203.930514106939
 30
0.0
 10
186.0206355136585
 20
203.963302108261
 30
0.0
 10
185.3886430130598
 20
203.9955962300898
 30
0.0
 10
184.729930375966
 20
204.0284204973343
 30
0.0
 10
184.0478108056848
 20
204.0614757522811
 30
0.0
 10
183.3470268375579
 20
204.0943989656041
 30
0.0
 10
182.6581852722288
 20
204.1256998311883
 30
0.0
 10
181.9874751181173
 20
204.1550456699706
 30
0.0
 10
181.338294556411
 20
204.182269329986
 30
0.0
 10
180.7186742196425
 20
204.2068500081287
 30
0.0
 10
180.2942616762272
 20
204.2231253152273
 30
0.0
 10
180.0890423498412
 20
204.2302736202597
 30
0.0
 10
180.0689581075563
 20
204.2309732049076
 30
0.0
  0
SPLINE
  5
8E
330
1F
100
AcDbEntity
  8
0
  6
Continuous
 62
     7
370
    15
100
AcDbSpline
210
0.0
220
0.0
230
1.0
 70
     8
 71
     3
 72
     9
 73
     5
 74
     0
 42
0.00000001
 43
0.00000001
 12
1.0
 22
0.0
 32
0.0
 13
1.0
 23
0.0
 33
0.0
 40
0.0
 40
0.0
 40
0.0
 40
0.0
 40
0.3632147938016054
 40
1.0
 40
1.0
 40
1.0
 40
1.0
 10
180.0689581075563
 20
203.9484322875111
 30
0.0
 10
180.163802170356
 20
203.9423020534353
 30
0.0
 10
180.4249260684411
 20
203.9254243431097
 30
0.0
 10
180.7064228593725
 20
203.9083127248687
 30
0.0
 10
180.8856758514299
 20
203.8974162995188
 30
0.0
  0
LINE
  5
8F
330
1F
100
AcDbEntity
  8
0
  6
Continuous
 62
     7
370
    15
100
AcDbLine
 10
180.8856758514
 20
203.8974162995
 30
0.0
 11
194.6558463612
 21
203.0662854075
 31
0.0
  0
SPLINE
  5
90
330
1F
100
AcDbEntity
  8
0
  6
Continuous
 62
     7
370
    15
100
AcDbSpline
210
0.0
220
0.0
230
1.0
 70
     8
 71
     3
 72
    54
 73
    50
 74
     0
 42
0.00000001
 43
0.00000001
 12
1.0
 22
0.0
 32
0.0
 13
1.0
 23
0.0
 33
0.0
 40
0.0
 40
0.0
 40
0.0
 40
0.0
 40
0.0625000000000009
 40
0.0625000000000009
 40
0.0937500000000007
 40
0.0937500000000007
 40
0.1250000000000005
 40
0.1250000000000005
 40
0.1562500000000003
 40
0.1562500000000003
 40
0.1875000000000001
 40
0.1875000000000001
 40
0.2499999999999996
 40
0.2499999999999996
 40
0.3124999999999991
 40
0.3124999999999991
 40
0.3749999999999986
 40
0.3749999999999986
 40
0.4062499999999984
 40
0.4062499999999984
 40
0.4374999999999982
 40
0.4374999999999982
 40
0.4687499999999979
 40
0.4687499999999979
 40
0.4999999999999977
 40
0.4999999999999977
 40
0.5624999999999982
 40
0.5624999999999982
 40
0.5937499999999982
 40
0.5937499999999982
 40
0.6249999999999982
 40
0.6249999999999982
 40
0.6562499999999982
 40
0.6562499999999982
 40
0.6874999999999982
 40
0.6874999999999982
 40
0.7499999999999984
 40
0.7499999999999984
 40
0.7812499999999986
 40
0.7812499999999986
 40
0.8124999999999987
 40
0.8124999999999987
 40
0.8749999999999989
 40
0.8749999999999989
 40
0.9374999999999991
 40
0.9374999999999991
 40
0.9687499999999996
 40
0.9687499999999996
 40
1.0
 40
1.0
 40
1.0
 40
1.0
 10
194.6558429440404
 20
203.0662855980353
 30
0.0
 10
195.297543327722
 20
203.0275492331217
 30
0.0
 10
195.9704862149762
 20
202.9890963225583
 30
0.0
 10
197.0266442542938
 20
202.9318198299764
 30
0.0
 10
197.3887730354143
 20
202.9126826016064
 30
0.0
 10
198.115195857411
 20
202.8752662586449
 30
0.0
 10
198.4798741311111
 20
202.8569592037249
 30
0.0
 10
199.2120937801872
 20
202.8211122121508
 30
0.0
 10
199.5796352742376
 20
202.8035723349147
 30
0.0
 10
200.3176082843704
 20
202.7692473932742
 30
0.0
 10
200.6898544311701
 20
202.7523827836042
 30
0.0
 10
201.7981141322835
 20
202.7035066574573
 30
0.0
 10
202.5162623566443
 20
202.6735922905178
 30
0.0
 10
203.9122583240564
 20
202.6187661673475
 30
0.0
 10
204.5954423407925
 20
202.5937061581941
 30
0.0
 10
205.8598814001568
 20
202.5507537611635
 30
0.0
 10
206.4483361825172
 20
202.532550679691
 30
0.0
 10
207.2634455367331
 20
202.5101760144907
 30
0.0
 10
207.5216886375273
 20
202.5036097542383
 30
0.0
 10
208.0039560526353
 20
202.4924055675158
 30
0.0
 10
208.2292731479905
 20
202.4877317667006
 30
0.0
 10
208.64854617874
 20
202.4802135727173
 30
0.0
 10
208.8425035806268
 20
202.4773691109442
 30
0.0
 10
209.1982612478317
 20
202.4735489937646
 30
0.0
 10
209.3598734205528
 20
202.4725879375857
 30
0.0
 10
209.7846511274024
 20
202.4725870894011
 30
0.0
 10
209.9930453502272
 20
202.4763329614741
 30
0.0
 10
210.1929705325257
 20
202.487623339099
 30
0.0
 10
210.2406539592976
 20
202.4923761603549
 30
0.0
 10
210.2954913491462
 20
202.5036196341306
 30
0.0
 10
210.3031162591962
 20
202.5101171496496
 30
0.0
 10
210.2795926204367
 20
202.5248428443805
 30
0.0
 10
210.2484432138752
 20
202.5330710251287
 30
0.0
 10
210.1468636275549
 20
202.5512994209454
 30
0.0
 10
210.0758257266034
 20
202.5613679378185
 30
0.0
 10
209.8060255183042
 20
202.5938139945011
 30
0.0
 10
209.5527438772595
 20
202.6183142072013
 30
0.0
 10
209.0648549811267
 20
202.659429142037
 30
0.0
 10
208.8832985312312
 20
202.6739268148226
 30
0.0
 10
208.4858917416345
 20
202.7042102443377
 30
0.0
 10
208.2720650441146
 20
202.719847444074
 30
0.0
 10
207.5866777415309
 20
202.7682338444339
 30
0.0
 10
207.0717036678011
 20
202.8024416989674
 30
0.0
 10
205.9213673100681
 20
202.875076671468
 30
0.0
 10
205.3047792103848
 20
202.9123147920872
 30
0.0
 10
204.3243208517844
 20
202.9693297503343
 30
0.0
 10
203.9879356639027
 20
202.9885427635638
 30
0.0
 10
203.2954681601833
 20
203.0274037273485
 30
0.0
 10
202.9409001716735
 20
203.0469625127134
 30
0.0
 10
202.584723513938
 20
203.0662855980353
 30
0.0
  0
LINE
  5
91
330
1F
100
AcDbEntity
  8
0
  6
Continuous
 62
     7
370
    15
100
AcDbLine
 10
202.5847244302
 20
203.0662854075
 30
0.0
 11
187.2627469936
 21
203.8974162995
 31
0.0
  0
SPLINE
  5
92
330
1F
100
AcDbEntity
  8
0
  6
Continuous
 62
     7
370
    15
100
AcDbSpline
210
0.0
220
0.0
230
1.0
 70
     8
 71
     3
 72
    46
 73
    42
 74
     0
 42
0.00000001
 43
0.00000001
 12
1.0
 22
0.0
 32
0.0
 13
1.0
 23
0.0
 33
0.0
 40
0.0
 40
0.0
 40
0.0
 40
0.0
 40
0.062500000000001
 40
0.062500000000001
 40
0.125000000000002
 40
0.125000000000002
 40
0.187500000000003
 40
0.187500000000003
 40
0.2187500000000031
 40
0.2187500000000031
 40
0.2500000000000033
 40
0.2500000000000033
 40
0.3125000000000038
 40
0.3125000000000038
 40
0.3437500000000041
 40
0.3437500000000041
 40
0.3750000000000043
 40
0.3750000000000043
 40
0.437500000000004
 40
0.437500000000004
 40
0.5000000000000037
 40
0.5000000000000037
 40
0.5625000000000033
 40
0.5625000000000033
 40
0.625000000000003
 40
0.625000000000003
 40
0.6875000000000027
 40
0.6875000000000027
 40
0.7187500000000022
 40
0.7187500000000022
 40
0.7500000000000019
 40
0.7500000000000019
 40
0.8125000000000014
 40
0.8125000000000014
 40
0.8437500000000011
 40
0.8437500000000011
 40
0.8750000000000009
 40
0.8750000000000009
 40
0.9375000000000004
 40
0.9375000000000004
 40
1.0
 40
1.0
 40
1.0
 40
1.0
 10
135.7851460002627
 20
203.8974155111141
 30
0.0
 10
135.5321666232678
 20
203.924032020736
 30
0.0
 10
135.2417115042473
 20
203.9502723764294
 30
0.0
 10
134.5940100416909
 20
204.001513314393
 30
0.0
 10
134.2344402666646
 20
204.026692159745
 30
0.0
 10
133.449991779947
 20
204.0754496720945
 30
0.0
 10
133.0341674517956
 20
204.0984871846054
 30
0.0
 10
132.376252590813
 20
204.131031082265
 30
0.0
 10
132.1512157388696
 20
204.1415414751319
 30
0.0
 10
131.6894583287346
 20
204.161860361841
 30
0.0
 10
131.451508340517
 20
204.1717139183919
 30
0.0
 10
130.7319120259276
 20
204.199680822052
 30
0.0
 10
130.2431986465792
 20
204.2163008748649
 30
0.0
 10
129.4969556556575
 20
204.2381775473079
 30
0.0
 10
129.2459991855545
 20
204.2449579302417
 30
0.0
 10
128.7395553507396
 20
204.2574555340873
 30
0.0
 10
128.483902064949
 20
204.2631684482766
 30
0.0
 10
127.7257190429406
 20
204.2783396400508
 30
0.0
 10
127.2266736567051
 20
204.2859826089617
 30
0.0
 10
126.2412674200203
 20
204.2963114724422
 30
0.0
 10
125.7507778263463
 20
204.2989664935374
 30
0.0
 10
124.8182501129398
 20
204.2989750406926
 30
0.0
 10
124.3728634948932
 20
204.2964071152737
 30
0.0
 10
123.5239157036522
 20
204.2861416552197
 30
0.0
 10
123.1192089304498
 20
204.2783465684103
 30
0.0
 10
122.3843856016375
 20
204.2582182731259
 30
0.0
 10
122.0497968920461
 20
204.2458589052686
 30
0.0
 10
121.5978491453524
 20
204.2239024512457
 30
0.0
 10
121.4550047236936
 20
204.2159683435017
 30
0.0
 10
121.1914136015232
 20
204.1992357608914
 30
0.0
 10
121.0701666978654
 20
204.1904225843694
 30
0.0
 10
120.7373480627854
 20
204.1626946090817
 30
0.0
 10
120.5564476590942
 20
204.1425017150819
 30
0.0
 10
120.3482404847485
 20
204.1096669006941
 30
0.0
 10
120.2896378923479
 20
204.0983012308076
 30
0.0
 10
120.1959890164397
 20
204.0751878883752
 30
0.0
 10
120.1605567977207
 20
204.063384867076
 30
0.0
 10
120.0878735022303
 20
204.0272653490788
 30
0.0
 10
120.0839550340371
 20
204.0022450671142
 30
0.0
 10
120.1688171229614
 20
203.9503136509902
 30
0.0
 10
120.2567429299139
 20
203.9239905037502
 30
0.0
 10
120.3895210483284
 20
203.8974155111141
 30
0.0
  0
LINE
  5
93
330
1F
100
AcDbEntity
  8
0
  6
Continuous
 62
     7
370
    15
100
AcDbLine
 10
120.3895206788
 20
203.8974162995
 30
0.0
 11
124.5415094534
 21
203.0662854075
 31
0.0
  0
SPLINE
  5
94
330
1F
100
AcDbEntity
  8
0
  6
Continuous
 62
     7
370
    15
100
AcDbSpline
210
0.0
220
0.0
230
1.0
 70
     8
 71
     3
 72
    53
 73
    49
 74
     0
 42
0.00000001
 43
0.00000001
 12
1.0
 22
0.0
 32
0.0
 13
1.0
 23
0.0
 33
0.0
 40
0.0
 40
0.0
 40
0.0
 40
0.0
 40
0.0312500000000004
 40
0.0312500000000004
 40
0.0625000000000008
 40
0.0625000000000008
 40
0.1250000000000004
 40
0.1250000000000004
 40
0.15625
 40
0.15625
 40
0.1874999999999996
 40
0.1874999999999996
 40
0.2499999999999999
 40
0.2499999999999999
 40
0.3125000000000003
 40
0.3125000000000003
 40
0.3437500000000005
 40
0.3437500000000005
 40
0.3750000000000007
 40
0.3750000000000007
 40
0.4375000000000011
 40
0.4375000000000011
 40
0.4687500000000014
 40
0.4687500000000014
 40
0.5000000000000017
 40
0.531250000000002
 40
0.531250000000002
 40
0.5625000000000022
 40
0.5625000000000022
 40
0.6250000000000022
 40
0.6250000000000022
 40
0.6562500000000022
 40
0.6562500000000022
 40
0.6875000000000021
 40
0.6875000000000021
 40
0.7187500000000021
 40
0.7187500000000021
 40
0.7500000000000021
 40
0.7500000000000021
 40
0.8125000000000018
 40
0.8125000000000018
 40
0.8750000000000016
 40
0.8750000000000016
 40
0.9375000000000012
 40
0.9375000000000012
 40
0.9687500000000007
 40
0.9687500000000007
 40
1.0
 40
1.0
 40
1.0
 40
1.0
 10
124.5415084809259
 20
203.0662855980353
 30
0.0
 10
124.6376500789688
 20
203.0470377725489
 30
0.0
 10
124.7524748783883
 20
203.0277474167926
 30
0.0
 10
125.0201327693623
 20
202.9890795344925
 30
0.0
 10
125.1740517430469
 20
202.9695928191852
 30
0.0
 10
125.6843958452742
 20
202.9121882710201
 30
0.0
 10
126.0894334123835
 20
202.8751035326002
 30
0.0
 10
126.7930917889177
 20
202.8211503269275
 30
0.0
 10
127.0452921424963
 20
202.8033517642849
 30
0.0
 10
127.5759151281359
 20
202.7688040314946
 30
0.0
 10
127.8530344777181
 20
202.7521219857164
 30
0.0
 10
128.7188123349363
 20
202.7037674676702
 30
0.0
 10
129.3426580260478
 20
202.6737208203275
 30
0.0
 10
130.680730440493
 20
202.6182967693202
 30
0.0
 10
131.3730095792916
 20
202.5938122396892
 30
0.0
 10
132.4450539609948
 20
202.5616114040218
 30
0.0
 10
132.808054039691
 20
202.5516389325007
 30
0.0
 10
133.5457357005747
 20
202.5332450802665
 30
0.0
 10
133.9168915439048
 20
202.5249190924357
 30
0.0
 10
135.0235597959988
 20
202.5027605287108
 30
0.0
 10
135.7579916996359
 20
202.4915720903928
 30
0.0
 10
136.854519047558
 20
202.4801901851466
 30
0.0
 10
137.2187592686962
 20
202.4773225689269
 30
0.0
 10
137.9281263288627
 20
202.4735380840481
 30
0.0
 10
138.6228644171168
 20
202.4716521664139
 30
0.0
 10
139.2887322341447
 20
202.4735084173243
 30
0.0
 10
139.9398669104446
 20
202.4772767150667
 30
0.0
 10
140.2592706961194
 20
202.4801420473912
 30
0.0
 10
141.1733235088363
 20
202.4914573363406
 30
0.0
 10
141.7310278988886
 20
202.5026003562333
 30
0.0
 10
142.4904759642456
 20
202.5247667332675
 30
0.0
 10
142.73197261601
 20
202.5331318101727
 30
0.0
 10
143.1795929867045
 20
202.5514461925833
 30
0.0
 10
143.3860753038242
 20
202.5613857558941
 30
0.0
 10
143.7652531990973
 20
202.5828117229078
 30
0.0
 10
143.9379471487522
 20
202.5942981534974
 30
0.0
 10
144.2492611785819
 20
202.6188544734329
 30
0.0
 10
144.388427146239
 20
202.631989421848
 30
0.0
 10
144.7487684487838
 20
202.6734513981817
 30
0.0
 10
144.9107236062427
 20
202.7033861787724
 30
0.0
 10
145.0825534158482
 20
202.7679077255156
 30
0.0
 10
145.0904221677305
 20
202.802864502605
 30
0.0
 10
144.9493134585482
 20
202.8746530042079
 30
0.0
 10
144.8024942572994
 20
202.911753538497
 30
0.0
 10
144.4647296757554
 20
202.9693487025893
 30
0.0
 10
144.3328581215404
 20
202.9887640376336
 30
0.0
 10
144.0347160775831
 20
203.0274851082979
 30
0.0
 10
143.8679865992229
 20
203.0468719657013
 30
0.0
 10
143.6835194872092
 20
203.0662855980353
 30
0.0
  0
LINE
  5
95
330
1F
100
AcDbEntity
  8
0
  6
Continuous
 62
     7
370
    15
100
AcDbLine
 10
143.6835187713
 20
203.0662854075
 30
0.0
 11
135.7851471046
 21
203.8974162995
 31
0.0
  0
SPLINE
  5
96
330
1F
100
AcDbEntity
  8
0
  6
Continuous
 62
     7
370
    15
100
AcDbSpline
210
0.0
220
0.0
230
1.0
 70
     8
 71
     3
 72
    48
 73
    44
 74
     0
 42
0.00000001
 43
0.00000001
 12
1.0
 22
0.0
 32
0.0
 13
1.0
 23
0.0
 33
0.0
 40
0.0
 40
0.0
 40
0.0
 40
0.0
 40
0.0625000000000006
 40
0.0625000000000006
 40
0.0937500000000009
 40
0.0937500000000009
 40
0.1250000000000012
 40
0.1250000000000012
 40
0.1875000000000017
 40
0.1875000000000017
 40
0.2500000000000023
 40
0.2500000000000023
 40
0.3125000000000028
 40
0.3125000000000028
 40
0.3750000000000033
 40
0.3750000000000033
 40
0.4375000000000038
 40
0.4375000000000038
 40
0.4687500000000032
 40
0.4687500000000032
 40
0.5000000000000027
 40
0.5000000000000027
 40
0.5625000000000022
 40
0.5625000000000022
 40
0.5937500000000021
 40
0.5937500000000021
 40
0.6250000000000021
 40
0.6250000000000021
 40
0.6875000000000029
 40
0.6875000000000029
 40
0.7500000000000036
 40
0.7500000000000036
 40
0.7812500000000032
 40
0.7812500000000032
 40
0.8125000000000029
 40
0.8125000000000029
 40
0.8750000000000024
 40
0.8750000000000024
 40
0.9062500000000019
 40
0.9062500000000019
 40
0.9375000000000012
 40
0.9375000000000012
 40
1.0
 40
1.0
 40
1.0
 40
1.0
 10
56.60774477520478
 20
203.8974155111141
 30
0.0
 10
56.74028934342581
 20
203.9239437596425
 30
0.0
 10
56.82734328514707
 20
203.9500426200488
 30
0.0
 10
56.8912355184041
 20
203.9885400753251
 30
0.0
 10
56.90135071979338
 20
204.0012631701663
 30
0.0
 10
56.89864762415006
 20
204.0264778298497
 30
0.0
 10
56.88566789351013
 20
204.0389724905942
 30
0.0
 10
56.81299155119611
 20
204.0753337052159
 30
0.0
 10
56.71996377408362
 20
204.0983501222078
 30
0.0
 10
56.44565940423707
 20
204.1418648698793
 30
0.0
 10
56.2618295171908
 20
204.1625150620453
 30
0.0
 10
55.81684365137063
 20
204.1996284069249
 30
0.0
 10
55.55558489204531
 20
204.2162566978518
 30
0.0
 10
54.95535733310099
 20
204.2455331880083
 30
0.0
 10
54.61390003976751
 20
204.2581852361645
 30
0.0
 10
53.87878095389894
 20
204.2783318249236
 30
0.0
 10
53.48252162058983
 20
204.2859934341532
 30
0.0
 10
52.84444862989091
 20
204.2937644411468
 30
0.0
 10
52.62330909915824
 20
204.2957339467561
 30
0.0
 10
52.17395244025101
 20
204.2983317598449
 30
0.0
 10
51.94528477049717
 20
204.2989729589645
 30
0.0
 10
51.2475877037481
 20
204.2989663825021
 30
0.0
 10
50.76695928279942
 20
204.2964026128956
 30
0.0
 10
50.02213470153892
 20
204.2886308572327
 30
0.0
 10
49.76997680369403
 20
204.2853753737305
 30
0.0
 10
49.26789354199337
 20
204.2776862990881
 30
0.0
 10
49.01668615108481
 20
204.2732410950498
 30
0.0
 10
48.2625746987262
 20
204.258147771889
 30
0.0
 10
47.75918547722191
 20
204.2457554666605
 30
0.0
 10
46.7510559431841
 20
204.2162237237931
 30
0.0
 10
46.26040587432836
 20
204.1994917118502
 30
0.0
 10
45.54677925453503
 20
204.1717520296691
 30
0.0
 10
45.31247429872556
 20
204.1620570852177
 30
0.0
 10
44.85110478618309
 20
204.1417723508456
 30
0.0
 10
44.62303675493506
 20
204.1311320955088
 30
0.0
 10
43.95760880490806
 20
204.0982138004499
 30
0.0
 10
43.54232836613991
 20
204.0751449827892
 30
0.0
 10
42.96055606809752
 20
204.0389807710822
 30
0.0
 10
42.77353253704635
 20
204.0266639720782
 30
0.0
 10
42.41357028922749
 20
204.001504762215
 30
0.0
 10
42.24000052109082
 20
203.9886066397973
 30
0.0
 10
41.75040130523535
 20
203.9498469587478
 30
0.0
 10
41.46242016866216
 20
203.9237501540033
 30
0.0
 10
41.21211982327054
 20
203.8974155111141
 30
0.0
  0
LINE
  5
97
330
1F
100
AcDbEntity
  8
0
  6
Continuous
 62
     7
370
    15
100
AcDbLine
 10
41.2121187189
 20
203.8974162995
 30
0.0
 11
33.3137470523
 21
203.0662854075
 31
0.0
  0
SPLINE
  5
98
330
1F
100
AcDbEntity
  8
0
  6
Continuous
 62
     7
370
    15
100
AcDbSpline
210
0.0
220
0.0
230
1.0
 70
     8
 71
     3
 72
    54
 73
    50
 74
     0
 42
0.00000001
 43
0.00000001
 12
1.0
 22
0.0
 32
0.0
 13
1.0
 23
0.0
 33
0.0
 40
0.0
 40
0.0
 40
0.0
 40
0.0
 40
0.062500000000001
 40
0.062500000000001
 40
0.0937500000000009
 40
0.0937500000000009
 40
0.1250000000000008
 40
0.1250000000000008
 40
0.1562500000000006
 40
0.1562500000000006
 40
0.1875000000000005
 40
0.1875000000000005
 40
0.2500000000000003
 40
0.2500000000000003
 40
0.3125
 40
0.3125
 40
0.3749999999999998
 40
0.3749999999999998
 40
0.4062499999999997
 40
0.4062499999999997
 40
0.4374999999999996
 40
0.4374999999999996
 40
0.4687499999999995
 40
0.4687499999999995
 40
0.4999999999999994
 40
0.4999999999999994
 40
0.562499999999999
 40
0.562499999999999
 40
0.5937499999999991
 40
0.5937499999999991
 40
0.6249999999999991
 40
0.6249999999999991
 40
0.6562499999999992
 40
0.6562499999999992
 40
0.6874999999999993
 40
0.6874999999999993
 40
0.7499999999999992
 40
0.7499999999999992
 40
0.7812499999999992
 40
0.7812499999999992
 40
0.8124999999999991
 40
0.8124999999999991
 40
0.874999999999999
 40
0.874999999999999
 40
0.937499999999999
 40
0.937499999999999
 40
0.9687499999999994
 40
0.9687499999999994
 40
1.0
 40
1.0
 40
1.0
 40
1.0
 10
33.31374633632392
 20
203.0662855980353
 30
0.0
 10
32.94567583603854
 20
203.0275492331217
 30
0.0
 10
32.64929571453857
 20
202.9890963225583
 30
0.0
 10
32.31198841413907
 20
202.9318198299764
 30
0.0
 10
32.21721911145975
 20
202.9126826016064
 30
0.0
 10
32.06811753990238
 20
202.8752662586449
 30
0.0
 10
32.0133665268427
 20
202.8569592037249
 30
0.0
 10
31.94252123290483
 20
202.8211122121508
 30
0.0
 10
31.92642853603515
 20
202.8035723349147
 30
0.0
 10
31.93327627514875
 20
202.7692473932742
 30
0.0
 10
31.95644756681649
 20
202.7523827836042
 30
0.0
 10
32.0854569153306
 20
202.7035066574573
 30
0.0
 10
32.2481546240084
 20
202.6735922905178
 30
0.0
 10
32.72289054318787
 20
202.6187661673475
 30
0.0
 10
33.03971566122205
 20
202.5937061581941
 30
0.0
 10
33.79884610694522
 20
202.5507537611635
 30
0.0
 10
34.24218882187998
 20
202.532550679691
 30
0.0
 10
35.0056696082455
 20
202.5101760144907
 30
0.0
 10
35.27502713213769
 20
202.5036097542383
 30
0.0
 10
35.83449660474459
 20
202.4924055675158
 30
0.0
 10
36.12579689660927
 20
202.4877317667006
 30
0.0
 10
36.73132949181208
 20
202.4802135727173
 30
0.0
 10
37.0455607230561
 20
202.4773691109442
 30
0.0
 10
37.69753713427893
 20
202.4735489937646
 30
0.0
 10
38.03561982998647
 20
202.4725879375857
 30
0.0
 10
39.06107797371906
 20
202.4725870894011
 30
0.0
 10
39.76731677559281
 20
202.4763329614741
 30
0.0
 10
40.86071987634524
 20
202.487623339099
 30
0.0
 10
41.23277512787033
 20
202.4923761603549
 30
0.0
 10
41.97211302955463
 20
202.5036196341306
 30
0.0
 10
42.34090629719945
 20
202.5101171496496
 30
0.0
 10
43.07677717178502
 20
202.5248428443805
 30
0.0
 10
43.44385474152681
 20
202.5330710251287
 30
0.0
 10
44.17627138770146
 20
202.5512994209453
 30
0.0
 10
44.54378895619478
 20
202.5613679378185
 30
0.0
 10
45.62494224887877
 20
202.5938139945011
 30
0.0
 10
46.31625888574778
 20
202.6183142072013
 30
0.0
 10
47.30991500301948
 20
202.659429142037
 30
0.0
 10
47.63507235084973
 20
202.6739268148226
 30
0.0
 10
48.26473168253886
 20
202.7042102443377
 30
0.0
 10
48.5663375056853
 20
202.719847444074
 30
0.0
 10
49.43276026204865
 20
202.7682338444339
 30
0.0
 10
49.95961420875925
 20
202.8024416989674
 30
0.0
 10
50.90803797892151
 20
202.875076671468
 30
0.0
 10
51.31381893031027
 20
202.9123147920872
 30
0.0
 10
51.82096278561369
 20
202.9693297503343
 30
0.0
 10
51.97312817611964
 20
202.9885427635638
 30
0.0
 10
52.24269482111976
 20
203.0274037273485
 30
0.0
 10
52.35923982673091
 20
203.0469625127134
 30
0.0
 10
52.45575734260716
 20
203.0662855980353
 30
0.0
  0
LINE
  5
99
330
1F
100
AcDbEntity
  8
0
  6
Continuous
 62
     7
370
    15
100
AcDbLine
 10
52.4557563702
 20
203.0662854075
 30
0.0
 11
56.6077451447
 21
203.8974162995
 31
0.0
  0
SPLINE
  5
9A
330
1F
100
AcDbEntity
  8
0
  6
Continuous
 62
     7
370
    15
100
AcDbSpline
210
0.0
220
0.0
230
1.0
 70
     8
 71
     3
 72
    10
 73
     6
 74
     0
 42
0.00000001
 43
0.00000001
 12
1.0
 22
0.0
 32
0.0
 13
1.0
 23
0.0
 33
0.0
 40
0.0
 40
0.0
 40
0.0
 40
0.0
 40
0.086448594073633
 40
0.8215168674836696
 40
0.9999999999999999
 40
0.9999999999999999
 40
0.9999999999999999
 40
0.9999999999999999
 10
-3.888410027896
 20
203.8974162995188
 30
0.0
 10
-3.864399638647611
 20
203.8988677723777
 30
0.0
 10
-3.636230054471459
 20
203.912661049747
 30
0.0
 10
-3.361649369072572
 20
203.9295000639908
 30
0.0
 10
-3.130919321254727
 20
203.9445853706936
 30
0.0
 10
-3.085840936575962
 20
203.947532629904
 30
0.0
  0
SPLINE
  5
9B
330
1F
100
AcDbEntity
  8
0
  6
Continuous
 62
     7
370
    15
100
AcDbSpline
210
0.0
220
0.0
230
1.0
 70
     8
 71
     3
 72
    18
 73
    14
 74
     0
 42
0.00000001
 43
0.00000001
 12
1.0
 22
0.0
 32
0.0
 13
1.0
 23
0.0
 33
0.0
 40
0.0
 40
0.0
 40
0.0
 40
0.0
 40
0.0545640814525119
 40
0.1479316502322019
 40
0.2416315472081105
 40
0.3353324842584784
 40
0.4287008071398367
 40
0.5221931545233983
 40
0.6160201975648582
 40
0.7098460073567088
 40
0.8033392762798169
 40
0.901669917169334
 40
1.0
 40
1.0
 40
1.0
 40
1.0
 10
-3.085840936575962
 20
204.2303585320084
 30
0.0
 10
-3.196005631086671
 20
204.2264101808195
 30
0.0
 10
-3.494679128788189
 20
204.2157055910689
 30
0.0
 10
-4.020803191853883
 20
204.1951405328341
 30
0.0
 10
-4.65457039472468
 20
204.1692619630545
 30
0.0
 10
-5.313746321842075
 20
204.1410270730999
 30
0.0
 10
-5.991443489671261
 20
204.1108357733566
 30
0.0
 10
-6.684589183954218
 20
204.078805659526
 30
0.0
 10
-7.388431603414028
 20
204.0452175451272
 30
0.0
 10
-8.097082534624864
 20
204.0103890509102
 30
0.0
 10
-8.816588696889768
 20
203.9739988060999
 30
0.0
 10
-9.543049251354448
 20
203.9362784045742
 30
0.0
 10
-10.02467098607494
 20
203.910370310031
 30
0.0
 10
-10.26548117009266
 20
203.8974162995188
 30
0.0
  0
LINE
  5
9C
330
1F
100
AcDbEntity
  8
0
  6
Continuous
 62
     7
370
    15
100
AcDbLine
 10
-10.2654811701
 20
203.8974162995
 30
0.0
 11
-25.5874586066
 21
203.0662854075
 31
0.0
  0
SPLINE
  5
9D
330
1F
100
AcDbEntity
  8
0
  6
Continuous
 62
     7
370
    15
100
AcDbSpline
210
0.0
220
0.0
230
1.0
 70
     8
 71
     3
 72
    53
 73
    49
 74
     0
 42
0.00000001
 43
0.00000001
 12
1.0
 22
0.0
 32
0.0
 13
1.0
 23
0.0
 33
0.0
 40
0.0
 40
0.0
 40
0.0
 40
0.0
 40
0.0312499999999993
 40
0.0312499999999993
 40
0.0624999999999987
 40
0.0624999999999987
 40
0.1249999999999987
 40
0.1249999999999987
 40
0.1562499999999987
 40
0.1562499999999987
 40
0.1874999999999987
 40
0.1874999999999987
 40
0.2499999999999982
 40
0.2499999999999982
 40
0.3124999999999978
 40
0.3124999999999978
 40
0.3437499999999976
 40
0.3437499999999976
 40
0.3749999999999973
 40
0.3749999999999973
 40
0.4374999999999962
 40
0.4374999999999962
 40
0.4687499999999957
 40
0.4687499999999957
 40
0.4999999999999951
 40
0.5312499999999946
 40
0.5312499999999946
 40
0.562499999999994
 40
0.562499999999994
 40
0.6249999999999941
 40
0.6249999999999941
 40
0.6562499999999943
 40
0.6562499999999943
 40
0.6874999999999946
 40
0.6874999999999946
 40
0.7187499999999948
 40
0.7187499999999948
 40
0.749999999999995
 40
0.749999999999995
 40
0.8124999999999966
 40
0.8124999999999966
 40
0.8749999999999981
 40
0.8749999999999981
 40
0.9374999999999997
 40
0.9374999999999997
 40
0.9687499999999998
 40
0.9687499999999998
 40
1.0
 40
1.0
 40
1.0
 40
1.0
 10
-25.58745769040409
 20
203.0662855980353
 30
0.0
 10
-25.94224710608042
 20
203.0470377725489
 30
0.0
 10
-26.29198698119883
 20
203.0277474167926
 30
0.0
 10
-26.98119413058463
 20
202.9890795344925
 30
0.0
 10
-27.32250279294512
 20
202.9695928191852
 30
0.0
 10
-28.30974555038164
 20
202.9121882710201
 30
0.0
 10
-28.92349005888177
 20
202.8751035326002
 30
0.0
 10
-29.77823666691327
 20
202.8211503269275
 30
0.0
 10
-30.05350010220326
 20
202.8033517642849
 30
0.0
 10
-30.57365446966724
 20
202.7688040314946
 30
0.0
 10
-30.81762560727325
 20
202.7521219857164
 30
0.0
 10
-31.50258759460793
 20
202.7037674676702
 30
0.0
 10
-31.89773132102029
 20
202.6737208203275
 30
0.0
 10
-32.5559484089977
 20
202.6182967693202
 30
0.0
 10
-32.80852575156646
 20
202.5938122396892
 30
0.0
 10
-33.07665826519946
 20
202.5616114040218
 30
0.0
 10
-33.14742323749525
 20
202.5516389325007
 30
0.0
 10
-33.25048226580441
 20
202.5332450802665
 30
0.0
 10
-33.28211798620637
 20
202.5249190924357
 30
0.0
 10
-33.3177753924928
 20
202.5027605287108
 30
0.0
 10
-33.26403264786536
 20
202.4915720903928
 30
0.0
 10
-33.06485954260719
 20
202.4801901851466
 30
0.0
 10
-32.97830492922733
 20
202.4773225689269
 30
0.0
 10
-32.76937665095477
 20
202.4735380840481
 30
0.0
 10
-32.52394174052406
 20
202.4716521664139
 30
0.0
 10
-32.2064610105863
 20
202.4735084173243
 30
0.0
 10
-31.85221369503736
 20
202.4772767150667
 30
0.0
 10
-31.65564468539509
 20
202.4801420473912
 30
0.0
 10
-31.02349822401311
 20
202.4914573363406
 30
0.0
 10
-30.5430299202219
 20
202.5026003562333
 30
0.0
 10
-29.73421638443116
 20
202.5247667332675
 30
0.0
 10
-29.44793924751612
 20
202.5331318101727
 30
0.0
 10
-28.85566828857188
 20
202.5514461925833
 30
0.0
 10
-28.54973823981491
 20
202.561385755894
 30
0.0
 10
-27.91878094369965
 20
202.5828117229078
 30
0.0
 10
-27.59375277421626
 20
202.5942981534974
 30
0.0
 10
-26.92443775630225
 20
202.6188544734329
 30
0.0
 10
-26.57850105621455
 20
202.631989421848
 30
0.0
 10
-25.52218746075398
 20
202.6734513981817
 30
0.0
 10
-24.80394511615536
 20
202.7033861787724
 30
0.0
 10
-23.3402026173911
 20
202.7679077255156
 30
0.0
 10
-22.58775270219145
 20
202.802864502605
 30
0.0
 10
-21.12099932668608
 20
202.8746530042079
 30
0.0
 10
-20.3998861107985
 20
202.911753538497
 30
0.0
 10
-19.33712047433073
 20
202.9693487025893
 30
0.0
 10
-18.98814771756727
 20
202.9887640376336
 30
0.0
 10
-18.31043041585537
 20
203.0274851082979
 30
0.0
 10
-17.98018022769399
 20
203.0468719657013
 30
0.0
 10
-17.65857712050649
 20
203.0662855980353
 30
0.0
  0
LINE
  5
9E
330
1F
100
AcDbEntity
  8
0
  6
Continuous
 62
     7
370
    15
100
AcDbLine
 10
-17.6585805377
 20
203.0662854075
 30
0.0
 11
-3.8884100279
 21
203.8974162995
 31
0.0
  0
LINE
  5
9F
330
1F
100
AcDbEntity
  8
0
  6
Continuous
 62
     7
370
    15
100
AcDbLine
 10
15.6524959246
 20
203.8049434184
 30
0.0
 11
26.4914515654
 21
204.6080247372
 31
0.0
  0
SPLINE
  5
A0
330
1F
100
AcDbEntity
  8
0
  6
Continuous
 62
     7
370
    15
100
AcDbSpline
210
0.0
220
0.0
230
1.0
 70
     8
 71
     3
 72
    18
 73
    14
 74
     0
 42
0.00000001
 43
0.00000001
 12
1.0
 22
0.0
 32
0.0
 13
1.0
 23
0.0
 33
0.0
 40
0.0
 40
0.0
 40
0.0
 40
0.0
 40
0.2500000000000013
 40
0.2500000000000013
 40
0.3750000000000011
 40
0.3750000000000011
 40
0.5000000000000009
 40
0.5000000000000009
 40
0.6250000000000007
 40
0.6250000000000007
 40
0.7500000000000004
 40
0.7500000000000004
 40
1.0
 40
1.0
 40
1.0
 40
1.0
 10
26.49145310696958
 20
204.6080241035821
 30
0.0
 10
27.85574351455068
 20
204.6140603785684
 30
0.0
 10
29.3157231610058
 20
204.6263620779215
 30
0.0
 10
31.64818537613391
 20
204.6543677514793
 30
0.0
 10
32.45271013860489
 20
204.6653663208414
 30
0.0
 10
34.07980888225313
 20
204.6902478256514
 30
0.0
 10
34.9053330906736
 20
204.7041567231486
 30
0.0
 10
36.57984072049173
 20
204.734932130399
 30
0.0
 10
37.42882485760179
 20
204.7517985104483
 30
0.0
 10
39.15044001342313
 20
204.7886111053227
 30
0.0
 10
40.02443108411599
 20
204.8085900698612
 30
0.0
 10
42.67459814527095
 20
204.8732867727782
 30
0.0
 10
44.44289709661485
 20
204.9218215234663
 30
0.0
 10
46.21270354884152
 20
204.9763285162125
 30
0.0
  0
SPLINE
  5
A1
330
1F
100
AcDbEntity
  8
0
  6
Continuous
 62
     7
370
    15
100
AcDbSpline
210
0.0
220
0.0
230
1.0
 70
     8
 71
     3
 72
    20
 73
    16
 74
     0
 42
0.00000001
 43
0.00000001
 12
1.0
 22
0.0
 32
0.0
 13
1.0
 23
0.0
 33
0.0
 40
0.0
 40
0.0
 40
0.0
 40
0.0
 40
0.2499999999999996
 40
0.2499999999999996
 40
0.3124999999999994
 40
0.3124999999999994
 40
0.3749999999999993
 40
0.3749999999999993
 40
0.4999999999999994
 40
0.4999999999999994
 40
0.6249999999999996
 40
0.6249999999999996
 40
0.7499999999999997
 40
0.7499999999999997
 40
1.0
 40
1.0
 40
1.0
 40
1.0
 10
46.21270354884153
 20
204.9763285162125
 30
0.0
 10
48.24084069571517
 20
205.0387916497455
 30
0.0
 10
50.25029417032786
 20
205.0869814753673
 30
0.0
 10
52.73956733980268
 20
205.1281801241403
 30
0.0
 10
53.23627898399872
 20
205.1354583465688
 30
0.0
 10
54.22737265470559
 20
205.1480230680022
 30
0.0
 10
54.72328015487856
 20
205.1533186979511
 30
0.0
 10
56.18939557780849
 20
205.1659583455277
 30
0.0
 10
57.14184711397997
 20
205.1701361382022
 30
0.0
 10
58.99828872674115
 20
205.1701674906867
 30
0.0
 10
59.90227608102387
 20
205.1660207115119
 30
0.0
 10
61.66108322610752
 20
205.1493570356301
 30
0.0
 10
62.52051940906141
 20
205.1367125335501
 30
0.0
 10
64.9651722793627
 20
205.0871429025529
 30
0.0
 10
66.43250131231659
 20
205.0387919087806
 30
0.0
 10
67.7343770575737
 20
204.9763285162125
 30
0.0
  0
SPLINE
  5
A2
330
1F
100
AcDbEntity
  8
0
  6
Continuous
 62
     7
370
    15
100
AcDbSpline
210
0.0
220
0.0
230
1.0
 70
     8
 71
     3
 72
    40
 73
    36
 74
     0
 42
0.00000001
 43
0.00000001
 12
1.0
 22
0.0
 32
0.0
 13
1.0
 23
0.0
 33
0.0
 40
0.0
 40
0.0
 40
0.0
 40
0.0
 40
0.1250000000000005
 40
0.1250000000000005
 40
0.1875000000000006
 40
0.1875000000000006
 40
0.2187500000000004
 40
0.2187500000000004
 40
0.2500000000000002
 40
0.2500000000000002
 40
0.3750000000000008
 40
0.3750000000000008
 40
0.4062500000000008
 40
0.4062500000000008
 40
0.4375000000000008
 40
0.4375000000000008
 40
0.5000000000000007
 40
0.5000000000000007
 40
0.5312500000000007
 40
0.5312500000000007
 40
0.5625000000000007
 40
0.5625000000000007
 40
0.6250000000000007
 40
0.6250000000000007
 40
0.6875000000000008
 40
0.6875000000000008
 40
0.7500000000000007
 40
0.7500000000000007
 40
0.8750000000000004
 40
0.8750000000000004
 40
0.9062500000000003
 40
0.9062500000000003
 40
0.9375000000000001
 40
0.9375000000000001
 40
1.0
 40
1.0
 40
1.0
 40
1.0
 10
67.7343770575737
 20
204.9763285162125
 30
0.0
 10
69.00562666117521
 20
204.9153345516725
 30
0.0
 10
70.42033597182856
 20
204.8622486016623
 30
0.0
 10
72.74943791233996
 20
204.7929120600695
 30
0.0
 10
73.5606238565552
 20
204.7715355853021
 30
0.0
 10
74.831484168142
 20
204.7420475544272
 30
0.0
 10
75.26245526981982
 20
204.7326910651821
 30
0.0
 10
76.13236638591522
 20
204.7150330240659
 30
0.0
 10
76.57228249602474
 20
204.7067085636224
 30
0.0
 10
78.79628163340352
 20
204.6675318302854
 30
0.0
 10
80.65274317176014
 20
204.6439138992259
 30
0.0
 10
83.07260031985616
 20
204.6238682187518
 30
0.0
 10
83.56153998402505
 20
204.6203436760146
 30
0.0
 10
84.53852564764648
 20
204.6143305736853
 30
0.0
 10
85.02793788622525
 20
204.6118297936596
 30
0.0
 10
86.49890075494177
 20
204.6058200676913
 30
0.0
 10
87.483169428013
 20
204.6037983922944
 30
0.0
 10
88.96503305563029
 20
204.6037428322543
 30
0.0
 10
89.4598997204388
 20
204.6042218042743
 30
0.0
 10
90.45148582777414
 20
204.6061912177954
 30
0.0
 10
90.94761621405992
 20
204.6076834245628
 30
0.0
 10
92.42416754434532
 20
204.6136354641701
 30
0.0
 10
93.39753129450375
 20
204.6195727880575
 30
0.0
 10
95.32253268016235
 20
204.6353801622837
 30
0.0
 10
96.27417100675257
 20
204.6452498743897
 30
0.0
 10
98.15520900995438
 20
204.6690898951796
 30
0.0
 10
99.07325101085459
 20
204.68292691059
 30
0.0
 10
101.7428716256769
 20
204.7298651731133
 30
0.0
 10
103.4195115020092
 20
204.7684191622953
 30
0.0
 10
105.3828522398256
 20
204.8266621071466
 30
0.0
 10
105.7686449396355
 20
204.8388193409841
 30
0.0
 10
106.5190790765501
 20
204.8639382441098
 30
0.0
 10
106.8847141472302
 20
204.876928350985
 30
0.0
 10
107.953047610397
 20
204.9172178681831
 30
0.0
 10
108.6272618142301
 20
204.9458314307898
 30
0.0
 10
109.2628887659622
 20
204.9763285162125
 30
0.0
  0
SPLINE
  5
A3
330
1F
100
AcDbEntity
  8
0
  6
Continuous
 62
     7
370
    15
100
AcDbSpline
210
0.0
220
0.0
230
1.0
 70
     8
 71
     3
 72
    20
 73
    16
 74
     0
 42
0.00000001
 43
0.00000001
 12
1.0
 22
0.0
 32
0.0
 13
1.0
 23
0.0
 33
0.0
 40
0.0
 40
0.0
 40
0.0
 40
0.0
 40
0.2500000000000021
 40
0.2500000000000021
 40
0.3125000000000021
 40
0.3125000000000021
 40
0.3750000000000022
 40
0.3750000000000022
 40
0.5000000000000018
 40
0.5000000000000018
 40
0.6250000000000013
 40
0.6250000000000013
 40
0.750000000000001
 40
0.750000000000001
 40
1.0
 40
1.0
 40
1.0
 40
1.0
 10
109.2628887659616
 20
204.9763285162126
 30
0.0
 10
110.5647591123525
 20
205.0387916497455
 30
0.0
 10
112.0287801671427
 20
205.0869814753673
 30
0.0
 10
114.0548087967075
 20
205.1281801241403
 30
0.0
 10
114.4699513305613
 20
205.1354583465688
 30
0.0
 10
115.3204955870695
 20
205.1480230680022
 30
0.0
 10
115.7573210475346
 20
205.1533186979511
 30
0.0
 10
117.0825811754626
 20
205.1659583455277
 30
0.0
 10
117.9886875182527
 20
205.1701361382022
 30
0.0
 10
119.8447807963431
 20
205.1701674906867
 30
0.0
 10
120.7947701969388
 20
205.1660207115119
 30
0.0
 10
122.7392691353325
 20
205.1493570356301
 30
0.0
 10
123.7398320694086
 20
205.1367125335501
 30
0.0
 10
126.7418213081521
 20
205.0871429025529
 30
0.0
 10
128.7564167171201
 20
205.0387919087806
 30
0.0
 10
130.7845622746939
 20
204.9763285162125
 30
0.0
  0
SPLINE
  5
A4
330
1F
100
AcDbEntity
  8
0
  6
Continuous
 62
     7
370
    15
100
AcDbSpline
210
0.0
220
0.0
230
1.0
 70
     8
 71
     3
 72
    18
 73
    14
 74
     0
 42
0.00000001
 43
0.00000001
 12
1.0
 22
0.0
 32
0.0
 13
1.0
 23
0.0
 33
0.0
 40
0.0
 40
0.0
 40
0.0
 40
0.0
 40
0.2499999999999996
 40
0.2499999999999996
 40
0.3749999999999998
 40
0.3749999999999998
 40
0.5
 40
0.5
 40
0.7500000000000003
 40
0.7500000000000003
 40
0.8750000000000002
 40
0.8750000000000002
 40
1.0
 40
1.0
 40
1.0
 40
1.0
 10
130.7845622746939
 20
204.9763285162125
 30
0.0
 10
132.5573684556337
 20
204.9217291369847
 30
0.0
 10
134.3167908081963
 20
204.8734834781384
 30
0.0
 10
136.9366388336747
 20
204.809447668879
 30
0.0
 10
137.80668355816
 20
204.7895045720857
 30
0.0
 10
139.5401457998972
 20
204.7523697728993
 30
0.0
 10
140.4060760596697
 20
204.7351454291957
 30
0.0
 10
142.9380048365689
 20
204.6885975543659
 30
0.0
 10
144.5564848980893
 20
204.6639308841835
 30
0.0
 10
146.8809343817328
 20
204.6359521171809
 30
0.0
 10
147.6403230043251
 20
204.6281268793712
 30
0.0
 10
149.1146328715053
 20
204.6156514702436
 30
0.0
 10
149.8239673476228
 20
204.6110409144621
 30
0.0
 10
150.505812716563
 20
204.6080241035822
 30
0.0
  0
LINE
  5
A5
330
1F
100
AcDbEntity
  8
0
  6
Continuous
 62
     7
370
    15
100
AcDbLine
 10
161.330628697
 20
203.8059920877
 30
0.0
 11
150.5058142582
 21
204.6080247372
 31
0.0
  0
SPLINE
  5
A6
330
1F
100
AcDbEntity
  8
0
  6
Continuous
 62
     7
370
    15
100
AcDbSpline
210
0.0
220
0.0
230
1.0
 70
     8
 71
     3
 72
     8
 73
     4
 74
     0
 42
0.00000001
 43
0.00000001
 12
1.0
 22
0.0
 32
0.0
 13
1.0
 23
0.0
 33
0.0
 40
0.0
 40
0.0
 40
0.0
 40
0.0
 40
1.0
 40
1.0
 40
1.0
 40
1.0
 10
170.6997962247037
 20
202.8870597124224
 30
0.0
 10
173.8228511374214
 20
202.8995393019069
 30
0.0
 10
176.9459060876616
 20
202.8995582200341
 30
0.0
 10
180.0689610754254
 20
202.8871161388469
 30
0.0
  0
LINE
  5
A7
330
1F
100
AcDbEntity
  8
0
  6
Continuous
 62
     7
370
    15
100
AcDbLine
 10
161.330628697
 20
203.5803307652
 30
0.0
 11
170.6997934023
 21
202.8870598286
 31
0.0
  0
LINE
  5
A8
330
1F
100
AcDbEntity
  8
0
  6
Continuous
 62
     7
370
    15
100
AcDbLine
 10
119.6859753916
 20
189.8684619799
 30
0.0
 11
119.6859753916
 21
185.8684617899
 31
0.0
  0
LINE
  5
A9
330
1F
100
AcDbEntity
  8
0
  6
Continuous
 62
     7
370
    15
100
AcDbLine
 10
156.5946149865
 20
189.8684619799
 30
0.0
 11
156.5946149865
 21
185.8684617899
 31
0.0
  0
LINE
  5
AA
330
1F
100
AcDbEntity
  8
0
  6
Continuous
 62
     7
370
    15
100
AcDbLine
 10
156.5946149865
 20
185.8684617899
 30
0.0
 11
119.6859753916
 21
185.8684617899
 31
0.0
  0
LINE
  5
AB
330
1F
100
AcDbEntity
  8
0
  6
Continuous
 62
     7
370
    15
100
AcDbLine
 10
20.402650837
 20
189.8684619799
 30
0.0
 11
20.402650837
 21
185.8684617899
 31
0.0
  0
LINE
  5
AC
330
1F
100
AcDbEntity
  8
0
  6
Continuous
 62
     7
370
    15
100
AcDbLine
 10
57.3112904319
 20
189.8684619799
 30
0.0
 11
57.3112904319
 21
185.8684617899
 31
0.0
  0
LINE
  5
AD
330
1F
100
AcDbEntity
  8
0
  6
Continuous
 62
     7
370
    15
100
AcDbLine
 10
57.3112904319
 20
185.8684617899
 30
0.0
 11
20.402650837
 21
185.8684617899
 31
0.0
  0
LINE
  5
AE
330
1F
100
AcDbEntity
  8
0
  6
Continuous
 62
     7
370
    15
100
AcDbLine
 10
119.5437512586
 20
189.8684619799
 30
0.0
 11
119.6859753916
 21
185.8684617899
 31
0.0
  0
LINE
  5
AF
330
1F
100
AcDbEntity
  8
0
  6
Continuous
 62
     7
370
    15
100
AcDbLine
 10
114.2634260693
 20
185.8684617899
 30
0.0
 11
119.6859753916
 21
185.8684617899
 31
0.0
  0
LINE
  5
B0
330
1F
100
AcDbEntity
  8
0
  6
Continuous
 62
     7
370
    15
100
AcDbLine
 10
57.453514565
 20
189.8684619799
 30
0.0
 11
57.3112904319
 21
185.8684617899
 31
0.0
  0
LINE
  5
B1
330
1F
100
AcDbEntity
  8
0
  6
Continuous
 62
     7
370
    15
100
AcDbLine
 10
62.7338397542
 20
185.8684617899
 30
0.0
 11
57.3112904319
 21
185.8684617899
 31
0.0
  0
LINE
  5
B2
330
1F
100
AcDbEntity
  8
0
  6
Continuous
 62
     7
370
    15
100
AcDbLine
 10
94.6249529013
 20
185.8684617899
 30
0.0
 11
114.2634260693
 21
185.8684617899
 31
0.0
  0
LINE
  5
B3
330
1F
100
AcDbEntity
  8
0
  6
Continuous
 62
     7
370
    15
100
AcDbLine
 10
82.3723129222
 20
185.8684617899
 30
0.0
 11
62.7338397542
 21
185.8684617899
 31
0.0
  0
LINE
  5
B4
330
1F
100
AcDbEntity
  8
0
  6
Continuous
 62
     7
370
    15
100
AcDbLine
 10
156.8040806094
 20
189.8684619799
 30
0.0
 11
156.5946149865
 21
185.8684617899
 31
0.0
  0
LINE
  5
B5
330
1F
100
AcDbEntity
  8
0
  6
Continuous
 62
     7
370
    15
100
AcDbLine
 10
156.6119897405
 20
185.8684617899
 30
0.0
 11
156.5946149865
 21
185.8684617899
 31
0.0
  0
LINE
  5
B6
330
1F
100
AcDbEntity
  8
0
  6
Continuous
 62
     7
370
    15
100
AcDbLine
 10
20.1931852141
 20
189.8684619799
 30
0.0
 11
20.402650837
 21
185.8684617899
 31
0.0
  0
LINE
  5
B7
330
1F
100
AcDbEntity
  8
0
  6
Continuous
 62
     7
370
    15
100
AcDbLine
 10
20.3852760831
 20
185.8684617899
 30
0.0
 11
20.402650837
 21
185.8684617899
 31
0.0
  0
LINE
  5
B8
330
1F
100
AcDbEntity
  8
0
  6
Continuous
 62
     7
370
    15
100
AcDbLine
 10
94.6249529013
 20
185.8684617899
 30
0.0
 11
82.3723129222
 21
185.8684617899
 31
0.0
  0
LINE
  5
B9
330
1F
100
AcDbEntity
  8
0
  6
Continuous
 62
     7
370
    15
100
AcDbLine
 10
119.5270917604
 20
182.8684617638
 30
0.0
 11
57.4701740632
 21
182.8684617638
 31
0.0
  0
LINE
  5
BA
330
1F
100
AcDbEntity
  8
0
  6
Continuous
 62
     7
370
    15
100
AcDbLine
 10
57.4701740632
 20
182.8684617638
 30
0.0
 11
56.5269063452
 21
185.8684617899
 31
0.0
  0
LINE
  5
BB
330
1F
100
AcDbEntity
  8
0
  6
Continuous
 62
     7
370
    15
100
AcDbLine
 10
120.4703594783
 20
185.8684617899
 30
0.0
 11
119.5270917604
 21
182.8684617638
 31
0.0
  0
SPLINE
  5
BC
330
1F
100
AcDbEntity
  8
0
  6
Continuous
 62
     7
370
    15
100
AcDbSpline
210
0.0
220
0.0
230
1.0
 70
     8
 71
     3
 72
     8
 73
     4
 74
     0
 42
0.00000001
 43
0.00000001
 12
1.0
 22
0.0
 32
0.0
 13
1.0
 23
0.0
 33
0.0
 40
0.0000002004816534
 40
0.0000002004816534
 40
0.0000002004816534
 40
0.0000002004816534
 40
0.0204579362972699
 40
0.0204579362972699
 40
0.0204579362972699
 40
0.0204579362972699
 10
24.74960505164876
 20
300.7376218731887
 30
0.0
 10
24.78254082332138
 20
307.5404839034611
 30
0.0
 10
24.81644825555618
 20
314.3434083514301
 30
0.0
 10
24.85130211359569
 20
321.1463928016208
 30
0.0
  0
LINE
  5
BD
330
1F
100
AcDbEntity
  8
0
  6
Continuous
 62
     7
370
    15
100
AcDbLine
 10
24.8513031045
 20
321.1463947653
 30
0.0
 11
152.145962719
 21
321.1463947653
 31
0.0
  0
SPLINE
  5
BE
330
1F
100
AcDbEntity
  8
0
  6
Continuous
 62
     7
370
    15
100
AcDbSpline
210
0.0
220
0.0
230
1.0
 70
     8
 71
     3
 72
     8
 73
     4
 74
     0
 42
0.00000001
 43
0.00000001
 12
1.0
 22
0.0
 32
0.0
 13
1.0
 23
0.0
 33
0.0
 40
0.0000002004780457
 40
0.0000002004780457
 40
0.0000002004780457
 40
0.0000002004780457
 40
0.0204579362936622
 40
0.0204579362936622
 40
0.0204579362936622
 40
0.0204579362936622
 10
152.1459637099388
 20
321.1463928016208
 30
0.0
 10
152.1808175679783
 20
314.3434083514301
 30
0.0
 10
152.2147250002131
 20
307.5404839034611
 30
0.0
 10
152.2476607718857
 20
300.7376218731887
 30
0.0
  0
SPLINE
  5
BF
330
1F
100
AcDbEntity
  8
0
  6
Continuous
 62
     7
370
    15
100
AcDbSpline
210
0.0
220
0.0
230
1.0
 70
     8
 71
     3
 72
     8
 73
     4
 74
     0
 42
0.00000001
 43
0.00000001
 12
1.0
 22
0.0
 32
0.0
 13
1.0
 23
0.0
 33
0.0
 40
0.0000005920566772
 40
0.0000005920566772
 40
0.0000005920566772
 40
0.0000005920566772
 40
0.0111809635222787
 40
0.0111809635222787
 40
0.0111809635222787
 40
0.0111809635222787
 10
24.85130211359568
 20
321.1463928016208
 30
0.0
 10
27.37784546478138
 20
322.4053228851286
 30
0.0
 10
29.90471881984046
 20
323.6627376589585
 30
0.0
 10
32.43203881827087
 20
324.9180896921237
 30
0.0
  0
SPLINE
  5
C0
330
1F
100
AcDbEntity
  8
0
  6
Continuous
 62
     7
370
    15
100
AcDbSpline
210
0.0
220
0.0
230
1.0
 70
     8
 71
     3
 72
     8
 73
     4
 74
     0
 42
0.00000001
 43
0.00000001
 12
1.0
 22
0.0
 32
0.0
 13
1.0
 23
0.0
 33
0.0
 40
0.0
 40
0.0
 40
0.0
 40
0.0
 40
1.0
 40
1.0
 40
1.0
 40
1.0
 10
40.78268784578476
 20
329.1489041401688
 30
0.0
 10
37.99844811355915
 20
327.7413866528969
 30
0.0
 10
35.21498173561647
 20
326.3307827306851
 30
0.0
 10
32.43203881827086
 20
324.9180896921237
 30
0.0
  0
LINE
  5
C1
330
1F
100
AcDbEntity
  8
0
  6
Continuous
 62
     7
370
    15
100
AcDbLine
 10
40.7826896051
 20
329.1488994717
 30
0.0
 11
136.2145762185
 21
329.1488994717
 31
0.0
  0
SPLINE
  5
C2
330
1F
100
AcDbEntity
  8
0
  6
Continuous
 62
     7
370
    15
100
AcDbSpline
210
0.0
220
0.0
230
1.0
 70
     8
 71
     3
 72
     8
 73
     4
 74
     0
 42
0.00000001
 43
0.00000001
 12
1.0
 22
0.0
 32
0.0
 13
1.0
 23
0.0
 33
0.0
 40
0.0
 40
0.0
 40
0.0
 40
0.0
 40
1.0
 40
1.0
 40
1.0
 40
1.0
 10
144.5652270052636
 20
324.9180896921237
 30
0.0
 10
141.7822923618883
 20
326.330778530606
 30
0.0
 10
138.9988258888283
 20
327.7413825182392
 30
0.0
 10
136.2145779777496
 20
329.1489041401688
 30
0.0
  0
SPLINE
  5
C3
330
1F
100
AcDbEntity
  8
0
  6
Continuous
 62
     7
370
    15
100
AcDbSpline
210
0.0
220
0.0
230
1.0
 70
     8
 71
     3
 72
     8
 73
     4
 74
     0
 42
0.00000001
 43
0.00000001
 12
1.0
 22
0.0
 32
0.0
 13
1.0
 23
0.0
 33
0.0
 40
0.0000005937442537
 40
0.0000005937442537
 40
0.0000005937442537
 40
0.0000005937442537
 40
0.0111809652098551
 40
0.0111809652098551
 40
0.0111809652098551
 40
0.0111809652098551
 10
144.5652270052636
 20
324.9180896921237
 30
0.0
 10
147.092547003694
 20
323.6627376589585
 30
0.0
 10
149.6194203587531
 20
322.4053228851286
 30
0.0
 10
152.1459637099388
 20
321.1463928016208
 30
0.0
  0
LINE
  5
C4
330
1F
100
AcDbEntity
  8
0
  6
Continuous
 62
     7
370
    15
100
AcDbLine
 10
-18.4512701592
 20
329.9180825114
 30
0.0
 11
-18.4512701592
 21
324.9180872797
 31
0.0
  0
LINE
  5
C5
330
1F
100
AcDbEntity
  8
0
  6
Continuous
 62
     7
370
    15
100
AcDbLine
 10
4.1761505643
 20
329.9180825114
 30
0.0
 11
4.1761505643
 21
324.9180872797
 31
0.0
  0
LINE
  5
C6
330
1F
100
AcDbEntity
  8
0
  6
Continuous
 62
     7
370
    15
100
AcDbLine
 10
4.1761505643
 20
329.9180825114
 30
0.0
 11
-18.4512701592
 21
329.9180825114
 31
0.0
  0
LINE
  5
C7
330
1F
100
AcDbEntity
  8
0
  6
Continuous
 62
     7
370
    15
100
AcDbLine
 10
4.1761505643
 20
324.9180872797
 30
0.0
 11
-18.4512701592
 21
324.9180872797
 31
0.0
  0
LINE
  5
C8
330
1F
100
AcDbEntity
  8
0
  6
Continuous
 62
     7
370
    15
100
AcDbLine
 10
32.4320378939
 20
324.9180872797
 30
0.0
 11
10.1780477205
 21
324.9180872797
 31
0.0
  0
LINE
  5
C9
330
1F
100
AcDbEntity
  8
0
  6
Continuous
 62
     7
370
    15
100
AcDbLine
 10
40.7826896051
 20
329.9180825114
 30
0.0
 11
40.7826896051
 21
329.1488994717
 31
0.0
  0
LINE
  5
CA
330
1F
100
AcDbEntity
  8
0
  6
Continuous
 62
     7
370
    15
100
AcDbLine
 10
40.7826896051
 20
329.9180825114
 30
0.0
 11
4.1761505643
 21
329.9180825114
 31
0.0
  0
LINE
  5
CB
330
1F
100
AcDbEntity
  8
0
  6
Continuous
 62
     7
370
    15
100
AcDbLine
 10
4.1761505643
 20
324.9180872797
 30
0.0
 11
10.1780477205
 21
324.9180872797
 31
0.0
  0
LINE
  5
CC
330
1F
100
AcDbEntity
  8
0
  6
Continuous
 62
     7
370
    15
100
AcDbLine
 10
172.8211152593
 20
329.9180825114
 30
0.0
 11
172.8211152593
 21
324.9180872797
 31
0.0
  0
LINE
  5
CD
330
1F
100
AcDbEntity
  8
0
  6
Continuous
 62
     7
370
    15
100
AcDbLine
 10
195.4485359827
 20
329.9180825114
 30
0.0
 11
195.4485359827
 21
324.9180872797
 31
0.0
  0
LINE
  5
CE
330
1F
100
AcDbEntity
  8
0
  6
Continuous
 62
     7
370
    15
100
AcDbLine
 10
195.4485359827
 20
329.9180825114
 30
0.0
 11
172.8211152593
 21
329.9180825114
 31
0.0
  0
LINE
  5
CF
330
1F
100
AcDbEntity
  8
0
  6
Continuous
 62
     7
370
    15
100
AcDbLine
 10
195.4485359827
 20
324.9180872797
 30
0.0
 11
172.8211152593
 21
324.9180872797
 31
0.0
  0
LINE
  5
D0
330
1F
100
AcDbEntity
  8
0
  6
Continuous
 62
     7
370
    15
100
AcDbLine
 10
136.2145762185
 20
329.1488994717
 30
0.0
 11
136.2145762185
 21
329.9180825114
 31
0.0
  0
LINE
  5
D1
330
1F
100
AcDbEntity
  8
0
  6
Continuous
 62
     7
370
    15
100
AcDbLine
 10
166.819218103
 20
324.9180872797
 30
0.0
 11
144.5652279297
 21
324.9180872797
 31
0.0
  0
LINE
  5
D2
330
1F
100
AcDbEntity
  8
0
  6
Continuous
 62
     7
370
    15
100
AcDbLine
 10
172.8211152593
 20
329.9180825114
 30
0.0
 11
136.2145762185
 21
329.9180825114
 31
0.0
  0
LINE
  5
D3
330
1F
100
AcDbEntity
  8
0
  6
Continuous
 62
     7
370
    15
100
AcDbLine
 10
172.8211152593
 20
324.9180872797
 30
0.0
 11
166.819218103
 21
324.9180872797
 31
0.0
  0
LINE
  5
D4
330
1F
100
AcDbEntity
  8
0
  6
Continuous
 62
     7
370
    15
100
AcDbLine
 10
137.1184024254
 20
182.8684617638
 30
0.0
 11
138.4655083755
 21
185.8684617899
 31
0.0
  0
LINE
  5
D5
330
1F
100
AcDbEntity
  8
0
  6
Continuous
 62
     7
370
    15
100
AcDbLine
 10
136.742632393
 20
182.8684617638
 30
0.0
 11
137.1184024254
 21
182.8684617638
 31
0.0
  0
LINE
  5
D6
330
1F
100
AcDbEntity
  8
0
  6
Continuous
 62
     7
370
    15
100
AcDbLine
 10
39.8788633982
 20
182.8684617638
 30
0.0
 11
40.2546334306
 21
182.8684617638
 31
0.0
  0
LINE
  5
D7
330
1F
100
AcDbEntity
  8
0
  6
Continuous
 62
     7
370
    15
100
AcDbLine
 10
38.531757448
 20
185.8684617899
 30
0.0
 11
39.8788633982
 21
182.8684617638
 31
0.0
  0
LINE
  5
D8
330
1F
100
AcDbEntity
  8
0
  6
Continuous
 62
     7
370
    15
100
AcDbLine
 10
26.432327483
 20
298.3684648632
 30
0.0
 11
150.5649383405
 21
298.3684648632
 31
0.0
  0
SPLINE
  5
D9
330
1F
100
AcDbEntity
  8
0
  6
Continuous
 62
     7
370
    15
100
AcDbSpline
210
0.0
220
0.0
230
1.0
 70
     8
 71
     3
 72
    20
 73
    16
 74
     0
 42
0.00000001
 43
0.00000001
 12
1.0
 22
0.0
 32
0.0
 13
1.0
 23
0.0
 33
0.0
 40
0.0
 40
0.0
 40
0.0
 40
0.0
 40
0.2500000000000085
 40
0.2500000000000085
 40
0.3750000000000071
 40
0.3750000000000071
 40
0.5000000000000057
 40
0.5000000000000057
 40
0.6250000000000042
 40
0.6250000000000042
 40
0.7500000000000029
 40
0.7500000000000029
 40
0.8750000000000014
 40
0.8750000000000014
 40
1.0
 40
1.0
 40
1.0
 40
1.0
 10
26.43232627151472
 20
298.3684617637961
 30
0.0
 10
26.20899915687811
 20
298.3684617637961
 30
0.0
 10
25.98519283362881
 20
298.4287471282915
 30
0.0
 10
25.67983380146513
 20
298.6023746533177
 30
0.0
 10
25.5810886312834
 20
298.6750984734768
 30
0.0
 10
25.39755253581197
 20
298.8453202926763
 30
0.0
 10
25.31296887399402
 20
298.9421474761743
 30
0.0
 10
25.15806877806553
 20
299.1590687931234
 30
0.0
 10
25.08734023628816
 20
299.2804554072889
 30
0.0
 10
24.96624366092842
 20
299.5374639223398
 30
0.0
 10
24.91510158474923
 20
299.6738089665272
 30
0.0
 10
24.83189182722349
 20
299.9623990015039
 30
0.0
 10
24.8002487160642
 20
300.114242603948
 30
0.0
 10
24.75896650242741
 20
300.4211554875666
 30
0.0
 10
24.74883106845067
 20
300.5777561514294
 30
0.0
 10
24.74960505164875
 20
300.7376218731887
 30
0.0
  0
SPLINE
  5
DA
330
1F
100
AcDbEntity
  8
0
  6
Continuous
 62
     7
370
    15
100
AcDbSpline
210
0.0
220
0.0
230
1.0
 70
     8
 71
     3
 72
    20
 73
    16
 74
     0
 42
0.00000001
 43
0.00000001
 12
1.0
 22
0.0
 32
0.0
 13
1.0
 23
0.0
 33
0.0
 40
0.0
 40
0.0
 40
0.0
 40
0.0
 40
0.1249999999999991
 40
0.1249999999999991
 40
0.2499999999999982
 40
0.2499999999999982
 40
0.3749999999999973
 40
0.3749999999999973
 40
0.4999999999999964
 40
0.4999999999999964
 40
0.6249999999999956
 40
0.6249999999999956
 40
0.7499999999999947
 40
0.7499999999999947
 40
1.0
 40
1.0
 40
1.0
 40
1.0
 10
152.2476607718857
 20
300.7376218731887
 30
0.0
 10
152.2484346493926
 20
300.5777779818879
 30
0.0
 10
152.2383019803819
 20
300.421243344877
 30
0.0
 10
152.1970658539867
 20
300.1145370081316
 30
0.0
 10
152.1654929729249
 20
299.9628849732924
 30
0.0
 10
152.0822658730027
 20
299.6740883164936
 30
0.0
 10
152.031120448044
 20
299.5377110394052
 30
0.0
 10
151.9100764734938
 20
299.2807371973082
 30
0.0
 10
151.8393817862825
 20
299.1593584453131
 30
0.0
 10
151.6844412171478
 20
298.9423186313555
 30
0.0
 10
151.5998300206105
 20
298.8454395301943
 30
0.0
 10
151.4162232073677
 20
298.6751301874413
 30
0.0
 10
151.3175586179698
 20
298.6024573794613
 30
0.0
 10
151.012121519948
 20
298.4287532513306
 30
0.0
 10
150.7883615572529
 20
298.3684617637962
 30
0.0
 10
150.5649395520198
 20
298.3684617637961
 30
0.0
  0
LINE
  5
DB
330
1F
100
AcDbEntity
  8
0
  6
Continuous
 62
     7
370
    15
100
AcDbLine
 10
10.1780477205
 20
324.9180872797
 30
0.0
 11
23.8411012331
 21
298.3684648632
 31
0.0
  0
LINE
  5
DC
330
1F
100
AcDbEntity
  8
0
  6
Continuous
 62
     7
370
    15
100
AcDbLine
 10
26.432327483
 20
298.3684648632
 30
0.0
 11
23.8411012331
 21
298.3684648632
 31
0.0
  0
LINE
  5
DD
330
1F
100
AcDbEntity
  8
0
  6
Continuous
 62
     7
370
    15
100
AcDbLine
 10
4.5297029653
 20
324.9180872797
 30
0.0
 11
20.1605069676
 21
298.3684648632
 31
0.0
  0
LINE
  5
DE
330
1F
100
AcDbEntity
  8
0
  6
Continuous
 62
     7
370
    15
100
AcDbLine
 10
23.8411012331
 20
298.3684648632
 30
0.0
 11
20.1605069676
 21
298.3684648632
 31
0.0
  0
LINE
  5
DF
330
1F
100
AcDbEntity
  8
0
  6
Continuous
 62
     7
370
    15
100
AcDbLine
 10
153.1561645904
 20
298.3684648632
 30
0.0
 11
166.819218103
 21
324.9180872797
 31
0.0
  0
LINE
  5
E0
330
1F
100
AcDbEntity
  8
0
  6
Continuous
 62
     7
370
    15
100
AcDbLine
 10
153.1561645904
 20
298.3684648632
 30
0.0
 11
150.5649383405
 21
298.3684648632
 31
0.0
  0
LINE
  5
E1
330
1F
100
AcDbEntity
  8
0
  6
Continuous
 62
     7
370
    15
100
AcDbLine
 10
156.8367588559
 20
298.3684648632
 30
0.0
 11
172.4675628582
 21
324.9180872797
 31
0.0
  0
LINE
  5
E2
330
1F
100
AcDbEntity
  8
0
  6
Continuous
 62
     7
370
    15
100
AcDbLine
 10
156.8367588559
 20
298.3684648632
 30
0.0
 11
153.1561645904
 21
298.3684648632
 31
0.0
  0
LINE
  5
E3
330
1F
100
AcDbEntity
  8
0
  6
Continuous
 62
     7
370
    15
100
AcDbLine
 10
119.5270917604
 20
182.8684617638
 30
0.0
 11
136.742632393
 21
182.8684617638
 31
0.0
  0
LINE
  5
E4
330
1F
100
AcDbEntity
  8
0
  6
Continuous
 62
     7
370
    15
100
AcDbLine
 10
40.2546334306
 20
182.8684617638
 30
0.0
 11
57.4701740632
 21
182.8684617638
 31
0.0
  0
LINE
  5
E5
330
1F
100
AcDbEntity
  8
0
  6
Continuous
 62
     7
370
    15
100
AcDbLine
 10
-7.0013669094
 20
294.2684625148
 30
0.0
 11
0.2833265105
 21
294.2684625148
 31
0.0
  0
LINE
  5
E6
330
1F
100
AcDbEntity
  8
0
  6
Continuous
 62
     7
370
    15
100
AcDbLine
 10
12.2833284775
 20
294.2684625148
 30
0.0
 11
164.6997961441
 21
294.2684625148
 31
0.0
  0
LINE
  5
E7
330
1F
100
AcDbEntity
  8
0
  6
Continuous
 62
     7
370
    15
100
AcDbLine
 10
176.699798111
 20
294.2684625148
 30
0.0
 11
183.998632733
 21
294.2684625148
 31
0.0
  0
LINE
  5
E8
330
1F
100
AcDbEntity
  8
0
  6
Continuous
 62
     7
370
    15
100
AcDbLine
 10
-7.0013669094
 20
295.2684645414
 30
0.0
 11
0.2833265105
 21
295.2684645414
 31
0.0
  0
LINE
  5
E9
330
1F
100
AcDbEntity
  8
0
  6
Continuous
 62
     7
370
    15
100
AcDbLine
 10
12.2833284775
 20
295.2684645414
 30
0.0
 11
164.6997961441
 21
295.2684645414
 31
0.0
  0
LINE
  5
EA
330
1F
100
AcDbEntity
  8
0
  6
Continuous
 62
     7
370
    15
100
AcDbLine
 10
176.699798111
 20
295.2684645414
 30
0.0
 11
183.998632733
 21
295.2684645414
 31
0.0
  0
SPLINE
  5
EB
330
1F
100
AcDbEntity
  8
0
  6
Continuous
 62
     7
370
    15
100
AcDbSpline
210
0.0
220
0.0
230
1.0
 70
     8
 71
     3
 72
     8
 73
     4
 74
     0
 42
0.00000001
 43
0.00000001
 12
1.0
 22
0.0
 32
0.0
 13
1.0
 23
0.0
 33
0.0
 40
0.0
 40
0.0
 40
0.0
 40
0.0
 40
1.0
 40
1.0
 40
1.0
 40
1.0
 10
153.7084963001346
 20
182.8684617637961
 30
0.0
 10
153.6684920492698
 20
183.820210059623
 30
0.0
 10
153.76583343965
 20
184.8244485890086
 30
0.0
 10
153.9768118963072
 20
185.8684617637961
 30
0.0
  0
LINE
  5
EC
330
1F
100
AcDbEntity
  8
0
  6
Continuous
 62
     7
370
    15
100
AcDbLine
 10
153.7084984818
 20
182.8684617638
 30
0.0
 11
137.1184024254
 21
182.8684617638
 31
0.0
  0
SPLINE
  5
ED
330
1F
100
AcDbEntity
  8
0
  6
Continuous
 62
     7
370
    15
100
AcDbSpline
210
0.0
220
0.0
230
1.0
 70
     8
 71
     3
 72
     8
 73
     4
 74
     0
 42
0.00000001
 43
0.00000001
 12
1.0
 22
0.0
 32
0.0
 13
1.0
 23
0.0
 33
0.0
 40
0.0
 40
0.0
 40
0.0
 40
0.0
 40
1.0
 40
1.0
 40
1.0
 40
1.0
 10
23.02045392722779
 20
185.8684617637961
 30
0.0
 10
23.23143238388527
 20
184.8244485890087
 30
0.0
 10
23.32877377426583
 20
183.8202100596231
 30
0.0
 10
23.28876952340162
 20
182.8684617637961
 30
0.0
  0
LINE
  5
EE
330
1F
100
AcDbEntity
  8
0
  6
Continuous
 62
     7
370
    15
100
AcDbLine
 10
39.8788633982
 20
182.8684617638
 30
0.0
 11
23.2887673417
 21
182.8684617638
 31
0.0
  0
LINE
  5
EF
330
1F
100
AcDbEntity
  8
0
  6
Continuous
 62
     7
370
    15
100
AcDbLine
 10
162.214513425
 20
332.4180950283
 30
0.0
 11
158.6997988859
 21
332.4180950283
 31
0.0
  0
LINE
  5
F0
330
1F
100
AcDbEntity
  8
0
  6
Continuous
 62
     7
370
    15
100
AcDbLine
 10
182.6997953692
 20
332.4180950283
 30
0.0
 11
162.214513425
 21
332.4180950283
 31
0.0
  0
LINE
  5
F1
330
1F
100
AcDbEntity
  8
0
  6
Continuous
 62
     7
370
    15
100
AcDbLine
 10
18.2833257357
 20
332.4180950283
 30
0.0
 11
-5.7166707477
 21
332.4180950283
 31
0.0
  0
LINE
  5
F2
330
1F
100
AcDbEntity
  8
0
  6
Continuous
 62
     7
370
    15
100
AcDbLine
 10
162.9430758992
 20
342.4180854916
 30
0.0
 11
162.9430758992
 21
332.4180950283
 31
0.0
  0
LINE
  5
F3
330
1F
100
AcDbEntity
  8
0
  6
Continuous
 62
     7
370
    15
100
AcDbLine
 10
162.9430758992
 20
342.4180854916
 30
0.0
 11
173.5389488974
 21
342.4180854916
 31
0.0
  0
LINE
  5
F4
330
1F
100
AcDbEntity
  8
0
  6
Continuous
 62
     7
370
    15
100
AcDbLine
 10
173.5389488974
 20
342.4180854916
 30
0.0
 11
173.5389488974
 21
332.4180950283
 31
0.0
  0
LINE
  5
F5
330
1F
100
AcDbEntity
  8
0
  6
Continuous
 62
     7
370
    15
100
AcDbLine
 10
173.5389488974
 20
342.4180854916
 30
0.0
 11
181.2956664005
 21
342.4180854916
 31
0.0
  0
LINE
  5
F6
330
1F
100
AcDbEntity
  8
0
  6
Continuous
 62
     7
370
    15
100
AcDbLine
 10
181.2956664005
 20
342.4180854916
 30
0.0
 11
181.2956664005
 21
332.4180950283
 31
0.0
  0
LINE
  5
F7
330
1F
100
AcDbEntity
  8
0
  6
Continuous
 62
     7
370
    15
100
AcDbLine
 10
3.4441682735
 20
342.4180854916
 30
0.0
 11
3.4441682735
 21
332.4180950283
 31
0.0
  0
LINE
  5
F8
330
1F
100
AcDbEntity
  8
0
  6
Continuous
 62
     7
370
    15
100
AcDbLine
 10
3.4441682735
 20
342.4180854916
 30
0.0
 11
14.0400412718
 21
342.4180854916
 31
0.0
  0
LINE
  5
F9
330
1F
100
AcDbEntity
  8
0
  6
Continuous
 62
     7
370
    15
100
AcDbLine
 10
14.0400412718
 20
342.4180854916
 30
0.0
 11
14.0400412718
 21
332.4180950283
 31
0.0
  0
LINE
  5
FA
330
1F
100
AcDbEntity
  8
0
  6
Continuous
 62
     7
370
    15
100
AcDbLine
 10
-4.3125492295
 20
342.4180854916
 30
0.0
 11
-4.3125492295
 21
332.4180950283
 31
0.0
  0
LINE
  5
FB
330
1F
100
AcDbEntity
  8
0
  6
Continuous
 62
     7
370
    15
100
AcDbLine
 10
-4.3125492295
 20
342.4180854916
 30
0.0
 11
3.4441682735
 21
342.4180854916
 31
0.0
  0
LINE
  5
FC
330
1F
100
AcDbEntity
  8
0
  6
Continuous
 62
     7
370
    15
100
AcDbLine
 10
170.6997934023
 20
205.7180904656
 30
0.0
 11
180.0689581076
 21
205.7180904656
 31
0.0
  0
LINE
  5
FD
330
1F
100
AcDbEntity
  8
0
  6
Continuous
 62
     7
370
    15
100
AcDbLine
 10
180.0689581076
 20
205.7180904656
 30
0.0
 11
180.0689581076
 21
202.8871157079
 31
0.0
  0
LINE
  5
FE
330
1F
100
AcDbEntity
  8
0
  6
Continuous
 62
     7
370
    15
100
AcDbLine
 10
170.6997934023
 20
205.7180904656
 30
0.0
 11
170.6997934023
 21
202.8870598286
 31
0.0
  0
LINE
  5
FF
330
1F
100
AcDbEntity
  8
0
  6
Continuous
 62
     7
370
    15
100
AcDbLine
 10
161.330628697
 20
205.7180904656
 30
0.0
 11
170.6997934023
 21
205.7180904656
 31
0.0
  0
LINE
  5
100
330
1F
100
AcDbEntity
  8
0
  6
Continuous
 62
     7
370
    15
100
AcDbLine
 10
161.330628697
 20
205.7180904656
 30
0.0
 11
161.330628697
 21
203.5803307652
 31
0.0
  0
LINE
  5
101
330
1F
100
AcDbEntity
  8
0
  6
Continuous
 62
     7
370
    15
100
AcDbLine
 10
6.2833237687
 20
205.7180904656
 30
0.0
 11
15.6524959246
 21
205.7180904656
 31
0.0
  0
LINE
  5
102
330
1F
100
AcDbEntity
  8
0
  6
Continuous
 62
     7
370
    15
100
AcDbLine
 10
15.6524959246
 20
205.7180904656
 30
0.0
 11
15.6524959246
 21
203.5803940951
 31
0.0
  0
LINE
  5
103
330
1F
100
AcDbEntity
  8
0
  6
Continuous
 62
     7
370
    15
100
AcDbLine
 10
6.2833237687
 20
205.7180904656
 30
0.0
 11
6.2833237687
 21
202.8871157079
 31
0.0
  0
LINE
  5
104
330
1F
100
AcDbEntity
  8
0
  6
Continuous
 62
     7
370
    15
100
AcDbLine
 10
-3.0858409366
 20
205.7180904656
 30
0.0
 11
6.2833237687
 21
205.7180904656
 31
0.0
  0
LINE
  5
105
330
1F
100
AcDbEntity
  8
0
  6
Continuous
 62
     7
370
    15
100
AcDbLine
 10
-3.0858409366
 20
205.7180904656
 30
0.0
 11
-3.0858409366
 21
202.8870598286
 31
0.0
  0
SPLINE
  5
106
330
1F
100
AcDbEntity
  8
0
  6
Continuous
 62
     7
370
    15
100
AcDbSpline
210
0.0
220
0.0
230
1.0
 70
     8
 71
     3
 72
    46
 73
    42
 74
     0
 42
0.00000001
 43
0.00000001
 12
1.0
 22
0.0
 32
0.0
 13
1.0
 23
0.0
 33
0.0
 40
0.0
 40
0.0
 40
0.0
 40
0.0
 40
0.1249999999999997
 40
0.1249999999999997
 40
0.2499999999999994
 40
0.2499999999999994
 40
0.3124999999999992
 40
0.3124999999999992
 40
0.3749999999999988
 40
0.3749999999999988
 40
0.4062499999999988
 40
0.4062499999999988
 40
0.4374999999999987
 40
0.4374999999999987
 40
0.4687499999999986
 40
0.4687499999999986
 40
0.4843749999999986
 40
0.4843749999999986
 40
0.4921874999999986
 40
0.4921874999999986
 40
0.4999999999999986
 40
0.4999999999999986
 40
0.5156249999999986
 40
0.5156249999999986
 40
0.5312499999999984
 40
0.5312499999999984
 40
0.5468749999999984
 40
0.5468749999999984
 40
0.5624999999999984
 40
0.5624999999999984
 40
0.5937499999999987
 40
0.5937499999999987
 40
0.6249999999999988
 40
0.6249999999999988
 40
0.6874999999999991
 40
0.6874999999999991
 40
0.7499999999999994
 40
0.7499999999999994
 40
0.8749999999999997
 40
0.8749999999999997
 40
1.0
 40
1.0
 40
1.0
 40
1.0
 10
98.80219886149092
 20
226.7980782543616
 30
0.0
 10
98.337901431641
 20
224.8451588458552
 30
0.0
 10
97.83917145925057
 20
222.9014071579461
 30
0.0
 10
96.733771347016
 20
219.042590731694
 30
0.0
 10
96.12937755157762
 20
217.1269769961393
 30
0.0
 10
95.07681234988735
 20
214.3052871924312
 30
0.0
 10
94.70112091171794
 20
213.3732817837552
 30
0.0
 10
93.87401510776861
 20
211.5442156995776
 30
0.0
 10
93.42241159837023
 20
210.6434642964055
 30
0.0
 10
92.64846023312549
 20
209.3559542525535
 30
0.0
 10
92.3739952266414
 20
208.9371206496005
 30
0.0
 10
91.77369300752427
 20
208.1316690188109
 30
0.0
 10
91.44696721915673
 20
207.7435525119231
 30
0.0
 10
90.72273652679098
 20
207.0442158833814
 30
0.0
 10
90.32016191500803
 20
206.7286100876634
 30
0.0
 10
89.65318842796124
 20
206.3870932010131
 30
0.0
 10
89.41685902832465
 20
206.293910763157
 30
0.0
 10
89.04585272721106
 20
206.2014585064138
 30
0.0
 10
88.92082755154593
 20
206.1788247629672
 30
0.0
 10
88.66787805535853
 20
206.1510487771571
 30
0.0
 10
88.53926013520248
 20
206.1460355788732
 30
0.0
 10
88.15968918482697
 20
206.1581414023633
 30
0.0
 10
87.91200802212859
 20
206.2016263911065
 30
0.0
 10
87.42615584448635
 20
206.35135986539
 30
0.0
 10
87.19418445230798
 20
206.455894307026
 30
0.0
 10
86.75673091009271
 20
206.7037749458361
 30
0.0
 10
86.54804827650007
 20
206.8488585488976
 30
0.0
 10
86.15317181322479
 20
207.1650071090094
 30
0.0
 10
85.96818207155233
 20
207.3347597229472
 30
0.0
 10
85.43982434970876
 20
207.8689832590014
 30
0.0
 10
85.12190152566875
 20
208.2588831160443
 30
0.0
 10
84.53077837373569
 20
209.0740396725021
 30
0.0
 10
84.26146607299903
 20
209.4944658602173
 30
0.0
 10
83.5032531955576
 20
210.7800851692406
 30
0.0
 10
83.06312029839145
 20
211.6691510484087
 30
0.0
 10
82.25159563275976
 20
213.4809435779252
 30
0.0
 10
81.88169059818873
 20
214.4043977799101
 30
0.0
 10
80.84126930369327
 20
217.2087034486387
 30
0.0
 10
80.24392877387177
 20
219.1075144711445
 30
0.0
 10
79.15010606965859
 20
222.9327572114879
 30
0.0
 10
78.65570821373811
 20
224.8605373959511
 30
0.0
 10
78.19506696204527
 20
226.7980782543626
 30
0.0
  0
SPLINE
  5
107
330
1F
100
AcDbEntity
  8
0
  6
Continuous
 62
     7
370
    15
100
AcDbSpline
210
0.0
220
0.0
230
1.0
 70
     8
 71
     3
 72
    31
 73
    27
 74
     0
 42
0.00000001
 43
0.00000001
 12
1.0
 22
0.0
 32
0.0
 13
1.0
 23
0.0
 33
0.0
 40
0.0
 40
0.0
 40
0.0
 40
0.0
 40
0.0061028746018726
 40
0.01672413488392
 40
0.0277296365507473
 40
0.0387370809244176
 40
0.0518544521211039
 40
0.0649759611392675
 40
0.0784636307463327
 40
0.0919544473666531
 40
0.1155354197018241
 40
0.139129773694688
 40
0.1632527928072135
 40
0.1873809678063742
 40
0.2269084066711566
 40
0.2664911851954018
 40
0.3061120131180802
 40
0.3456914566048263
 40
0.3996322859394323
 40
0.4535917473488243
 40
0.5075441195753883
 40
0.5894506766850347
 40
0.6713764411949003
 40
0.7532951865996239
 40
0.8766452984653177
 40
1.0
 40
1.0
 40
1.0
 40
1.0
 10
178.8057196179284
 20
206.1516993551819
 30
0.0
 10
178.8057545510923
 20
206.1513309819242
 30
0.0
 10
178.8058502808888
 20
206.1503215028753
 30
0.0
 10
178.8033125492328
 20
206.1757901563665
 30
0.0
 10
178.7982914034984
 20
206.22613102195
 30
0.0
 10
178.7903154367048
 20
206.3061100307953
 30
0.0
 10
178.779274210962
 20
206.416769213867
 30
0.0
 10
178.7649375417966
 20
206.5606747782848
 30
0.0
 10
178.7482008881305
 20
206.7283862684785
 30
0.0
 10
178.7247444343473
 20
206.9636778330606
 30
0.0
 10
178.6933771551462
 20
207.2784641226395
 30
0.0
 10
178.6529712034702
 20
207.6838763171515
 30
0.0
 10
178.6096551033091
 20
208.1186980154824
 30
0.0
 10
178.5542338354703
 20
208.6752521301292
 30
0.0
 10
178.4862669133736
 20
209.3581264260411
 30
0.0
 10
178.4052036210603
 20
210.1730516991507
 30
0.0
 10
178.3219511513135
 20
211.0106146562199
 30
0.0
 10
178.2269437066012
 20
211.9668862312205
 30
0.0
 10
178.1201639308646
 20
213.0427080889895
 30
0.0
 10
178.0013640663479
 20
214.2405578244935
 30
0.0
 10
177.860699339449
 20
215.660369179194
 30
0.0
 10
177.6978787099965
 20
217.3055449512643
 30
0.0
 10
177.5127619711813
 20
219.1789700457605
 30
0.0
 10
177.2952542737673
 20
221.3833421525227
 30
0.0
 10
177.0453007874808
 20
223.9209108819607
 30
0.0
 10
176.8569086398406
 20
225.8390114764557
 30
0.0
 10
176.7627108136072
 20
226.7980796157687
 30
0.0
  0
LINE
  5
108
330
1F
100
AcDbEntity
  8
0
  6
Continuous
 62
     7
370
    15
100
AcDbLine
 10
158.1964823643
 20
226.7980796158
 30
0.0
 11
164.6997961441
 21
226.7980796158
 31
0.0
  0
LINE
  5
109
330
1F
100
AcDbEntity
  8
0
  6
Continuous
 62
     7
370
    15
100
AcDbLine
 10
176.699798111
 20
226.7980796158
 30
0.0
 11
176.7627108136
 21
226.7980796158
 31
0.0
  0
SPLINE
  5
10A
330
1F
100
AcDbEntity
  8
0
  6
Continuous
 62
     7
370
    15
100
AcDbSpline
210
0.0
220
0.0
230
1.0
 70
     8
 71
     3
 72
    12
 73
     8
 74
     0
 42
0.00000001
 43
0.00000001
 12
1.0
 22
0.0
 32
0.0
 13
1.0
 23
0.0
 33
0.0
 40
0.0
 40
0.0
 40
0.0
 40
0.0
 40
0.2701589804757679
 40
0.5403343818233255
 40
0.8104671316463768
 40
0.9952350036687138
 40
1.0
 40
1.0
 40
1.0
 40
1.0
 10
158.1964823642625
 20
226.7980796157687
 30
0.0
 10
158.1123330285756
 20
225.9725732714753
 30
0.0
 10
157.9440292424154
 20
224.3215104067521
 30
0.0
 10
157.6530937958563
 20
221.8582653531821
 30
0.0
 10
157.3529213066289
 20
219.6702055957718
 30
0.0
 10
157.1508638921002
 20
218.2875630316445
 30
0.0
 10
157.0541398207365
 20
217.723502143974
 30
0.0
 10
157.0517081061258
 20
217.7093212365477
 30
0.0
  0
ELLIPSE
  5
10B
330
1F
100
AcDbEntity
  8
0
  6
Continuous
 62
     7
370
    15
100
AcDbEllipse
 10
92.7533357669
 20
309.2829575808
 30
0.0
 11
-76.10564574016409
 21
80.09999409227669
 31
0.0
210
0.0
220
0.0
230
1.0
 40
0.4130611018
 41
2.73743093475208
 42
2.797770168083548
  0
LINE
  5
10C
330
1F
100
AcDbEntity
  8
0
  6
Continuous
 62
     7
370
    15
100
AcDbLine
 10
150.5058142582
 20
207.3120322883
 30
0.0
 11
149.71624643
 21
223.2741710603
 31
0.0
  0
SPLINE
  5
10D
330
1F
100
AcDbEntity
  8
0
  6
Continuous
 62
     7
370
    15
100
AcDbSpline
210
0.0
220
0.0
230
1.0
 70
     8
 71
     3
 72
    20
 73
    16
 74
     0
 42
0.00000001
 43
0.00000001
 12
1.0
 22
0.0
 32
0.0
 13
1.0
 23
0.0
 33
0.0
 40
0.0
 40
0.0
 40
0.0
 40
0.0
 40
0.0625
 40
0.0625
 40
0.1249999999999999
 40
0.1249999999999999
 40
0.2500000000000003
 40
0.2500000000000003
 40
0.3750000000000007
 40
0.3750000000000007
 40
0.5000000000000011
 40
0.5000000000000011
 40
0.7500000000000006
 40
0.7500000000000006
 40
1.0
 40
1.0
 40
1.0
 40
1.0
 10
150.505812716563
 20
207.3120316459106
 30
0.0
 10
150.2542842274645
 20
207.6157072377565
 30
0.0
 10
150.0226889994811
 20
207.9485454165267
 30
0.0
 10
149.583784633391
 20
208.6497355766053
 30
0.0
 10
149.3775337200413
 20
209.0174072008377
 30
0.0
 10
148.79386646453
 20
210.137414749378
 30
0.0
 10
148.445892668342
 20
210.9139882812147
 30
0.0
 10
147.7933090836774
 20
212.4986209701541
 30
0.0
 10
147.4896301811507
 20
213.3073575074194
 30
0.0
 10
146.9114418291278
 20
214.9459846758543
 30
0.0
 10
146.636918219212
 20
215.7768890249367
 30
0.0
 10
145.8486257329691
 20
218.2813487708075
 30
0.0
 10
145.3680958796036
 20
219.9697812894632
 30
0.0
 10
144.4600420146518
 20
223.368724733119
 30
0.0
 10
144.0332240793995
 20
225.0795316119235
 30
0.0
 10
143.6250393584374
 20
226.7980782543632
 30
0.0
  0
LINE
  5
10E
330
1F
100
AcDbEntity
  8
0
  6
Continuous
 62
     7
370
    15
100
AcDbLine
 10
98.8021991441
 20
226.7980796158
 30
0.0
 11
143.6250391642
 21
226.7980796158
 31
0.0
  0
LINE
  5
10F
330
1F
100
AcDbEntity
  8
0
  6
Continuous
 62
     7
370
    15
100
AcDbLine
 10
33.3722266594
 20
226.7980796158
 30
0.0
 11
78.1950666794
 21
226.7980796158
 31
0.0
  0
SPLINE
  5
110
330
1F
100
AcDbEntity
  8
0
  6
Continuous
 62
     7
370
    15
100
AcDbSpline
210
0.0
220
0.0
230
1.0
 70
     8
 71
     3
 72
    20
 73
    16
 74
     0
 42
0.00000001
 43
0.00000001
 12
1.0
 22
0.0
 32
0.0
 13
1.0
 23
0.0
 33
0.0
 40
0.0
 40
0.0
 40
0.0
 40
0.0
 40
0.2499999999999994
 40
0.2499999999999994
 40
0.4999999999999989
 40
0.4999999999999989
 40
0.624999999999999
 40
0.624999999999999
 40
0.7499999999999992
 40
0.7499999999999992
 40
0.8749999999999993
 40
0.8749999999999993
 40
0.9374999999999997
 40
0.9374999999999997
 40
1.0
 40
1.0
 40
1.0
 40
1.0
 10
33.37222646509974
 20
226.7980782543616
 30
0.0
 10
32.96407389836663
 20
225.0796669882336
 30
0.0
 10
32.53716026180899
 20
223.3684155547121
 30
0.0
 10
31.6283914537956
 20
219.9669386979645
 30
0.0
 10
31.14692025753232
 20
218.2755607247333
 30
0.0
 10
30.35891471566775
 20
215.7724993554554
 30
0.0
 10
30.08491800882131
 20
214.9432506081044
 30
0.0
 10
29.50584133109882
 20
213.3024395184893
 30
0.0
 10
29.20136193369405
 20
212.4916939157619
 30
0.0
 10
28.54556606234094
 20
210.9005215424494
 30
0.0
 10
28.19525662819292
 20
210.1205024632206
 30
0.0
 10
27.61380693818556
 20
209.00669759451
 30
0.0
 10
27.41035581345005
 20
208.644532259481
 30
0.0
 10
26.97408145658559
 20
207.9479660133002
 30
0.0
 10
26.74186946542788
 20
207.6143645392181
 30
0.0
 10
26.49145310696961
 20
207.3120316458938
 30
0.0
  0
LINE
  5
111
330
1F
100
AcDbEntity
  8
0
  6
Continuous
 62
     7
370
    15
100
AcDbLine
 10
26.4914515654
 20
207.3120322883
 30
0.0
 11
27.2810193935
 21
223.2741710603
 31
0.0
  0
ELLIPSE
  5
112
330
1F
100
AcDbEntity
  8
0
  6
Continuous
 62
     7
370
    15
100
AcDbEllipse
 10
84.2439300566
 20
309.2829575808
 30
0.0
 11
76.10564574016419
 21
80.09999409227676
 31
0.0
210
0.0
220
0.0
230
1.0
 40
0.4130611018
 41
3.485415139096065
 42
3.545754372427531
  0
SPLINE
  5
113
330
1F
100
AcDbEntity
  8
0
  6
Continuous
 62
     7
370
    15
100
AcDbSpline
210
0.0
220
0.0
230
1.0
 70
     8
 71
     3
 72
    11
 73
     7
 74
     0
 42
0.00000001
 43
0.00000001
 12
1.0
 22
0.0
 32
0.0
 13
1.0
 23
0.0
 33
0.0
 40
0.0
 40
0.0
 40
0.0
 40
0.0
 40
0.1635328529963649
 40
0.3720460232216103
 40
0.6860172499419841
 40
1.0
 40
1.0
 40
1.0
 40
1.0
 10
19.94764387997525
 20
217.712383425173
 30
0.0
 10
19.86937473642206
 20
218.2013086666061
 30
0.0
 10
19.69130823133529
 20
219.313639848964
 30
0.0
 10
19.40786184581579
 20
221.3838136727906
 30
0.0
 10
19.09513690829213
 20
223.9207729985565
 30
0.0
 10
18.89890247595204
 20
225.8389656766969
 30
0.0
 10
18.80078345927136
 20
226.7980796157686
 30
0.0
  0
LINE
  5
114
330
1F
100
AcDbEntity
  8
0
  6
Continuous
 62
     7
370
    15
100
AcDbLine
 10
0.2345550099
 20
226.7980796158
 30
0.0
 11
0.2833265105
 21
226.7980796158
 31
0.0
  0
LINE
  5
115
330
1F
100
AcDbEntity
  8
0
  6
Continuous
 62
     7
370
    15
100
AcDbLine
 10
12.2833284775
 20
226.7980796158
 30
0.0
 11
18.8007834593
 21
226.7980796158
 31
0.0
  0
SPLINE
  5
116
330
1F
100
AcDbEntity
  8
0
  6
Continuous
 62
     7
370
    15
100
AcDbSpline
210
0.0
220
0.0
230
1.0
 70
     8
 71
     3
 72
    33
 73
    29
 74
     0
 42
0.00000001
 43
0.00000001
 12
1.0
 22
0.0
 32
0.0
 13
1.0
 23
0.0
 33
0.0
 40
0.0
 40
0.0
 40
0.0
 40
0.0
 40
0.0795879183782313
 40
0.159174981381192
 40
0.2388325209603425
 40
0.3184886665140818
 40
0.3729076338579946
 40
0.4273258578020339
 40
0.4818183053692511
 40
0.5363092677559349
 40
0.5738727314362351
 40
0.6114354332088549
 40
0.6490810065633902
 40
0.6867248378605664
 40
0.7248264408438527
 40
0.7629232944927992
 40
0.801432112768279
 40
0.8399234108836062
 40
0.8713965698995755
 40
0.887290555247054
 40
0.9031816600694129
 40
0.918966792054825
 40
0.9347463626934026
 40
0.9510983428859209
 40
0.9674401102465331
 40
0.9813607798984498
 40
0.9954820174194452
 40
0.9999999999999999
 40
0.9999999999999999
 40
0.9999999999999999
 40
0.9999999999999999
 10
0.2345550099267235
 20
226.7980796157686
 30
0.0
 10
0.1737713336356222
 20
226.1790624522775
 30
0.0
 10
0.0522046343291033
 20
224.9410347782144
 30
0.0
 10
-0.1298080586934064
 20
223.0909264007112
 30
0.0
 10
-0.3114353467546516
 20
221.2472214766872
 30
0.0
 10
-0.473339448210916
 20
219.6060467665776
 30
0.0
 10
-0.6155644971649749
 20
218.1662713689423
 30
0.0
 10
-0.7382577159858322
 20
216.9252098789443
 30
0.0
 10
-0.8603678669416026
 20
215.6913673196947
 30
0.0
 10
-0.9691126439760334
 20
214.5935785857076
 30
0.0
 10
-1.064562765318994
 20
213.6308244951212
 30
0.0
 10
-1.146949809774561
 20
212.8002976265534
 30
0.0
 10
-1.228619672337006
 20
211.9776754414984
 30
0.0
 10
-1.309640474752391
 20
211.1619833960954
 30
0.0
 10
-1.389691218393135
 20
210.3565591649727
 30
0.0
 10
-1.468551983693778
 20
209.5636102336537
 30
0.0
 10
-1.545320796719651
 20
208.7923001793921
 30
0.0
 10
-1.614295373284169
 20
208.099519109311
 30
0.0
 10
-1.665371923327719
 20
207.586892974635
 30
0.0
 10
-1.700348936893567
 20
207.2358561780169
 30
0.0
 10
-1.725018362719682
 20
206.9884468918505
 30
0.0
 10
-1.747594419554993
 20
206.761961983106
 30
0.0
 10
-1.767859455098858
 20
206.5586715254059
 30
0.0
 10
-1.785096239423758
 20
206.3859308135234
 30
0.0
 10
-1.797829347164035
 20
206.2581233668643
 30
0.0
 10
-1.805614675429959
 20
206.1801996159077
 30
0.0
 10
-1.808790837382237
 20
206.1482219419974
 30
0.0
 10
-1.808519551661031
 20
206.151020910017
 30
0.0
 10
-1.80845379439458
 20
206.1516993551819
 30
0.0
  0
LINE
  5
117
330
1F
100
AcDbEntity
  8
0
  6
Continuous
 62
     7
370
    15
100
AcDbLine
 10
165.0429400841
 20
354.9180884718
 30
0.0
 11
162.6997995416
 21
354.9180884718
 31
0.0
  0
LINE
  5
118
330
1F
100
AcDbEntity
  8
0
  6
Continuous
 62
     7
370
    15
100
AcDbLine
 10
178.6997947136
 20
354.9180884718
 30
0.0
 11
165.0429400841
 21
354.9180884718
 31
0.0
  0
LINE
  5
119
330
1F
100
AcDbEntity
  8
0
  6
Continuous
 62
     7
370
    15
100
AcDbLine
 10
165.0429400841
 20
355.4180969357
 30
0.0
 11
162.6997995416
 21
355.4180969357
 31
0.0
  0
LINE
  5
11A
330
1F
100
AcDbEntity
  8
0
  6
Continuous
 62
     7
370
    15
100
AcDbLine
 10
178.6997947136
 20
355.4180969357
 30
0.0
 11
165.0429400841
 21
355.4180969357
 31
0.0
  0
LINE
  5
11B
330
1F
100
AcDbEntity
  8
0
  6
Continuous
 62
     7
370
    15
100
AcDbLine
 10
14.28332508
 20
355.4180969357
 30
0.0
 11
-1.716670092
 21
355.4180969357
 31
0.0
  0
LINE
  5
11C
330
1F
100
AcDbEntity
  8
0
  6
Continuous
 62
     7
370
    15
100
AcDbLine
 10
14.28332508
 20
354.9180884718
 30
0.0
 11
-1.716670092
 21
354.9180884718
 31
0.0
  0
LINE
  5
11D
330
1F
100
AcDbEntity
  8
0
  6
Continuous
 62
     7
370
    15
100
AcDbLine
 10
160.103920404
 20
342.4180854916
 30
0.0
 11
160.103920404
 21
332.4180950283
 31
0.0
  0
LINE
  5
11E
330
1F
100
AcDbEntity
  8
0
  6
Continuous
 62
     7
370
    15
100
AcDbLine
 10
160.103920404
 20
342.4180854916
 30
0.0
 11
162.9430758992
 21
342.4180854916
 31
0.0
  0
LINE
  5
11F
330
1F
100
AcDbEntity
  8
0
  6
Continuous
 62
     7
370
    15
100
AcDbLine
 10
16.8792042175
 20
342.4180854916
 30
0.0
 11
16.8792042175
 21
332.4180950283
 31
0.0
  0
LINE
  5
120
330
1F
100
AcDbEntity
  8
0
  6
Continuous
 62
     7
370
    15
100
AcDbLine
 10
14.0400412718
 20
342.4180854916
 30
0.0
 11
16.8792042175
 21
342.4180854916
 31
0.0
  0
LWPOLYLINE
  5
121
330
1F
100
AcDbEntity
  8
0
  6
Continuous
 62
     7
370
    15
100
AcDbPolyline
 90
        3
 70
   128
 43
0.0
 10
70.8835623452
 20
243.0601117074
 10
68.7453407088
 20
242.1895486175
 10
66.6174493024
 20
241.3231951057
  0
LWPOLYLINE
  5
122
330
1F
100
AcDbEntity
  8
0
  6
Continuous
 62
     7
370
    15
100
AcDbPolyline
 90
        3
 70
   128
 43
0.0
 10
66.6174493024
 20
241.3231951057
 10
68.7438766697
 20
240.5069355726
 10
70.8835623452
 20
239.6855872928
  0
LINE
  5
123
330
1F
100
AcDbEntity
  8
0
  6
Continuous
 62
     7
370
    15
100
AcDbLine
 10
70.8835623452
 20
239.6855872928
 30
0.0
 11
70.8835623452
 21
243.0601117074
 31
0.0
  0
LINE
  5
124
330
1F
100
AcDbEntity
  8
0
  6
Continuous
 62
     7
370
    15
100
AcDbLine
 10
63.8121343443
 20
234.2684601306
 30
0.0
 11
67.2407052705
 21
234.2684601306
 31
0.0
  0
LINE
  5
125
330
1F
100
AcDbEntity
  8
0
  6
Continuous
 62
     7
370
    15
100
AcDbLine
 10
63.8121343443
 20
244.0216985404
 30
0.0
 11
63.8121343443
 21
234.2684601306
 31
0.0
  0
LWPOLYLINE
  5
126
330
1F
100
AcDbEntity
  8
0
  6
Continuous
 62
     7
370
    15
100
AcDbPolyline
 90
        6
 70
   128
 43
0.0
 10
76.0264196658
 20
248.9946593403
 10
73.5601098502
 20
247.9905147909
 10
71.1035947541
 20
246.9903637528
 10
68.6588096658
 20
245.9949885368
 10
66.2276833543
 20
245.0051714539
 10
63.8121343443
 20
244.0216985404
  0
LINE
  5
127
330
1F
100
AcDbEntity
  8
0
  6
Continuous
 62
     7
370
    15
100
AcDbLine
 10
76.0264196658
 20
245.1539893507
 30
0.0
 11
76.0264196658
 21
248.9946593403
 31
0.0
  0
LINE
  5
128
330
1F
100
AcDbEntity
  8
0
  6
Continuous
 62
     7
370
    15
100
AcDbLine
 10
74.1407047251
 20
244.3862330973
 30
0.0
 11
76.0264196658
 21
245.1539893507
 31
0.0
  0
LINE
  5
129
330
1F
100
AcDbEntity
  8
0
  6
Continuous
 62
     7
370
    15
100
AcDbLine
 10
74.1407047251
 20
238.8025370299
 30
0.0
 11
74.1407047251
 21
244.3862330973
 31
0.0
  0
LINE
  5
12A
330
1F
100
AcDbEntity
  8
0
  6
Continuous
 62
     7
370
    15
100
AcDbLine
 10
76.0264196658
 20
238.078675872
 30
0.0
 11
74.1407047251
 21
238.8025370299
 31
0.0
  0
LINE
  5
12B
330
1F
100
AcDbEntity
  8
0
  6
Continuous
 62
     7
370
    15
100
AcDbLine
 10
76.0264196658
 20
234.2684601306
 30
0.0
 11
76.0264196658
 21
238.078675872
 31
0.0
  0
LINE
  5
12C
330
1F
100
AcDbEntity
  8
0
  6
Continuous
 62
     7
370
    15
100
AcDbLine
 10
67.2407052705
 20
234.2684601306
 30
0.0
 11
67.2407052705
 21
237.640980339
 31
0.0
  0
LWPOLYLINE
  5
12D
330
1F
100
AcDbEntity
  8
0
  6
Continuous
 62
     7
370
    15
100
AcDbPolyline
 90
        4
 70
   128
 43
0.0
 10
67.2407052705
 20
237.640980339
 10
70.1474114546
 20
236.5252000152
 10
73.0770617017
 20
235.4006131052
 10
76.0264196658
 20
234.2684601306
  0
SPLINE
  5
12E
330
1F
100
AcDbEntity
  8
0
  6
Continuous
 62
     7
370
    15
100
AcDbSpline
210
0.0
220
0.0
230
1.0
 70
     8
 71
     3
 72
     8
 73
     4
 74
     0
 42
0.00000001
 43
0.00000001
 12
1.0
 22
0.0
 32
0.0
 13
1.0
 23
0.0
 33
0.0
 40
0.0
 40
0.0
 40
0.0
 40
0.0
 40
1.0
 40
1.0
 40
1.0
 40
1.0
 10
6.841277352874584
 20
182.8684617637961
 30
0.0
 10
5.591342574198937
 20
183.8202100596231
 30
0.0
 10
4.395382476962931
 20
184.8244485890087
 30
0.0
 10
3.241034559072709
 20
185.8684617637961
 30
0.0
  0
LINE
  5
12F
330
1F
100
AcDbEntity
  8
0
  6
Continuous
 62
     7
370
    15
100
AcDbLine
 10
3.2410356441
 20
185.8684617899
 30
0.0
 11
0.5365866462
 21
185.8684617899
 31
0.0
  0
LINE
  5
130
330
1F
100
AcDbEntity
  8
0
  6
Continuous
 62
     7
370
    15
100
AcDbLine
 10
0.2411413232
 20
189.8684619799
 30
0.0
 11
0.5365866462
 21
185.8684617899
 31
0.0
  0
LINE
  5
131
330
1F
100
AcDbEntity
  8
0
  6
Continuous
 62
     7
370
    15
100
AcDbLine
 10
6.8412753979
 20
182.8684617638
 30
0.0
 11
23.2887673417
 21
182.8684617638
 31
0.0
  0
SPLINE
  5
132
330
1F
100
AcDbEntity
  8
0
  6
Continuous
 62
     7
370
    15
100
AcDbSpline
210
0.0
220
0.0
230
1.0
 70
     8
 71
     3
 72
     8
 73
     4
 74
     0
 42
0.00000001
 43
0.00000001
 12
1.0
 22
0.0
 32
0.0
 13
1.0
 23
0.0
 33
0.0
 40
0.0
 40
0.0
 40
0.0
 40
0.0
 40
1.0
 40
1.0
 40
1.0
 40
1.0
 10
173.7562312644562
 20
185.8684617637961
 30
0.0
 10
172.6018833465656
 20
184.8244485890086
 30
0.0
 10
171.4059232493293
 20
183.820210059623
 30
0.0
 10
170.1559884706533
 20
182.8684617637961
 30
0.0
  0
LINE
  5
133
330
1F
100
AcDbEntity
  8
0
  6
Continuous
 62
     7
370
    15
100
AcDbLine
 10
176.7561245004
 20
189.8684619799
 30
0.0
 11
176.4606791774
 21
185.8684617899
 31
0.0
  0
LINE
  5
134
330
1F
100
AcDbEntity
  8
0
  6
Continuous
 62
     7
370
    15
100
AcDbLine
 10
176.4606791774
 20
185.8684617899
 30
0.0
 11
173.7562301794
 21
185.8684617899
 31
0.0
  0
LINE
  5
135
330
1F
100
AcDbEntity
  8
0
  6
Continuous
 62
     7
370
    15
100
AcDbLine
 10
153.7084984818
 20
182.8684617638
 30
0.0
 11
170.1559904257
 21
182.8684617638
 31
0.0
  0
LINE
  5
136
330
1F
100
AcDbEntity
  8
0
  6
Continuous
 62
     7
370
    15
100
AcDbLine
 10
166.1036047378
 20
366.9180829882
 30
0.0
 11
164.1997951308
 21
366.9180829882
 31
0.0
  0
LINE
  5
137
330
1F
100
AcDbEntity
  8
0
  6
Continuous
 62
     7
370
    15
100
AcDbLine
 10
177.1997991243
 20
366.9180829882
 30
0.0
 11
166.1036047378
 21
366.9180829882
 31
0.0
  0
LINE
  5
138
330
1F
100
AcDbEntity
  8
0
  6
Continuous
 62
     7
370
    15
100
AcDbLine
 10
12.7833294907
 20
366.9180829882
 30
0.0
 11
-0.2166745028
 21
366.9180829882
 31
0.0
  0
LWPOLYLINE
  5
139
330
1F
100
AcDbEntity
  8
0
  6
Continuous
 62
     7
370
    15
100
AcDbPolyline
 90
        6
 70
   128
 43
0.0
 10
70.8835623452
 20
252.2684593558
 10
68.4521380106
 20
251.2785230636
 10
66.034528915
 20
250.2942119598
 10
63.6326368192
 20
249.3163009047
 10
61.2483560333
 20
248.3455573081
 10
58.8835622409
 20
247.3827485799
  0
LWPOLYLINE
  5
13A
330
1F
100
AcDbEntity
  8
0
  6
Continuous
 62
     7
370
    15
100
AcDbPolyline
 90
        6
 70
   128
 43
0.0
 10
58.8835622409
 20
257.1541775822
 10
61.2400188336
 20
256.1947588682
 10
63.6201459208
 20
255.2257065534
 10
66.0220529178
 20
254.2477880477
 10
68.4438324759
 20
253.2617782115
 10
70.8835623452
 20
252.2684593558
  0
LINE
  5
13B
330
1F
100
AcDbEntity
  8
0
  6
Continuous
 62
     7
370
    15
100
AcDbLine
 10
58.8835622409
 20
270.2684585809
 30
0.0
 11
58.8835622409
 21
257.1541775822
 31
0.0
  0
LINE
  5
13C
330
1F
100
AcDbEntity
  8
0
  6
Continuous
 62
     7
370
    15
100
AcDbLine
 10
62.4407059738
 20
270.2684585809
 30
0.0
 11
58.8835622409
 21
270.2684585809
 31
0.0
  0
LINE
  5
13D
330
1F
100
AcDbEntity
  8
0
  6
Continuous
 62
     7
370
    15
100
AcDbLine
 10
62.4407059738
 20
259.5928494691
 30
0.0
 11
62.4407059738
 21
270.2684585809
 31
0.0
  0
LWPOLYLINE
  5
13E
330
1F
100
AcDbEntity
  8
0
  6
Continuous
 62
     7
370
    15
100
AcDbPolyline
 90
        7
 70
   128
 43
0.0
 10
76.0264196658
 20
254.0615235328
 10
73.7269441822
 20
254.9977411389
 10
71.4394445756
 20
255.9290786146
 10
69.1655013004
 20
256.8549026608
 10
66.9066901544
 20
257.7745576262
 10
64.6645738969
 20
258.6874176621
 10
62.4407059738
 20
259.5928494691
  0
LINE
  5
13F
330
1F
100
AcDbEntity
  8
0
  6
Continuous
 62
     7
370
    15
100
AcDbLine
 10
76.0264196658
 20
250.4753951787
 30
0.0
 11
76.0264196658
 21
254.0615235328
 31
0.0
  0
LINE
  5
140
330
1F
100
AcDbEntity
  8
0
  6
Continuous
 62
     7
370
    15
100
AcDbLine
 10
62.4407059738
 20
234.2684601306
 30
0.0
 11
62.4407059738
 21
244.9440692424
 31
0.0
  0
LINE
  5
141
330
1F
100
AcDbEntity
  8
0
  6
Continuous
 62
     7
370
    15
100
AcDbLine
 10
58.8835622409
 20
234.2684601306
 30
0.0
 11
62.4407059738
 21
234.2684601306
 31
0.0
  0
LINE
  5
142
330
1F
100
AcDbEntity
  8
0
  6
Continuous
 62
     7
370
    15
100
AcDbLine
 10
58.8835622409
 20
247.3827485799
 30
0.0
 11
58.8835622409
 21
234.2684601306
 31
0.0
  0
LWPOLYLINE
  5
143
330
1F
100
AcDbEntity
  8
0
  6
Continuous
 62
     7
370
    15
100
AcDbPolyline
 90
        6
 70
   128
 43
0.0
 10
62.4407059738
 20
244.9440692424
 10
65.12222581
 20
246.0358326196
 10
67.824217979
 20
247.1359257459
 10
70.5440282116
 20
248.2432831883
 10
73.2789910624
 20
249.3568022608
 10
76.0264196658
 20
250.4753951787
  0
LINE
  5
144
330
1F
100
AcDbEntity
  8
0
  6
Continuous
 62
     7
370
    15
100
AcDbLine
 10
67.2407052705
 20
269.2398910283
 30
0.0
 11
67.2407052705
 21
270.2684585809
 31
0.0
  0
SPLINE
  5
145
330
1F
100
AcDbEntity
  8
0
  6
Continuous
 62
     7
370
    15
100
AcDbSpline
210
0.0
220
0.0
230
1.0
 70
     8
 71
     3
 72
    18
 73
    14
 74
     0
 42
0.00000001
 43
0.00000001
 12
1.0
 22
0.0
 32
0.0
 13
1.0
 23
0.0
 33
0.0
 40
0.0
 40
0.0
 40
0.0
 40
0.0
 40
0.2499999999999981
 40
0.2499999999999981
 40
0.3749999999999977
 40
0.3749999999999977
 40
0.4999999999999973
 40
0.4999999999999973
 40
0.6249999999999969
 40
0.6249999999999969
 40
0.7499999999999966
 40
0.7499999999999966
 40
1.0
 40
1.0
 40
1.0
 40
1.0
 10
70.5943044845703
 20
265.3179267408726
 30
0.0
 10
70.49902434220945
 20
265.7665261385317
 30
0.0
 10
70.34983778986876
 20
266.1921933665399
 30
0.0
 10
70.04935215185026
 20
266.7978578449978
 30
0.0
 10
69.93531311985677
 20
266.9955160059359
 30
0.0
 10
69.6855351273051
 20
267.3716029369343
 30
0.0
 10
69.55011769766332
 20
267.5500147159543
 30
0.0
 10
69.25899138725106
 20
267.888187981043
 30
0.0
 10
69.10328046253055
 20
268.0479478164478
 30
0.0
 10
68.77139504899654
 20
268.3485678407128
 30
0.0
 10
68.59481507985974
 20
268.4894476085207
 30
0.0
 10
68.04831737308356
 20
268.8726995663361
 30
0.0
 10
67.65767602108414
 20
269.080457509348
 30
0.0
 10
67.24070507531678
 20
269.2398903352246
 30
0.0
  0
LWPOLYLINE
  5
146
330
1F
100
AcDbEntity
  8
0
  6
Continuous
 62
     7
370
    15
100
AcDbPolyline
 90
        4
 70
   128
 43
0.0
 10
76.0264196658
 20
269.4113214373
 10
74.211176973
 20
268.0434395432
 10
72.4002062568
 20
266.6787688493
 10
70.5943047294
 20
265.3179277539
  0
LINE
  5
147
330
1F
100
AcDbEntity
  8
0
  6
Continuous
 62
     7
370
    15
100
AcDbLine
 10
76.0264196658
 20
264.9572898506
 30
0.0
 11
76.0264196658
 21
269.4113214373
 31
0.0
  0
LWPOLYLINE
  5
148
330
1F
100
AcDbEntity
  8
0
  6
Continuous
 62
     7
370
    15
100
AcDbPolyline
 90
        4
 70
   128
 43
0.0
 10
71.2238229105
 20
261.3382746338
 10
72.8210914174
 20
262.5419084787
 10
74.4221383
 20
263.7483809947
 10
76.0264196658
 20
264.9572898506
  0
LWPOLYLINE
  5
149
330
1F
100
AcDbEntity
  8
0
  6
Continuous
 62
     7
370
    15
100
AcDbPolyline
 90
        4
 70
   128
 43
0.0
 10
76.0264196658
 20
259.3829368114
 10
74.4197233805
 20
260.0370903372
 10
72.8186755666
 20
260.6889416336
 10
71.2238229105
 20
261.3382746338
  0
LINE
  5
14A
330
1F
100
AcDbEntity
  8
0
  6
Continuous
 62
     7
370
    15
100
AcDbLine
 10
63.8121343443
 20
264.355893886
 30
0.0
 11
63.8121343443
 21
260.5152238964
 31
0.0
  0
LWPOLYLINE
  5
14B
330
1F
100
AcDbEntity
  8
0
  6
Continuous
 62
     7
370
    15
100
AcDbPolyline
 90
        4
 70
   128
 43
0.0
 10
68.266417388
 20
262.5423629641
 10
66.7740903089
 20
263.1499578118
 10
65.28917842
 20
263.7545277237
 10
63.8121343443
 20
264.355893886
  0
SPLINE
  5
14C
330
1F
100
AcDbEntity
  8
0
  6
Continuous
 62
     7
370
    15
100
AcDbSpline
210
0.0
220
0.0
230
1.0
 70
     8
 71
     3
 72
    22
 73
    18
 74
     0
 42
0.00000001
 43
0.00000001
 12
1.0
 22
0.0
 32
0.0
 13
1.0
 23
0.0
 33
0.0
 40
0.0
 40
0.0
 40
0.0
 40
0.0
 40
0.125
 40
0.125
 40
0.25
 40
0.25
 40
0.375
 40
0.375
 40
0.5
 40
0.5
 40
0.625
 40
0.625
 40
0.75
 40
0.75
 40
0.875
 40
0.875
 40
1.0
 40
1.0
 40
1.0
 40
1.0
 10
63.81213364674536
 20
266.8398903352246
 30
0.0
 10
64.09508024336266
 20
266.8398903352246
 30
0.0
 10
64.37357953182598
 20
266.813191049748
 30
0.0
 10
64.92199532386313
 20
266.7085143212272
 30
0.0
 10
65.19381348266398
 20
266.6297523330908
 30
0.0
 10
65.71947829677764
 20
266.4210795339494
 30
0.0
 10
65.96954121370611
 20
266.2931110021212
 30
0.0
 10
66.44432903563553
 20
265.9906412867772
 30
0.0
 10
66.6712501580173
 20
265.8138918233588
 30
0.0
 10
67.08485344759205
 20
265.4219256315141
 30
0.0
 10
67.27140812811253
 20
265.2078284941135
 30
0.0
 10
67.60363222215061
 20
264.7432985233423
 30
0.0
 10
67.7501754981725
 20
264.4900581479288
 30
0.0
 10
67.98846015304446
 20
263.9661706039791
 30
0.0
 10
68.08188893575364
 20
263.6940796302276
 30
0.0
 10
68.21591603049787
 20
263.1291407777681
 30
0.0
 10
68.25588003138799
 20
262.836424873144
 30
0.0
 10
68.26641753080867
 20
262.5423642978517
 30
0.0
  0
LINE
  5
14D
330
1F
100
AcDbEntity
  8
0
  6
Continuous
 62
     7
370
    15
100
AcDbLine
 10
63.8121343443
 20
270.2684585809
 30
0.0
 11
63.8121343443
 21
266.8398876547
 31
0.0
  0
LINE
  5
14E
330
1F
100
AcDbEntity
  8
0
  6
Continuous
 62
     7
370
    15
100
AcDbLine
 10
67.2407052705
 20
270.2684585809
 30
0.0
 11
63.8121343443
 21
270.2684585809
 31
0.0
  0
LINE
  5
14F
330
1F
100
AcDbEntity
  8
0
  6
Continuous
 62
     7
370
    15
100
AcDbLine
 10
76.0264196658
 20
255.5422668218
 30
0.0
 11
76.0264196658
 21
259.3829368114
 31
0.0
  0
LWPOLYLINE
  5
150
330
1F
100
AcDbEntity
  8
0
  6
Continuous
 62
     7
370
    15
100
AcDbPolyline
 90
        6
 70
   128
 43
0.0
 10
63.8121343443
 20
260.5152238964
 10
66.2190201918
 20
259.5352788328
 10
68.6458493808
 20
258.5472126364
 10
71.090671722
 20
257.5518225192
 10
73.5515211934
 20
256.5499056935
 10
76.0264196658
 20
255.5422668218
  0
LINE
  5
151
330
1F
100
AcDbEntity
  8
0
  6
Continuous
 62
     7
370
    15
100
AcDbLine
 10
147.1884954015
 20
332.918088591
 30
0.0
 11
160.103920404
 21
332.918088591
 31
0.0
  0
LINE
  5
152
330
1F
100
AcDbEntity
  8
0
  6
Continuous
 62
     7
370
    15
100
AcDbLine
 10
16.8792042175
 20
332.918088591
 30
0.0
 11
147.1884954015
 21
332.918088591
 31
0.0
  0
LINE
  5
153
330
1F
100
AcDbEntity
  8
0
  6
Continuous
 62
     7
370
    15
100
AcDbLine
 10
0.2833265105
 20
311.1519773363
 30
0.0
 11
-6.8010282477
 21
324.9180872797
 31
0.0
  0
LINE
  5
154
330
1F
100
AcDbEntity
  8
0
  6
Continuous
 62
     7
370
    15
100
AcDbLine
 10
183.7982940713
 20
324.9180872797
 30
0.0
 11
176.699798111
 21
311.1244995951
 31
0.0
  0
LINE
  5
155
330
1F
100
AcDbEntity
  8
0
  6
Continuous
 62
     7
370
    15
100
AcDbLine
 10
0.2833265105
 20
303.2910187601
 30
0.0
 11
-12.4493730029
 21
324.9180872797
 31
0.0
  0
LINE
  5
156
330
1F
100
AcDbEntity
  8
0
  6
Continuous
 62
     7
370
    15
100
AcDbLine
 10
189.4466388265
 20
324.9180872797
 30
0.0
 11
176.699798111
 21
303.2669980883
 31
0.0
  0
LINE
  5
157
330
1F
100
AcDbEntity
  8
0
  6
Continuous
 62
     7
370
    15
100
AcDbLine
 10
12.2833284775
 20
298.3684648632
 30
0.0
 11
20.1605069676
 21
298.3684648632
 31
0.0
  0
LINE
  5
158
330
1F
100
AcDbEntity
  8
0
  6
Continuous
 62
     7
370
    15
100
AcDbLine
 10
156.8367588559
 20
298.3684648632
 30
0.0
 11
164.6997961441
 21
298.3684648632
 31
0.0
  0
LINE
  5
159
330
1F
100
AcDbEntity
  8
0
  6
Continuous
 62
     7
370
    15
100
AcDbLine
 10
161.704327468
 20
205.7180904656
 30
0.0
 11
149.71624643
 21
223.2741710603
 31
0.0
  0
LINE
  5
15A
330
1F
100
AcDbEntity
  8
0
  6
Continuous
 62
     7
370
    15
100
AcDbLine
 10
164.6997961441
 20
206.5089975356
 30
0.0
 11
153.2517778912
 21
223.2741710603
 31
0.0
  0
LINE
  5
15B
330
1F
100
AcDbEntity
  8
0
  6
Continuous
 62
     7
370
    15
100
AcDbLine
 10
150.5058142582
 20
207.3120322883
 30
0.0
 11
150.5058142582
 21
204.6080247372
 31
0.0
  0
LINE
  5
15C
330
1F
100
AcDbEntity
  8
0
  6
Continuous
 62
     7
370
    15
100
AcDbLine
 10
12.2833284775
 20
206.4882867842
 30
0.0
 11
23.7454879323
 21
223.2741710603
 31
0.0
  0
LINE
  5
15D
330
1F
100
AcDbEntity
  8
0
  6
Continuous
 62
     7
370
    15
100
AcDbLine
 10
15.2929383555
 20
205.7180904656
 30
0.0
 11
27.2810193935
 21
223.2741710603
 31
0.0
  0
LINE
  5
15E
330
1F
100
AcDbEntity
  8
0
  6
Continuous
 62
     7
370
    15
100
AcDbLine
 10
26.4914515654
 20
207.3120322883
 30
0.0
 11
26.4914515654
 21
204.6080247372
 31
0.0
  0
LINE
  5
15F
330
1F
100
AcDbEntity
  8
0
  6
Continuous
 62
     7
370
    15
100
AcDbLine
 10
200.7085117737
 20
189.8684619799
 30
0.0
 11
200.7001820246
 21
185.8684617899
 31
0.0
  0
LINE
  5
160
330
1F
100
AcDbEntity
  8
0
  6
Continuous
 62
     7
370
    15
100
AcDbLine
 10
191.3508880177
 20
185.8684617899
 30
0.0
 11
200.7001820246
 21
185.8684617899
 31
0.0
  0
LINE
  5
161
330
1F
100
AcDbEntity
  8
0
  6
Continuous
 62
     7
370
    15
100
AcDbLine
 10
-23.7112459501
 20
189.8684619799
 30
0.0
 11
-23.702916201
 21
185.8684617899
 31
0.0
  0
LINE
  5
162
330
1F
100
AcDbEntity
  8
0
  6
Continuous
 62
     7
370
    15
100
AcDbLine
 10
-14.3536221942
 20
185.8684617899
 30
0.0
 11
-23.702916201
 21
185.8684617899
 31
0.0
  0
LINE
  5
163
330
1F
100
AcDbEntity
  8
0
  6
Continuous
 62
     7
370
    15
100
AcDbLine
 10
221.8261170426
 20
185.8684617899
 30
0.0
 11
200.7001820246
 21
185.8684617899
 31
0.0
  0
LINE
  5
164
330
1F
100
AcDbEntity
  8
0
  6
Continuous
 62
     7
370
    15
100
AcDbLine
 10
-23.702916201
 20
185.8684617899
 30
0.0
 11
-44.8288512191
 21
185.8684617899
 31
0.0
  0
LINE
  5
165
330
1F
100
AcDbEntity
  8
0
  6
Continuous
 62
     7
370
    15
100
AcDbLine
 10
176.4606791774
 20
185.8684617899
 30
0.0
 11
191.3508880177
 21
185.8684617899
 31
0.0
  0
LINE
  5
166
330
1F
100
AcDbEntity
  8
0
  6
Continuous
 62
     7
370
    15
100
AcDbLine
 10
0.5365866462
 20
185.8684617899
 30
0.0
 11
-14.3536221942
 21
185.8684617899
 31
0.0
  0
LINE
  5
167
330
1F
100
AcDbEntity
  8
0
  6
Continuous
 62
     7
370
    15
100
AcDbLine
 10
183.680358831
 20
185.8684617899
 30
0.0
 11
180.9992674032
 21
182.8684617638
 31
0.0
  0
LINE
  5
168
330
1F
100
AcDbEntity
  8
0
  6
Continuous
 62
     7
370
    15
100
AcDbLine
 10
180.9992674032
 20
182.8684617638
 30
0.0
 11
170.1559904257
 21
182.8684617638
 31
0.0
  0
LINE
  5
169
330
1F
100
AcDbEntity
  8
0
  6
Continuous
 62
     7
370
    15
100
AcDbLine
 10
-4.0020015797
 20
182.8684617638
 30
0.0
 11
-6.6830930075
 21
185.8684617899
 31
0.0
  0
LINE
  5
16A
330
1F
100
AcDbEntity
  8
0
  6
Continuous
 62
     7
370
    15
100
AcDbLine
 10
6.8412753979
 20
182.8684617638
 30
0.0
 11
-4.0020015797
 21
182.8684617638
 31
0.0
  0
LINE
  5
16B
330
1F
100
AcDbEntity
  8
0
  6
Continuous
 62
     7
370
    15
100
AcDbLine
 10
176.699798111
 20
298.3684648632
 30
0.0
 11
191.9192034045
 21
298.3684648632
 31
0.0
  0
LINE
  5
16C
330
1F
100
AcDbEntity
  8
0
  6
Continuous
 62
     7
370
    15
100
AcDbLine
 10
-14.921937581
 20
298.3684648632
 30
0.0
 11
0.2833265105
 21
298.3684648632
 31
0.0
  0
LINE
  5
16D
330
1F
100
AcDbEntity
  8
0
  6
Continuous
 62
     7
370
    15
100
AcDbLine
 10
-18.4880834779
 20
321.1463947653
 30
0.0
 11
-10.2288243136
 21
321.1463947653
 31
0.0
  0
LINE
  5
16E
330
1F
100
AcDbEntity
  8
0
  6
Continuous
 62
     7
370
    15
100
AcDbLine
 10
187.2260901371
 20
321.1463947653
 30
0.0
 11
195.4853493014
 21
321.1463947653
 31
0.0
  0
LINE
  5
16F
330
1F
100
AcDbEntity
  8
0
  6
Continuous
 62
     7
370
    15
100
AcDbLine
 10
-10.5566498598
 20
182.8684617638
 30
0.0
 11
-3.9975312313
 21
182.8684617638
 31
0.0
  0
LINE
  5
170
330
1F
100
AcDbEntity
  8
0
  6
Continuous
 62
     7
370
    15
100
AcDbLine
 10
180.9966000954
 20
182.8684617638
 30
0.0
 11
187.5539156834
 21
182.8684617638
 31
0.0
  0
LINE
  5
171
330
1F
100
AcDbEntity
  8
0
  6
Continuous
 62
     7
370
    15
100
AcDbLine
 10
188.2858309189
 20
182.8684617638
 30
0.0
 11
191.1341953317
 21
185.8684617899
 31
0.0
  0
LINE
  5
172
330
1F
100
AcDbEntity
  8
0
  6
Continuous
 62
     7
370
    15
100
AcDbLine
 10
187.5539156834
 20
182.8684617638
 30
0.0
 11
188.2858309189
 21
182.8684617638
 31
0.0
  0
LINE
  5
173
330
1F
100
AcDbEntity
  8
0
  6
Continuous
 62
     7
370
    15
100
AcDbLine
 10
-14.1369295081
 20
185.8684617899
 30
0.0
 11
-11.2885650953
 21
182.8684617638
 31
0.0
  0
LINE
  5
174
330
1F
100
AcDbEntity
  8
0
  6
Continuous
 62
     7
370
    15
100
AcDbLine
 10
-11.2885650953
 20
182.8684617638
 30
0.0
 11
-10.5566498598
 21
182.8684617638
 31
0.0
  0
LINE
  5
175
330
1F
100
AcDbEntity
  8
0
  6
Continuous
 62
     7
370
    15
100
AcDbLine
 10
-11.2885650953
 20
182.8684617638
 30
0.0
 11
-16.0013702473
 21
182.8684617638
 31
0.0
  0
LINE
  5
176
330
1F
100
AcDbEntity
  8
0
  6
Continuous
 62
     7
370
    15
100
AcDbLine
 10
192.9986360708
 20
182.8684617638
 30
0.0
 11
188.2858309189
 21
182.8684617638
 31
0.0
  0
LINE
  5
177
330
1F
100
AcDbEntity
  8
0
  6
Continuous
 62
     7
370
    15
100
AcDbLine
 10
182.7139365712
 20
332.4180950283
 30
0.0
 11
182.6997953692
 21
332.4180950283
 31
0.0
  0
LINE
  5
178
330
1F
100
AcDbEntity
  8
0
  6
Continuous
 62
     7
370
    15
100
AcDbLine
 10
16.8792042175
 20
342.4180854916
 30
0.0
 11
16.8933454195
 21
342.4180854916
 31
0.0
  0
LINE
  5
179
330
1F
100
AcDbEntity
  8
0
  6
Continuous
 62
     7
370
    15
100
AcDbLine
 10
16.8933454195
 20
342.4180854916
 30
0.0
 11
16.8933454195
 21
332.918088591
 31
0.0
  0
LINE
  5
17A
330
1F
100
AcDbEntity
  8
0
  6
Continuous
 62
     7
370
    15
100
AcDbLine
 10
180.0689581076
 20
205.7180904656
 30
0.0
 11
180.0831067601
 21
205.7180904656
 31
0.0
  0
LINE
  5
17B
330
1F
100
AcDbEntity
  8
0
  6
Continuous
 62
     7
370
    15
100
AcDbLine
 10
180.0831067601
 20
205.7180904656
 30
0.0
 11
180.0831067601
 21
204.5368307143
 31
0.0
  0
LINE
  5
17C
330
1F
100
AcDbEntity
  8
0
  6
Continuous
 62
     7
370
    15
100
AcDbLine
 10
178.7139359156
 20
355.4180969357
 30
0.0
 11
178.6997947136
 21
355.4180969357
 31
0.0
  0
LINE
  5
17D
330
1F
100
AcDbEntity
  8
0
  6
Continuous
 62
     7
370
    15
100
AcDbLine
 10
178.7139359156
 20
354.9180884718
 30
0.0
 11
178.6997947136
 21
354.9180884718
 31
0.0
  0
LINE
  5
17E
330
1F
100
AcDbEntity
  8
0
  6
Continuous
 62
     7
370
    15
100
AcDbLine
 10
14.297466282
 20
354.9180884718
 30
0.0
 11
14.28332508
 21
354.9180884718
 31
0.0
  0
LINE
  5
17F
330
1F
100
AcDbEntity
  8
0
  6
Continuous
 62
     7
370
    15
100
AcDbLine
 10
14.297466282
 20
355.4180969357
 30
0.0
 11
14.28332508
 21
355.4180969357
 31
0.0
  0
LINE
  5
180
330
1F
100
AcDbEntity
  8
0
  6
Continuous
 62
     7
370
    15
100
AcDbLine
 10
181.3098150531
 20
342.4180854916
 30
0.0
 11
181.3098150531
 21
332.4180950283
 31
0.0
  0
LINE
  5
181
330
1F
100
AcDbEntity
  8
0
  6
Continuous
 62
     7
370
    15
100
AcDbLine
 10
181.2956664005
 20
342.4180854916
 30
0.0
 11
181.3098150531
 21
342.4180854916
 31
0.0
  0
LINE
  5
182
330
1F
100
AcDbEntity
  8
0
  6
Continuous
 62
     7
370
    15
100
AcDbLine
 10
177.2139403263
 20
366.9180829882
 30
0.0
 11
177.1997991243
 21
366.9180829882
 31
0.0
  0
LINE
  5
183
330
1F
100
AcDbEntity
  8
0
  6
Continuous
 62
     7
370
    15
100
AcDbLine
 10
12.7974706927
 20
366.9180829882
 30
0.0
 11
12.7833294907
 21
366.9180829882
 31
0.0
  0
LINE
  5
184
330
1F
100
AcDbEntity
  8
0
  6
Continuous
 62
     8
370
     0
100
AcDbLine
 10
114.0695302972
 20
189.8684619799
 30
0.0
 11
114.2634260693
 21
185.8684617899
 31
0.0
  0
LINE
  5
185
330
1F
100
AcDbEntity
  8
0
  6
Continuous
 62
     8
370
     0
100
AcDbLine
 10
62.9277355263
 20
189.8684619799
 30
0.0
 11
62.7338397542
 21
185.8684617899
 31
0.0
  0
LINE
  5
186
330
1F
100
AcDbEntity
  8
0
  6
Continuous
 62
     8
370
     0
100
AcDbLine
 10
143.6835187713
 20
203.0662854075
 30
0.0
 11
143.7056693474
 21
202.5798481762
 31
0.0
  0
LINE
  5
187
330
1F
100
AcDbEntity
  8
0
  6
Continuous
 62
     8
370
     0
100
AcDbLine
 10
33.3137470523
 20
203.0662854075
 30
0.0
 11
33.2915964762
 21
202.5798519015
 31
0.0
  0
LINE
  5
188
330
1F
100
AcDbEntity
  8
0
  6
Continuous
 62
     8
370
     0
100
AcDbLine
 10
94.6368994417
 20
189.8684619799
 30
0.0
 11
94.6249529013
 21
185.8684617899
 31
0.0
  0
LINE
  5
189
330
1F
100
AcDbEntity
  8
0
  6
Continuous
 62
     8
370
     0
100
AcDbLine
 10
82.3603663819
 20
189.8684619799
 30
0.0
 11
82.3723129222
 21
185.8684617899
 31
0.0
  0
LINE
  5
18A
330
1F
100
AcDbEntity
  8
0
  6
Continuous
 62
     8
370
     0
100
AcDbLine
 10
24.7496026793
 20
300.7376228332
 30
0.0
 11
152.2476631442
 21
300.7376228332
 31
0.0
  0
LINE
  5
18B
330
1F
100
AcDbEntity
  8
0
  6
Continuous
 62
     8
370
     0
100
AcDbLine
 10
135.7851471046
 20
203.8974162995
 30
0.0
 11
135.8491475919
 21
202.4917525112
 31
0.0
  0
LINE
  5
18C
330
1F
100
AcDbEntity
  8
0
  6
Continuous
 62
     8
370
     0
100
AcDbLine
 10
136.6060371736
 20
185.8684617899
 30
0.0
 11
136.742632393
 21
182.8684617638
 31
0.0
  0
LINE
  5
18D
330
1F
100
AcDbEntity
  8
0
  6
Continuous
 62
     8
370
     0
100
AcDbLine
 10
41.2121187189
 20
203.8974162995
 30
0.0
 11
41.1481145063
 21
202.4916761427
 31
0.0
  0
LINE
  5
18E
330
1F
100
AcDbEntity
  8
0
  6
Continuous
 62
     8
370
     0
100
AcDbLine
 10
40.3912286499
 20
185.8684617899
 30
0.0
 11
40.2546334306
 21
182.8684617638
 31
0.0
  0
LINE
  5
18F
330
1F
100
AcDbEntity
  8
0
  6
Continuous
 62
     8
370
     0
100
AcDbLine
 10
19.5557209888
 20
291.4293591737
 30
0.0
 11
12.2833284775
 21
291.4293591737
 31
0.0
  0
LINE
  5
190
330
1F
100
AcDbEntity
  8
0
  6
Continuous
 62
     8
370
     0
100
AcDbLine
 10
0.2833265105
 20
291.4293591737
 30
0.0
 11
-9.001363512
 21
291.4293591737
 31
0.0
  0
LINE
  5
191
330
1F
100
AcDbEntity
  8
0
  6
Continuous
 62
     8
370
     0
100
AcDbLine
 10
185.9986293355
 20
291.4293591737
 30
0.0
 11
176.699798111
 21
291.4293591737
 31
0.0
  0
LINE
  5
192
330
1F
100
AcDbEntity
  8
0
  6
Continuous
 62
     8
370
     0
100
AcDbLine
 10
164.6997961441
 20
291.4293591737
 30
0.0
 11
19.5557209888
 21
291.4293591737
 31
0.0
  0
LINE
  5
193
330
1F
100
AcDbEntity
  8
0
  6
Continuous
 62
     8
370
     0
100
AcDbLine
 10
20.3134822884
 20
289.1312275886
 30
0.0
 11
12.2833284775
 21
289.1312275886
 31
0.0
  0
LINE
  5
194
330
1F
100
AcDbEntity
  8
0
  6
Continuous
 62
     8
370
     0
100
AcDbLine
 10
0.2833265105
 20
289.1312275886
 30
0.0
 11
-7.9297316035
 21
289.1312275886
 31
0.0
  0
LINE
  5
195
330
1F
100
AcDbEntity
  8
0
  6
Continuous
 62
     8
370
     0
100
AcDbLine
 10
184.9269974271
 20
289.1312275886
 30
0.0
 11
176.699798111
 21
289.1312275886
 31
0.0
  0
LINE
  5
196
330
1F
100
AcDbEntity
  8
0
  6
Continuous
 62
     8
370
     0
100
AcDbLine
 10
164.6997961441
 20
289.1312275886
 30
0.0
 11
20.3134822884
 21
289.1312275886
 31
0.0
  0
LINE
  5
197
330
1F
100
AcDbEntity
  8
0
  6
Continuous
 62
     8
370
     0
100
AcDbLine
 10
19.5557209888
 20
292.2684584617
 30
0.0
 11
12.2833284775
 21
292.2684584617
 31
0.0
  0
LINE
  5
198
330
1F
100
AcDbEntity
  8
0
  6
Continuous
 62
     8
370
     0
100
AcDbLine
 10
0.2833265105
 20
292.2684584617
 30
0.0
 11
-9.001363512
 21
292.2684584617
 31
0.0
  0
LINE
  5
199
330
1F
100
AcDbEntity
  8
0
  6
Continuous
 62
     8
370
     0
100
AcDbLine
 10
185.9986293355
 20
292.2684584617
 30
0.0
 11
176.699798111
 21
292.2684584617
 31
0.0
  0
LINE
  5
19A
330
1F
100
AcDbEntity
  8
0
  6
Continuous
 62
     8
370
     0
100
AcDbLine
 10
164.6997961441
 20
292.2684584617
 30
0.0
 11
19.5557209888
 21
292.2684584617
 31
0.0
  0
LINE
  5
19B
330
1F
100
AcDbEntity
  8
0
  6
Continuous
 62
     8
370
     0
100
AcDbLine
 10
26.8975193838
 20
281.3181762456
 30
0.0
 11
12.2833284775
 21
281.3181762456
 31
0.0
  0
LINE
  5
19C
330
1F
100
AcDbEntity
  8
0
  6
Continuous
 62
     8
370
     0
100
AcDbLine
 10
164.6997961441
 20
281.3181762456
 30
0.0
 11
26.8975193838
 21
281.3181762456
 31
0.0
  0
LINE
  5
19D
330
1F
100
AcDbEntity
  8
0
  6
Continuous
 62
     8
370
     0
100
AcDbLine
 10
109.262888808
 20
226.7980796158
 30
0.0
 11
109.262888808
 21
204.9763292878
 31
0.0
  0
LINE
  5
19E
330
1F
100
AcDbEntity
  8
0
  6
Continuous
 62
     8
370
     0
100
AcDbLine
 10
67.7343770156
 20
226.7980796158
 30
0.0
 11
67.7343770156
 21
204.9763292878
 31
0.0
  0
LINE
  5
19F
330
1F
100
AcDbEntity
  8
0
  6
Continuous
 62
     8
370
     0
100
AcDbLine
 10
28.1518432537
 20
277.1391753911
 30
0.0
 11
12.2833284775
 21
277.1391753911
 31
0.0
  0
LINE
  5
1A0
330
1F
100
AcDbEntity
  8
0
  6
Continuous
 62
     8
370
     0
100
AcDbLine
 10
164.6997961441
 20
277.1391753911
 30
0.0
 11
28.1518432537
 21
277.1391753911
 31
0.0
  0
LINE
  5
1A1
330
1F
100
AcDbEntity
  8
0
  6
Continuous
 62
     8
370
     0
100
AcDbLine
 10
148.602708731
 20
330.9180845379
 30
0.0
 11
158.6997988859
 21
330.9180845379
 31
0.0
  0
LINE
  5
1A2
330
1F
100
AcDbEntity
  8
0
  6
Continuous
 62
     8
370
     0
100
AcDbLine
 10
18.2833257357
 20
330.9180845379
 30
0.0
 11
148.602708731
 21
330.9180845379
 31
0.0
  0
LINE
  5
1A3
330
1F
100
AcDbEntity
  8
0
  6
Continuous
 62
     8
370
     0
100
AcDbLine
 10
46.2127025464
 20
226.7980796158
 30
0.0
 11
46.2127025464
 21
204.9763292878
 31
0.0
  0
LINE
  5
1A4
330
1F
100
AcDbEntity
  8
0
  6
Continuous
 62
     8
370
     0
100
AcDbLine
 10
130.7845632771
 20
226.7980796158
 30
0.0
 11
130.7845632771
 21
204.9763292878
 31
0.0
  0
LINE
  5
1A5
330
1F
100
AcDbEntity
  8
0
  6
Continuous
 62
     8
370
     0
100
AcDbLine
 10
191.2701311746
 20
189.8684619799
 30
0.0
 11
191.3508880177
 21
185.8684617899
 31
0.0
  0
LINE
  5
1A6
330
1F
100
AcDbEntity
  8
0
  6
Continuous
 62
     8
370
     0
100
AcDbLine
 10
-14.2728653511
 20
189.8684619799
 30
0.0
 11
-14.3536221942
 21
185.8684617899
 31
0.0
  0
LINE
  5
1A7
330
1F
100
AcDbEntity
  8
0
  6
Continuous
 62
     8
370
     0
100
AcDbLine
 10
176.699798111
 20
300.7376228332
 30
0.0
 11
194.4157737533
 21
300.7376228332
 31
0.0
  0
LINE
  5
1A8
330
1F
100
AcDbEntity
  8
0
  6
Continuous
 62
     8
370
     0
100
AcDbLine
 10
-17.4185079297
 20
300.7376228332
 30
0.0
 11
0.2833265105
 21
300.7376228332
 31
0.0
  0
LINE
  5
1A9
330
1F
100
AcDbEntity
  8
0
  6
Continuous
 62
     8
370
     0
100
AcDbLine
 10
-25.5874586066
 20
203.0662854075
 30
0.0
 11
-25.5929273328
 21
202.6711773931
 31
0.0
  0
LINE
  5
1AA
330
1F
100
AcDbEntity
  8
0
  6
Continuous
 62
     8
370
     0
100
AcDbLine
 10
202.5847244302
 20
203.0662854075
 30
0.0
 11
202.5901931563
 21
202.6711718052
 31
0.0
  0
LINE
  5
1AB
330
1F
100
AcDbEntity
  8
0
  6
Continuous
 62
     8
370
     0
100
AcDbLine
 10
-10.2654811701
 20
203.8974162995
 30
0.0
 11
-10.2708157858
 21
203.5121914803
 31
0.0
  0
LINE
  5
1AC
330
1F
100
AcDbEntity
  8
0
  6
Continuous
 62
     8
370
     0
100
AcDbLine
 10
-10.515112873
 20
185.8684617899
 30
0.0
 11
-10.5566498598
 21
182.8684617638
 31
0.0
  0
LINE
  5
1AD
330
1F
100
AcDbEntity
  8
0
  6
Continuous
 62
     8
370
     0
100
AcDbLine
 10
187.2627469936
 20
203.8974162995
 30
0.0
 11
187.2680816093
 21
203.5121914803
 31
0.0
  0
LINE
  5
1AE
330
1F
100
AcDbEntity
  8
0
  6
Continuous
 62
     8
370
     0
100
AcDbLine
 10
187.5123786965
 20
185.8684617899
 30
0.0
 11
187.5539156834
 21
182.8684617638
 31
0.0
  0
LINE
  5
1AF
330
1F
100
AcDbEntity
  8
0
  6
CENTERX2
 62
     7
370
     0
100
AcDbLine
 10
88.4986329118
 20
352.0508377411
 30
0.0
 11
88.4986329118
 21
170.20575431
 31
0.0
  0
LINE
  5
1B0
330
1F
100
AcDbEntity
  8
0
  6
Continuous
 62
     7
370
    15
100
AcDbLine
 10
554.2180933507
 20
189.8684619799
 30
0.0
 11
554.2180933507
 21
201.8684611528
 31
0.0
  0
LINE
  5
1B1
330
1F
100
AcDbEntity
  8
0
  6
Continuous
 62
     7
370
    15
100
AcDbLine
 10
269.2180969269
 20
201.8684611528
 30
0.0
 11
269.2180969269
 21
189.8684619799
 31
0.0
  0
LINE
  5
1B2
330
1F
100
AcDbEntity
  8
0
  6
Continuous
 62
     7
370
    15
100
AcDbLine
 10
554.2180933507
 20
201.8684611528
 30
0.0
 11
503.2884203346
 21
204.5375720471
 31
0.0
  0
LINE
  5
1B3
330
1F
100
AcDbEntity
  8
0
  6
Continuous
 62
     7
370
    15
100
AcDbLine
 10
320.1336212905
 20
204.5368307143
 30
0.0
 11
269.2180969269
 21
201.8684611528
 31
0.0
  0
LINE
  5
1B4
330
1F
100
AcDbEntity
  8
0
  6
Continuous
 62
     7
370
    15
100
AcDbLine
 10
479.8314519675
 20
185.8684617899
 30
0.0
 11
480.0410815032
 21
189.8684619799
 31
0.0
  0
LINE
  5
1B5
330
1F
100
AcDbEntity
  8
0
  6
Continuous
 62
     7
370
    15
100
AcDbLine
 10
343.3951087744
 20
189.8684619799
 30
0.0
 11
343.6047383101
 21
185.8684617899
 31
0.0
  0
ARC
  5
1B6
330
1F
100
AcDbEntity
  8
0
  6
Continuous
 62
     7
370
    15
100
AcDbCircle
 10
506.2180951388
 20
291.4293621326
 30
0.0
 40
3.0
100
AcDbArc
 50
310.0
 51
0.0
  0
ARC
  5
1B7
330
1F
100
AcDbEntity
  8
0
  6
Continuous
 62
     7
370
    15
100
AcDbCircle
 10
317.2180951388
 20
291.4293621326
 30
0.0
 40
3.0
100
AcDbArc
 50
180.0
 51
230.0
  0
ARC
  5
1B8
330
1F
100
AcDbEntity
  8
0
  6
Continuous
 62
     7
370
    15
100
AcDbCircle
 10
507.2180951388
 20
292.2684617638
 30
0.0
 40
2.0
100
AcDbArc
 50
0.0
 51
90.0
  0
ARC
  5
1B9
330
1F
100
AcDbEntity
  8
0
  6
Continuous
 62
     7
370
    15
100
AcDbCircle
 10
316.2180951388
 20
292.2684617638
 30
0.0
 40
2.0
100
AcDbArc
 50
90.0
 51
180.0
  0
LINE
  5
1BA
330
1F
100
AcDbEntity
  8
0
  6
Continuous
 62
     7
370
    15
100
AcDbLine
 10
509.2180915625
 20
291.4293591737
 30
0.0
 11
509.2180915625
 21
292.2684584617
 31
0.0
  0
LINE
  5
1BB
330
1F
100
AcDbEntity
  8
0
  6
Continuous
 62
     7
370
    15
100
AcDbLine
 10
314.2180987151
 20
292.2684584617
 30
0.0
 11
314.2180987151
 21
291.4293591737
 31
0.0
  0
LINE
  5
1BC
330
1F
100
AcDbEntity
  8
0
  6
Continuous
 62
     7
370
    15
100
AcDbLine
 10
315.1469029935
 20
298.3684648632
 30
0.0
 11
316.2180953176
 21
295.2684645414
 31
0.0
  0
LINE
  5
1BD
330
1F
100
AcDbEntity
  8
0
  6
Continuous
 62
     7
370
    15
100
AcDbLine
 10
507.21809496
 20
295.2684645414
 30
0.0
 11
508.2892872842
 21
298.3684648632
 31
0.0
  0
LINE
  5
1BE
330
1F
100
AcDbEntity
  8
0
  6
Continuous
 62
     7
370
    15
100
AcDbLine
 10
315.2897306235
 20
289.1312275886
 30
0.0
 11
323.5027887376
 21
282.2396566033
 31
0.0
  0
LINE
  5
1BF
330
1F
100
AcDbEntity
  8
0
  6
Continuous
 62
     7
370
    15
100
AcDbLine
 10
499.9192603381
 20
282.2277878284
 30
0.0
 11
508.1464596541
 21
289.1312275886
 31
0.0
  0
LINE
  5
1C0
330
1F
100
AcDbEntity
  8
0
  6
Continuous
 62
     7
370
    15
100
AcDbLine
 10
507.21809496
 20
294.2684625148
 30
0.0
 11
507.21809496
 21
295.2684645414
 31
0.0
  0
LINE
  5
1C1
330
1F
100
AcDbEntity
  8
0
  6
Continuous
 62
     7
370
    15
100
AcDbLine
 10
316.2180953176
 20
295.2684645414
 30
0.0
 11
316.2180953176
 21
294.2684625148
 31
0.0
  0
LINE
  5
1C2
330
1F
100
AcDbEntity
  8
0
  6
Continuous
 62
     7
370
    15
100
AcDbLine
 10
505.9192575963
 20
329.9180825114
 30
0.0
 11
505.9192575963
 21
332.4180950283
 31
0.0
  0
LINE
  5
1C3
330
1F
100
AcDbEntity
  8
0
  6
Continuous
 62
     7
370
    15
100
AcDbLine
 10
481.919261113
 20
332.4180950283
 30
0.0
 11
481.919261113
 21
329.9180825114
 31
0.0
  0
LINE
  5
1C4
330
1F
100
AcDbEntity
  8
0
  6
Continuous
 62
     7
370
    15
100
AcDbLine
 10
341.5027879627
 20
329.9180825114
 30
0.0
 11
341.5027879627
 21
332.4180950283
 31
0.0
  0
LINE
  5
1C5
330
1F
100
AcDbEntity
  8
0
  6
Continuous
 62
     7
370
    15
100
AcDbLine
 10
317.5027914794
 20
332.4180950283
 30
0.0
 11
317.5027914794
 21
329.9180825114
 31
0.0
  0
LINE
  5
1C6
330
1F
100
AcDbEntity
  8
0
  6
Continuous
 62
     7
370
    15
100
AcDbLine
 10
502.0254798682
 20
206.1487004965
 30
0.0
 11
500.0591524394
 21
234.2684601306
 31
0.0
  0
LINE
  5
1C7
330
1F
100
AcDbEntity
  8
0
  6
Continuous
 62
     7
370
    15
100
AcDbLine
 10
323.5027887376
 20
236.0668253958
 30
0.0
 11
321.4107104094
 21
206.1487004965
 31
0.0
  0
LINE
  5
1C8
330
1F
100
AcDbEntity
  8
0
  6
Continuous
 62
     7
370
    15
100
AcDbLine
 10
501.9192569406
 20
354.9180884718
 30
0.0
 11
501.9192569406
 21
355.4180969357
 31
0.0
  0
LINE
  5
1C9
330
1F
100
AcDbEntity
  8
0
  6
Continuous
 62
     7
370
    15
100
AcDbLine
 10
485.9192617686
 20
355.4180969357
 30
0.0
 11
485.9192617686
 21
354.9180884718
 31
0.0
  0
LINE
  5
1CA
330
1F
100
AcDbEntity
  8
0
  6
Continuous
 62
     7
370
    15
100
AcDbLine
 10
337.502787307
 20
354.9180884718
 30
0.0
 11
337.502787307
 21
355.4180969357
 31
0.0
  0
LINE
  5
1CB
330
1F
100
AcDbEntity
  8
0
  6
Continuous
 62
     7
370
    15
100
AcDbLine
 10
321.502792135
 20
355.4180969357
 30
0.0
 11
321.502792135
 21
354.9180884718
 31
0.0
  0
LINE
  5
1CC
330
1F
100
AcDbEntity
  8
0
  6
Continuous
 62
     7
370
    15
100
AcDbLine
 10
500.4192613514
 20
355.4180969357
 30
0.0
 11
500.4192613514
 21
366.9180829882
 31
0.0
  0
LINE
  5
1CD
330
1F
100
AcDbEntity
  8
0
  6
Continuous
 62
     7
370
    15
100
AcDbLine
 10
487.4192573579
 20
366.9180829882
 30
0.0
 11
487.4192573579
 21
355.4180969357
 31
0.0
  0
LINE
  5
1CE
330
1F
100
AcDbEntity
  8
0
  6
Continuous
 62
     7
370
    15
100
AcDbLine
 10
336.0027917178
 20
355.4180969357
 30
0.0
 11
336.0027917178
 21
366.9180829882
 31
0.0
  0
LINE
  5
1CF
330
1F
100
AcDbEntity
  8
0
  6
Continuous
 62
     7
370
    15
100
AcDbLine
 10
323.0027877243
 20
366.9180829882
 30
0.0
 11
323.0027877243
 21
355.4180969357
 31
0.0
  0
LINE
  5
1D0
330
1F
100
AcDbEntity
  8
0
  6
Continuous
 62
     7
370
    15
100
AcDbLine
 10
499.9192603381
 20
342.4180854916
 30
0.0
 11
499.9192603381
 21
354.9180884718
 31
0.0
  0
LINE
  5
1D1
330
1F
100
AcDbEntity
  8
0
  6
Continuous
 62
     7
370
    15
100
AcDbLine
 10
487.9192583711
 20
354.9180884718
 30
0.0
 11
487.9192583711
 21
342.4180854916
 31
0.0
  0
LINE
  5
1D2
330
1F
100
AcDbEntity
  8
0
  6
Continuous
 62
     7
370
    15
100
AcDbLine
 10
499.9192603381
 20
205.7180904656
 30
0.0
 11
499.9192603381
 21
324.9180872797
 31
0.0
  0
LINE
  5
1D3
330
1F
100
AcDbEntity
  8
0
  6
Continuous
 62
     7
370
    15
100
AcDbLine
 10
487.9192583711
 20
311.7241819262
 30
0.0
 11
487.9192583711
 21
205.7180904656
 31
0.0
  0
LINE
  5
1D4
330
1F
100
AcDbEntity
  8
0
  6
Continuous
 62
     7
370
    15
100
AcDbLine
 10
335.5027907045
 20
342.4180854916
 30
0.0
 11
335.5027907045
 21
354.9180884718
 31
0.0
  0
LINE
  5
1D5
330
1F
100
AcDbEntity
  8
0
  6
Continuous
 62
     7
370
    15
100
AcDbLine
 10
323.5027887376
 20
354.9180884718
 30
0.0
 11
323.5027887376
 21
342.4180854916
 31
0.0
  0
LINE
  5
1D6
330
1F
100
AcDbEntity
  8
0
  6
Continuous
 62
     7
370
    15
100
AcDbLine
 10
335.5027907045
 20
205.7180904656
 30
0.0
 11
335.5027907045
 21
311.748202598
 31
0.0
  0
LINE
  5
1D7
330
1F
100
AcDbEntity
  8
0
  6
Continuous
 62
     7
370
    15
100
AcDbLine
 10
323.5027887376
 20
324.9180872797
 30
0.0
 11
323.5027887376
 21
205.7180904656
 31
0.0
  0
LINE
  5
1D8
330
1F
100
AcDbEntity
  8
0
  6
Continuous
 62
     7
370
    15
100
AcDbLine
 10
545.0455792697
 20
185.8684617899
 30
0.0
 11
545.0455792697
 21
189.8684619799
 31
0.0
  0
LINE
  5
1D9
330
1F
100
AcDbEntity
  8
0
  6
Continuous
 62
     7
370
    15
100
AcDbLine
 10
278.390611008
 20
189.8684619799
 30
0.0
 11
278.390611008
 21
185.8684617899
 31
0.0
  0
ARC
  5
1DA
330
1F
100
AcDbEntity
  8
0
  6
Continuous
 62
     7
370
    15
100
AcDbCircle
 10
515.1386621413
 20
300.8684617638
 30
0.0
 40
2.500000000000135
100
AcDbArc
 50
270.0
 51
357.0
  0
ARC
  5
1DB
330
1F
100
AcDbEntity
  8
0
  6
Continuous
 62
     7
370
    15
100
AcDbCircle
 10
308.2975281364
 20
300.8684617638
 30
0.0
 40
2.500000000000078
100
AcDbArc
 50
183.0
 51
270.0
  0
LINE
  5
1DC
330
1F
100
AcDbEntity
  8
0
  6
Continuous
 62
     7
370
    15
100
AcDbLine
 10
304.7313787492
 20
321.1463947653
 30
0.0
 11
305.8009542973
 21
300.7376228332
 31
0.0
  0
LINE
  5
1DD
330
1F
100
AcDbEntity
  8
0
  6
Continuous
 62
     7
370
    15
100
AcDbLine
 10
517.6352359803
 20
300.7376228332
 30
0.0
 11
518.7048115285
 21
321.1463947653
 31
0.0
  0
LINE
  5
1DE
330
1F
100
AcDbEntity
  8
0
  6
Continuous
 62
     7
370
    15
100
AcDbLine
 10
311.5331329854
 20
323.6220289826
 30
0.0
 11
304.7313787492
 21
321.1463947653
 31
0.0
  0
LINE
  5
1DF
330
1F
100
AcDbEntity
  8
0
  6
Continuous
 62
     7
370
    15
100
AcDbLine
 10
518.7048115285
 20
321.1463947653
 30
0.0
 11
511.9030572922
 21
323.6220289826
 31
0.0
  0
LINE
  5
1E0
330
1F
100
AcDbEntity
  8
0
  6
Continuous
 62
     7
370
    15
100
AcDbLine
 10
339.9530150445
 20
226.7980796158
 30
0.0
 11
339.9530150445
 21
213.0054660946
 31
0.0
  0
LINE
  5
1E1
330
1F
100
AcDbEntity
  8
0
  6
Continuous
 62
     7
370
    15
100
AcDbLine
 10
483.4831752331
 20
213.0054660946
 30
0.0
 11
483.4831752331
 21
226.7980796158
 31
0.0
  0
LINE
  5
1E2
330
1F
100
AcDbEntity
  8
0
  6
Continuous
 62
     7
370
    15
100
AcDbLine
 10
516.2180982979
 20
182.8684617638
 30
0.0
 11
519.2180969269
 21
185.8684617899
 31
0.0
  0
LINE
  5
1E3
330
1F
100
AcDbEntity
  8
0
  6
Continuous
 62
     7
370
    15
100
AcDbLine
 10
304.2180933507
 20
185.8684617899
 30
0.0
 11
307.2180919798
 21
182.8684617638
 31
0.0
  0
LINE
  5
1E4
330
1F
100
AcDbEntity
  8
0
  6
Continuous
 62
     7
370
    15
100
AcDbLine
 10
321.4107104094
 20
206.1487153977
 30
0.0
 11
321.4107104094
 21
205.7180904656
 31
0.0
  0
LINE
  5
1E5
330
1F
100
AcDbEntity
  8
0
  6
Continuous
 62
     7
370
    15
100
AcDbLine
 10
502.0254798682
 20
205.7180904656
 30
0.0
 11
502.0254798682
 21
206.1516993552
 31
0.0
  0
LINE
  5
1E6
330
1F
100
AcDbEntity
  8
0
  6
Continuous
 62
     7
370
    15
100
AcDbLine
 10
505.9333987982
 20
329.9180825114
 30
0.0
 11
505.9333987982
 21
332.4180950283
 31
0.0
  0
LINE
  5
1E7
330
1F
100
AcDbEntity
  8
0
  6
Continuous
 62
     7
370
    15
100
AcDbLine
 10
501.9333981426
 20
354.9180884718
 30
0.0
 11
501.9333981426
 21
355.4180969357
 31
0.0
  0
LINE
  5
1E8
330
1F
100
AcDbEntity
  8
0
  6
Continuous
 62
     7
370
    15
100
AcDbLine
 10
337.516928509
 20
354.9180884718
 30
0.0
 11
337.516928509
 21
355.4180969357
 31
0.0
  0
LINE
  5
1E9
330
1F
100
AcDbEntity
  8
0
  6
Continuous
 62
     7
370
    15
100
AcDbLine
 10
500.4334025533
 20
355.4180969357
 30
0.0
 11
500.4334025533
 21
366.9180829882
 31
0.0
  0
LINE
  5
1EA
330
1F
100
AcDbEntity
  8
0
  6
Continuous
 62
     7
370
    15
100
AcDbLine
 10
336.0169329198
 20
355.4180969357
 30
0.0
 11
336.0169329198
 21
366.9180829882
 31
0.0
  0
LINE
  5
1EB
330
1F
100
AcDbEntity
  8
0
  6
Continuous
 62
     7
370
    15
100
AcDbLine
 10
499.9334015401
 20
240.9698215186
 30
0.0
 11
499.9334015401
 21
282.2396566033
 31
0.0
  0
LINE
  5
1EC
330
1F
100
AcDbEntity
  8
0
  6
Continuous
 62
     7
370
    15
100
AcDbLine
 10
499.9334015401
 20
342.4180854916
 30
0.0
 11
499.9334015401
 21
354.9180884718
 31
0.0
  0
LINE
  5
1ED
330
1F
100
AcDbEntity
  8
0
  6
Continuous
 62
     7
370
    15
100
AcDbLine
 10
335.5169319065
 20
342.4180854916
 30
0.0
 11
335.5169319065
 21
354.9180884718
 31
0.0
  0
LINE
  5
1EE
330
1F
100
AcDbEntity
  8
0
  6
Continuous
 62
     7
370
    15
100
AcDbLine
 10
554.2180933507
 20
189.8684619799
 30
0.0
 11
543.3709271701
 21
189.8684619799
 31
0.0
  0
LINE
  5
1EF
330
1F
100
AcDbEntity
  8
0
  6
Continuous
 62
     7
370
    15
100
AcDbLine
 10
543.3709271701
 20
189.8684619799
 30
0.0
 11
466.2504852267
 21
189.8684619799
 31
0.0
  0
LINE
  5
1F0
330
1F
100
AcDbEntity
  8
0
  6
Continuous
 62
     7
370
    15
100
AcDbLine
 10
466.2504852267
 20
189.8684619799
 30
0.0
 11
357.185705051
 21
189.8684619799
 31
0.0
  0
LINE
  5
1F1
330
1F
100
AcDbEntity
  8
0
  6
Continuous
 62
     7
370
    15
100
AcDbLine
 10
357.185705051
 20
189.8684619799
 30
0.0
 11
280.0652631076
 21
189.8684619799
 31
0.0
  0
LINE
  5
1F2
330
1F
100
AcDbEntity
  8
0
  6
Continuous
 62
     7
370
    15
100
AcDbLine
 10
280.0652631076
 20
189.8684619799
 30
0.0
 11
269.2180969269
 21
189.8684619799
 31
0.0
  0
LINE
  5
1F3
330
1F
100
AcDbEntity
  8
0
  6
Continuous
 62
     7
370
    15
100
AcDbLine
 10
512.4808125646
 20
201.8684611528
 30
0.0
 11
269.2180969269
 21
201.8684611528
 31
0.0
  0
LINE
  5
1F4
330
1F
100
AcDbEntity
  8
0
  6
Continuous
 62
     7
370
    15
100
AcDbLine
 10
554.2180933507
 20
201.8684611528
 30
0.0
 11
512.4808125646
 21
201.8684611528
 31
0.0
  0
SPLINE
  5
1F5
330
1F
100
AcDbEntity
  8
0
  6
Continuous
 62
     7
370
    15
100
AcDbSpline
210
0.0
220
0.0
230
1.0
 70
     8
 71
     3
 72
     8
 73
     4
 74
     0
 42
0.00000001
 43
0.00000001
 12
1.0
 22
0.0
 32
0.0
 13
1.0
 23
0.0
 33
0.0
 40
0.0
 40
0.0
 40
0.0
 40
0.0
 40
1.0
 40
1.0
 40
1.0
 40
1.0
 10
493.9192584517465
 20
202.8870597124224
 30
0.0
 10
497.0423133644642
 20
202.8995393019069
 30
0.0
 10
500.1653683147045
 20
202.8995582200341
 30
0.0
 10
503.2884233024682
 20
202.8871161388469
 30
0.0
  0
LINE
  5
1F6
330
1F
100
AcDbEntity
  8
0
  6
Continuous
 62
     7
370
    15
100
AcDbLine
 10
484.550090924
 20
203.5803307652
 30
0.0
 11
493.9192556293
 21
202.8870598286
 31
0.0
  0
SPLINE
  5
1F7
330
1F
100
AcDbEntity
  8
0
  6
Continuous
 62
     7
370
    15
100
AcDbSpline
210
0.0
220
0.0
230
1.0
 70
     8
 71
     3
 72
    19
 73
    15
 74
     0
 42
0.00000001
 43
0.00000001
 12
1.0
 22
0.0
 32
0.0
 13
1.0
 23
0.0
 33
0.0
 40
0.0
 40
0.0
 40
0.0
 40
0.0
 40
0.0834971225733143
 40
0.1672317896556296
 40
0.2509655525482772
 40
0.3344630076582989
 40
0.4279224948834373
 40
0.521717263128461
 40
0.6155107210334003
 40
0.7089708006770675
 40
0.8023680758366076
 40
0.8961005267623209
 40
0.9898316487509494
 40
1.0
 40
1.0
 40
1.0
 40
1.0
 10
510.4822092206697
 20
203.8974162995188
 30
0.0
 10
510.2775366474884
 20
203.9084384495314
 30
0.0
 10
509.8676092194329
 20
203.930514106939
 30
0.0
 10
509.2400977407017
 20
203.963302108261
 30
0.0
 10
508.608105240103
 20
203.9955962300898
 30
0.0
 10
507.9493926030091
 20
204.0284204973343
 30
0.0
 10
507.2672730327279
 20
204.0614757522811
 30
0.0
 10
506.5664890646011
 20
204.0943989656041
 30
0.0
 10
505.877647499272
 20
204.1256998311883
 30
0.0
 10
505.2069373451604
 20
204.1550456699706
 30
0.0
 10
504.5577567834542
 20
204.182269329986
 30
0.0
 10
503.9381364466857
 20
204.2068500081287
 30
0.0
 10
503.5137239032703
 20
204.2231253152273
 30
0.0
 10
503.3085045768844
 20
204.2302736202597
 30
0.0
 10
503.2884203345994
 20
204.2309732049076
 30
0.0
  0
SPLINE
  5
1F8
330
1F
100
AcDbEntity
  8
0
  6
Continuous
 62
     7
370
    15
100
AcDbSpline
210
0.0
220
0.0
230
1.0
 70
     8
 71
     3
 72
     9
 73
     5
 74
     0
 42
0.00000001
 43
0.00000001
 12
1.0
 22
0.0
 32
0.0
 13
1.0
 23
0.0
 33
0.0
 40
0.0
 40
0.0
 40
0.0
 40
0.0
 40
0.3632147938016054
 40
1.0
 40
1.0
 40
1.0
 40
1.0
 10
503.2884203345994
 20
203.9484322875111
 30
0.0
 10
503.3832643973991
 20
203.9423020534353
 30
0.0
 10
503.6443882954843
 20
203.9254243431097
 30
0.0
 10
503.9258850864157
 20
203.9083127248687
 30
0.0
 10
504.105138078473
 20
203.8974162995188
 30
0.0
  0
LINE
  5
1F9
330
1F
100
AcDbEntity
  8
0
  6
Continuous
 62
     7
370
    15
100
AcDbLine
 10
504.1051380785
 20
203.8974162995
 30
0.0
 11
517.8753085883
 21
203.0662854075
 31
0.0
  0
SPLINE
  5
1FA
330
1F
100
AcDbEntity
  8
0
  6
Continuous
 62
     7
370
    15
100
AcDbSpline
210
0.0
220
0.0
230
1.0
 70
     8
 71
     3
 72
    54
 73
    50
 74
     0
 42
0.00000001
 43
0.00000001
 12
1.0
 22
0.0
 32
0.0
 13
1.0
 23
0.0
 33
0.0
 40
0.0
 40
0.0
 40
0.0
 40
0.0
 40
0.062500000000001
 40
0.062500000000001
 40
0.0937500000000009
 40
0.0937500000000009
 40
0.1250000000000008
 40
0.1250000000000008
 40
0.1562500000000006
 40
0.1562500000000006
 40
0.1875000000000005
 40
0.1875000000000005
 40
0.2500000000000003
 40
0.2500000000000003
 40
0.3125
 40
0.3125
 40
0.3749999999999998
 40
0.3749999999999998
 40
0.4062499999999997
 40
0.4062499999999997
 40
0.4374999999999996
 40
0.4374999999999996
 40
0.4687499999999995
 40
0.4687499999999995
 40
0.4999999999999994
 40
0.4999999999999994
 40
0.562499999999999
 40
0.562499999999999
 40
0.5937499999999991
 40
0.5937499999999991
 40
0.6249999999999991
 40
0.6249999999999991
 40
0.6562499999999992
 40
0.6562499999999992
 40
0.6874999999999993
 40
0.6874999999999993
 40
0.7499999999999992
 40
0.7499999999999992
 40
0.7812499999999992
 40
0.7812499999999992
 40
0.8124999999999991
 40
0.8124999999999991
 40
0.874999999999999
 40
0.874999999999999
 40
0.937499999999999
 40
0.937499999999999
 40
0.9687499999999994
 40
0.9687499999999994
 40
1.0
 40
1.0
 40
1.0
 40
1.0
 10
517.8753051710833
 20
203.0662855980353
 30
0.0
 10
518.5170055547649
 20
203.0275492331217
 30
0.0
 10
519.1899484420192
 20
202.9890963225583
 30
0.0
 10
520.2461064813367
 20
202.9318198299764
 30
0.0
 10
520.6082352624572
 20
202.9126826016064
 30
0.0
 10
521.3346580844538
 20
202.8752662586449
 30
0.0
 10
521.6993363581539
 20
202.8569592037249
 30
0.0
 10
522.43155600723
 20
202.8211122121508
 30
0.0
 10
522.7990975012805
 20
202.8035723349147
 30
0.0
 10
523.5370705114133
 20
202.7692473932742
 30
0.0
 10
523.909316658213
 20
202.7523827836042
 30
0.0
 10
525.0175763593263
 20
202.7035066574573
 30
0.0
 10
525.7357245836871
 20
202.6735922905178
 30
0.0
 10
527.1317205510992
 20
202.6187661673475
 30
0.0
 10
527.8149045678355
 20
202.5937061581941
 30
0.0
 10
529.0793436271998
 20
202.5507537611635
 30
0.0
 10
529.6677984095601
 20
202.532550679691
 30
0.0
 10
530.4829077637761
 20
202.5101760144907
 30
0.0
 10
530.7411508645703
 20
202.5036097542383
 30
0.0
 10
531.2234182796783
 20
202.4924055675158
 30
0.0
 10
531.4487353750335
 20
202.4877317667006
 30
0.0
 10
531.8680084057829
 20
202.4802135727173
 30
0.0
 10
532.0619658076697
 20
202.4773691109442
 30
0.0
 10
532.4177234748747
 20
202.4735489937646
 30
0.0
 10
532.5793356475958
 20
202.4725879375857
 30
0.0
 10
533.0041133544453
 20
202.4725870894011
 30
0.0
 10
533.2125075772701
 20
202.4763329614741
 30
0.0
 10
533.4124327595688
 20
202.487623339099
 30
0.0
 10
533.4601161863404
 20
202.4923761603549
 30
0.0
 10
533.5149535761893
 20
202.5036196341306
 30
0.0
 10
533.5225784862392
 20
202.5101171496496
 30
0.0
 10
533.4990548474797
 20
202.5248428443805
 30
0.0
 10
533.4679054409181
 20
202.5330710251287
 30
0.0
 10
533.3663258545978
 20
202.5512994209453
 30
0.0
 10
533.2952879536465
 20
202.5613679378185
 30
0.0
 10
533.0254877453473
 20
202.5938139945011
 30
0.0
 10
532.7722061043025
 20
202.6183142072013
 30
0.0
 10
532.2843172081697
 20
202.659429142037
 30
0.0
 10
532.1027607582743
 20
202.6739268148226
 30
0.0
 10
531.7053539686776
 20
202.7042102443377
 30
0.0
 10
531.4915272711576
 20
202.719847444074
 30
0.0
 10
530.8061399685739
 20
202.7682338444339
 30
0.0
 10
530.2911658948442
 20
202.8024416989674
 30
0.0
 10
529.1408295371111
 20
202.875076671468
 30
0.0
 10
528.5242414374278
 20
202.9123147920872
 30
0.0
 10
527.5437830788273
 20
202.9693297503343
 30
0.0
 10
527.2073978909457
 20
202.9885427635638
 30
0.0
 10
526.5149303872263
 20
203.0274037273485
 30
0.0
 10
526.1603623987165
 20
203.0469625127134
 30
0.0
 10
525.804185740981
 20
203.0662855980353
 30
0.0
  0
LINE
  5
1FB
330
1F
100
AcDbEntity
  8
0
  6
Continuous
 62
     7
370
    15
100
AcDbLine
 10
525.8041866572
 20
203.0662854075
 30
0.0
 11
510.4822092207
 21
203.8974162995
 31
0.0
  0
SPLINE
  5
1FC
330
1F
100
AcDbEntity
  8
0
  6
Continuous
 62
     7
370
    15
100
AcDbSpline
210
0.0
220
0.0
230
1.0
 70
     8
 71
     3
 72
    46
 73
    42
 74
     0
 42
0.00000001
 43
0.00000001
 12
1.0
 22
0.0
 32
0.0
 13
1.0
 23
0.0
 33
0.0
 40
0.0
 40
0.0
 40
0.0
 40
0.0
 40
0.0625000000000011
 40
0.0625000000000011
 40
0.1250000000000021
 40
0.1250000000000021
 40
0.1875000000000032
 40
0.1875000000000032
 40
0.2187500000000034
 40
0.2187500000000034
 40
0.2500000000000036
 40
0.2500000000000036
 40
0.3125000000000036
 40
0.3125000000000036
 40
0.3437500000000037
 40
0.3437500000000037
 40
0.3750000000000037
 40
0.3750000000000037
 40
0.4375000000000029
 40
0.4375000000000029
 40
0.500000000000002
 40
0.500000000000002
 40
0.5625000000000012
 40
0.5625000000000012
 40
0.6250000000000003
 40
0.6250000000000003
 40
0.6874999999999996
 40
0.6874999999999996
 40
0.7187499999999991
 40
0.7187499999999991
 40
0.7499999999999986
 40
0.7499999999999986
 40
0.8124999999999989
 40
0.8124999999999989
 40
0.8437499999999991
 40
0.8437499999999991
 40
0.8749999999999993
 40
0.8749999999999993
 40
0.9374999999999997
 40
0.9374999999999997
 40
1.0
 40
1.0
 40
1.0
 40
1.0
 10
459.0046082273062
 20
203.8974155111141
 30
0.0
 10
458.7516288503112
 20
203.924032020736
 30
0.0
 10
458.4611737312908
 20
203.9502723764294
 30
0.0
 10
457.8134722687344
 20
204.001513314393
 30
0.0
 10
457.4539024937081
 20
204.026692159745
 30
0.0
 10
456.6694540069905
 20
204.0754496720945
 30
0.0
 10
456.2536296788392
 20
204.0984871846054
 30
0.0
 10
455.5957148178565
 20
204.1310310822649
 30
0.0
 10
455.370677965913
 20
204.1415414751319
 30
0.0
 10
454.9089205557781
 20
204.161860361841
 30
0.0
 10
454.6709705675605
 20
204.1717139183919
 30
0.0
 10
453.9513742529711
 20
204.199680822052
 30
0.0
 10
453.4626608736227
 20
204.2163008748649
 30
0.0
 10
452.716417882701
 20
204.2381775473079
 30
0.0
 10
452.465461412598
 20
204.2449579302417
 30
0.0
 10
451.9590175777831
 20
204.2574555340873
 30
0.0
 10
451.7033642919925
 20
204.2631684482766
 30
0.0
 10
450.9451812699841
 20
204.2783396400508
 30
0.0
 10
450.4461358837486
 20
204.2859826089617
 30
0.0
 10
449.4607296470637
 20
204.2963114724422
 30
0.0
 10
448.9702400533898
 20
204.2989664935374
 30
0.0
 10
448.0377123399832
 20
204.2989750406926
 30
0.0
 10
447.5923257219366
 20
204.2964071152737
 30
0.0
 10
446.7433779306956
 20
204.2861416552198
 30
0.0
 10
446.3386711574932
 20
204.2783465684103
 30
0.0
 10
445.603847828681
 20
204.2582182731259
 30
0.0
 10
445.2692591190896
 20
204.2458589052686
 30
0.0
 10
444.8173113723958
 20
204.2239024512457
 30
0.0
 10
444.6744669507371
 20
204.2159683435017
 30
0.0
 10
444.4108758285666
 20
204.1992357608914
 30
0.0
 10
444.2896289249088
 20
204.1904225843694
 30
0.0
 10
443.9568102898289
 20
204.1626946090817
 30
0.0
 10
443.7759098861377
 20
204.1425017150819
 30
0.0
 10
443.567702711792
 20
204.1096669006942
 30
0.0
 10
443.5091001193913
 20
204.0983012308076
 30
0.0
 10
443.4154512434832
 20
204.0751878883752
 30
0.0
 10
443.3800190247641
 20
204.063384867076
 30
0.0
 10
443.3073357292739
 20
204.0272653490788
 30
0.0
 10
443.3034172610806
 20
204.0022450671142
 30
0.0
 10
443.3882793500049
 20
203.9503136509902
 30
0.0
 10
443.4762051569573
 20
203.9239905037502
 30
0.0
 10
443.6089832753719
 20
203.8974155111141
 30
0.0
  0
LINE
  5
1FD
330
1F
100
AcDbEntity
  8
0
  6
Continuous
 62
     7
370
    15
100
AcDbLine
 10
443.6089829059
 20
203.8974162995
 30
0.0
 11
447.7609716804
 21
203.0662854075
 31
0.0
  0
SPLINE
  5
1FE
330
1F
100
AcDbEntity
  8
0
  6
Continuous
 62
     7
370
    15
100
AcDbSpline
210
0.0
220
0.0
230
1.0
 70
     8
 71
     3
 72
    53
 73
    49
 74
     0
 42
0.00000001
 43
0.00000001
 12
1.0
 22
0.0
 32
0.0
 13
1.0
 23
0.0
 33
0.0
 40
0.0
 40
0.0
 40
0.0
 40
0.0
 40
0.0312499999999993
 40
0.0312499999999993
 40
0.0624999999999987
 40
0.0624999999999987
 40
0.1249999999999987
 40
0.1249999999999987
 40
0.1562499999999987
 40
0.1562499999999987
 40
0.1874999999999987
 40
0.1874999999999987
 40
0.2499999999999982
 40
0.2499999999999982
 40
0.3124999999999978
 40
0.3124999999999978
 40
0.3437499999999976
 40
0.3437499999999976
 40
0.3749999999999973
 40
0.3749999999999973
 40
0.4374999999999962
 40
0.4374999999999962
 40
0.4687499999999957
 40
0.4687499999999957
 40
0.4999999999999951
 40
0.5312499999999946
 40
0.5312499999999946
 40
0.562499999999994
 40
0.562499999999994
 40
0.6249999999999941
 40
0.6249999999999941
 40
0.6562499999999943
 40
0.6562499999999943
 40
0.6874999999999946
 40
0.6874999999999946
 40
0.7187499999999948
 40
0.7187499999999948
 40
0.749999999999995
 40
0.749999999999995
 40
0.8124999999999966
 40
0.8124999999999966
 40
0.8749999999999981
 40
0.8749999999999981
 40
0.9374999999999997
 40
0.9374999999999997
 40
0.9687499999999998
 40
0.9687499999999998
 40
1.0
 40
1.0
 40
1.0
 40
1.0
 10
447.7609707079694
 20
203.0662855980353
 30
0.0
 10
447.8571123060123
 20
203.0470377725489
 30
0.0
 10
447.9719371054318
 20
203.0277474167926
 30
0.0
 10
448.2395949964059
 20
202.9890795344925
 30
0.0
 10
448.3935139700904
 20
202.9695928191852
 30
0.0
 10
448.9038580723177
 20
202.9121882710201
 30
0.0
 10
449.3088956394271
 20
202.8751035326002
 30
0.0
 10
450.0125540159613
 20
202.8211503269275
 30
0.0
 10
450.2647543695398
 20
202.8033517642849
 30
0.0
 10
450.7953773551794
 20
202.7688040314946
 30
0.0
 10
451.0724967047616
 20
202.7521219857164
 30
0.0
 10
451.9382745619798
 20
202.7037674676702
 30
0.0
 10
452.5621202530914
 20
202.6737208203275
 30
0.0
 10
453.9001926675365
 20
202.6182967693202
 30
0.0
 10
454.5924718063351
 20
202.5938122396892
 30
0.0
 10
455.6645161880384
 20
202.5616114040218
 30
0.0
 10
456.0275162667346
 20
202.5516389325007
 30
0.0
 10
456.7651979276182
 20
202.5332450802665
 30
0.0
 10
457.1363537709483
 20
202.5249190924357
 30
0.0
 10
458.2430220230424
 20
202.5027605287108
 30
0.0
 10
458.9774539266795
 20
202.4915720903928
 30
0.0
 10
460.0739812746015
 20
202.4801901851466
 30
0.0
 10
460.4382214957398
 20
202.4773225689269
 30
0.0
 10
461.1475885559063
 20
202.4735380840481
 30
0.0
 10
461.8423266441604
 20
202.4716521664139
 30
0.0
 10
462.5081944611882
 20
202.4735084173243
 30
0.0
 10
463.1593291374882
 20
202.4772767150667
 30
0.0
 10
463.4787329231629
 20
202.4801420473912
 30
0.0
 10
464.3927857358798
 20
202.4914573363406
 30
0.0
 10
464.9504901259321
 20
202.5026003562333
 30
0.0
 10
465.7099381912892
 20
202.5247667332675
 30
0.0
 10
465.9514348430536
 20
202.5331318101727
 30
0.0
 10
466.3990552137481
 20
202.5514461925833
 30
0.0
 10
466.6055375308677
 20
202.561385755894
 30
0.0
 10
466.9847154261408
 20
202.5828117229078
 30
0.0
 10
467.1574093757957
 20
202.5942981534974
 30
0.0
 10
467.4687234056254
 20
202.6188544734329
 30
0.0
 10
467.6078893732825
 20
202.631989421848
 30
0.0
 10
467.9682306758274
 20
202.6734513981817
 30
0.0
 10
468.1301858332862
 20
202.7033861787724
 30
0.0
 10
468.3020156428917
 20
202.7679077255156
 30
0.0
 10
468.3098843947739
 20
202.802864502605
 30
0.0
 10
468.1687756855918
 20
202.8746530042079
 30
0.0
 10
468.021956484343
 20
202.911753538497
 30
0.0
 10
467.6841919027989
 20
202.9693487025893
 30
0.0
 10
467.552320348584
 20
202.9887640376336
 30
0.0
 10
467.2541783046266
 20
203.0274851082979
 30
0.0
 10
467.0874488262664
 20
203.0468719657013
 30
0.0
 10
466.9029817142527
 20
203.0662855980353
 30
0.0
  0
LINE
  5
1FF
330
1F
100
AcDbEntity
  8
0
  6
Continuous
 62
     7
370
    15
100
AcDbLine
 10
466.9029809983
 20
203.0662854075
 30
0.0
 11
459.0046093316
 21
203.8974162995
 31
0.0
  0
SPLINE
  5
200
330
1F
100
AcDbEntity
  8
0
  6
Continuous
 62
     7
370
    15
100
AcDbSpline
210
0.0
220
0.0
230
1.0
 70
     8
 71
     3
 72
    48
 73
    44
 74
     0
 42
0.00000001
 43
0.00000001
 12
1.0
 22
0.0
 32
0.0
 13
1.0
 23
0.0
 33
0.0
 40
0.0
 40
0.0
 40
0.0
 40
0.0
 40
0.0624999999999993
 40
0.0624999999999993
 40
0.093749999999999
 40
0.093749999999999
 40
0.1249999999999986
 40
0.1249999999999986
 40
0.1874999999999978
 40
0.1874999999999978
 40
0.249999999999997
 40
0.249999999999997
 40
0.3124999999999962
 40
0.3124999999999962
 40
0.3749999999999954
 40
0.3749999999999954
 40
0.4374999999999946
 40
0.4374999999999946
 40
0.4687499999999941
 40
0.4687499999999941
 40
0.4999999999999936
 40
0.4999999999999936
 40
0.5624999999999941
 40
0.5624999999999941
 40
0.5937499999999946
 40
0.5937499999999946
 40
0.624999999999995
 40
0.624999999999995
 40
0.6874999999999959
 40
0.6874999999999959
 40
0.7499999999999967
 40
0.7499999999999967
 40
0.7812499999999972
 40
0.7812499999999972
 40
0.8124999999999978
 40
0.8124999999999978
 40
0.874999999999999
 40
0.874999999999999
 40
0.9062499999999992
 40
0.9062499999999992
 40
0.9374999999999994
 40
0.9374999999999994
 40
1.0
 40
1.0
 40
1.0
 40
1.0
 10
379.8272070022476
 20
203.8974155111141
 30
0.0
 10
379.9597515704687
 20
203.9239437596425
 30
0.0
 10
380.0468055121899
 20
203.9500426200488
 30
0.0
 10
380.1106977454469
 20
203.9885400753251
 30
0.0
 10
380.1208129468362
 20
204.0012631701663
 30
0.0
 10
380.1181098511929
 20
204.0264778298497
 30
0.0
 10
380.105130120553
 20
204.0389724905942
 30
0.0
 10
380.0324537782389
 20
204.0753337052159
 30
0.0
 10
379.9394260011264
 20
204.0983501222077
 30
0.0
 10
379.6651216312799
 20
204.1418648698793
 30
0.0
 10
379.4812917442336
 20
204.1625150620453
 30
0.0
 10
379.0363058784135
 20
204.1996284069249
 30
0.0
 10
378.7750471190882
 20
204.2162566978518
 30
0.0
 10
378.1748195601438
 20
204.2455331880083
 30
0.0
 10
377.8333622668104
 20
204.2581852361645
 30
0.0
 10
377.0982431809418
 20
204.2783318249236
 30
0.0
 10
376.7019838476327
 20
204.2859934341532
 30
0.0
 10
376.0639108569337
 20
204.2937644411468
 30
0.0
 10
375.8427713262011
 20
204.2957339467561
 30
0.0
 10
375.3934146672939
 20
204.2983317598449
 30
0.0
 10
375.16474699754
 20
204.2989729589645
 30
0.0
 10
374.4670499307909
 20
204.2989663825021
 30
0.0
 10
373.9864215098422
 20
204.2964026128956
 30
0.0
 10
373.2415969285818
 20
204.2886308572327
 30
0.0
 10
372.9894390307369
 20
204.2853753737305
 30
0.0
 10
372.4873557690362
 20
204.2776862990881
 30
0.0
 10
372.2361483781277
 20
204.2732410950498
 30
0.0
 10
371.482036925769
 20
204.258147771889
 30
0.0
 10
370.9786477042647
 20
204.2457554666605
 30
0.0
 10
369.970518170227
 20
204.2162237237931
 30
0.0
 10
369.4798681013712
 20
204.1994917118502
 30
0.0
 10
368.7662414815779
 20
204.1717520296691
 30
0.0
 10
368.5319365257684
 20
204.1620570852177
 30
0.0
 10
368.0705670132259
 20
204.1417723508456
 30
0.0
 10
367.8424989819779
 20
204.1311320955088
 30
0.0
 10
367.1770710319509
 20
204.0982138004499
 30
0.0
 10
366.7617905931828
 20
204.0751449827892
 30
0.0
 10
366.1800182951403
 20
204.0389807710823
 30
0.0
 10
365.9929947640892
 20
204.0266639720783
 30
0.0
 10
365.6330325162703
 20
204.001504762215
 30
0.0
 10
365.4594627481337
 20
203.9886066397973
 30
0.0
 10
364.9698635322782
 20
203.9498469587478
 30
0.0
 10
364.681882395705
 20
203.9237501540033
 30
0.0
 10
364.4315820503134
 20
203.8974155111141
 30
0.0
  0
LINE
  5
201
330
1F
100
AcDbEntity
  8
0
  6
Continuous
 62
     7
370
    15
100
AcDbLine
 10
364.431580946
 20
203.8974162995
 30
0.0
 11
356.5332092793
 21
203.0662854075
 31
0.0
  0
SPLINE
  5
202
330
1F
100
AcDbEntity
  8
0
  6
Continuous
 62
     7
370
    15
100
AcDbSpline
210
0.0
220
0.0
230
1.0
 70
     8
 71
     3
 72
    54
 73
    50
 74
     0
 42
0.00000001
 43
0.00000001
 12
1.0
 22
0.0
 32
0.0
 13
1.0
 23
0.0
 33
0.0
 40
0.0
 40
0.0
 40
0.0
 40
0.0
 40
0.0624999999999993
 40
0.0624999999999993
 40
0.0937499999999995
 40
0.0937499999999995
 40
0.1249999999999996
 40
0.1249999999999996
 40
0.1562499999999998
 40
0.1562499999999998
 40
0.1874999999999999
 40
0.1874999999999999
 40
0.2500000000000002
 40
0.2500000000000002
 40
0.3125000000000004
 40
0.3125000000000004
 40
0.3750000000000007
 40
0.3750000000000007
 40
0.4062500000000011
 40
0.4062500000000011
 40
0.4375000000000014
 40
0.4375000000000014
 40
0.4687500000000017
 40
0.4687500000000017
 40
0.5000000000000021
 40
0.5000000000000021
 40
0.5625000000000027
 40
0.5625000000000027
 40
0.5937500000000027
 40
0.5937500000000027
 40
0.6250000000000027
 40
0.6250000000000027
 40
0.6562500000000027
 40
0.6562500000000027
 40
0.6875000000000027
 40
0.6875000000000027
 40
0.7500000000000023
 40
0.7500000000000023
 40
0.7812500000000022
 40
0.7812500000000022
 40
0.8125000000000021
 40
0.8125000000000021
 40
0.8750000000000018
 40
0.8750000000000018
 40
0.9375000000000014
 40
0.9375000000000014
 40
0.9687500000000008
 40
0.9687500000000008
 40
1.0
 40
1.0
 40
1.0
 40
1.0
 10
356.5332085633667
 20
203.0662855980353
 30
0.0
 10
356.1651380630813
 20
203.0275492331217
 30
0.0
 10
355.8687579415814
 20
202.9890963225583
 30
0.0
 10
355.5314506411818
 20
202.9318198299764
 30
0.0
 10
355.4366813385025
 20
202.9126826016064
 30
0.0
 10
355.2875797669452
 20
202.8752662586449
 30
0.0
 10
355.2328287538854
 20
202.8569592037249
 30
0.0
 10
355.1619834599476
 20
202.8211122121508
 30
0.0
 10
355.1458907630779
 20
202.8035723349147
 30
0.0
 10
355.1527385021915
 20
202.7692473932742
 30
0.0
 10
355.1759097938593
 20
202.7523827836042
 30
0.0
 10
355.3049191423733
 20
202.7035066574573
 30
0.0
 10
355.4676168510512
 20
202.6735922905178
 30
0.0
 10
355.9423527702306
 20
202.6187661673475
 30
0.0
 10
356.2591778882648
 20
202.5937061581941
 30
0.0
 10
357.018308333988
 20
202.5507537611635
 30
0.0
 10
357.4616510489228
 20
202.532550679691
 30
0.0
 10
358.2251318352883
 20
202.5101760144907
 30
0.0
 10
358.4944893591805
 20
202.5036097542383
 30
0.0
 10
359.0539588317874
 20
202.4924055675158
 30
0.0
 10
359.3452591236521
 20
202.4877317667006
 30
0.0
 10
359.9507917188549
 20
202.4802135727173
 30
0.0
 10
360.2650229500989
 20
202.4773691109442
 30
0.0
 10
360.9169993613217
 20
202.4735489937646
 30
0.0
 10
361.2550820570292
 20
202.4725879375857
 30
0.0
 10
362.2805402007618
 20
202.4725870894011
 30
0.0
 10
362.9867790026356
 20
202.4763329614741
 30
0.0
 10
364.080182103388
 20
202.487623339099
 30
0.0
 10
364.4522373549131
 20
202.4923761603549
 30
0.0
 10
365.1915752565974
 20
202.5036196341306
 30
0.0
 10
365.5603685242422
 20
202.5101171496496
 30
0.0
 10
366.2962393988277
 20
202.5248428443805
 30
0.0
 10
366.6633169685696
 20
202.5330710251287
 30
0.0
 10
367.3957336147442
 20
202.5512994209454
 30
0.0
 10
367.7632511832375
 20
202.5613679378185
 30
0.0
 10
368.8444044759215
 20
202.5938139945011
 30
0.0
 10
369.5357211127906
 20
202.6183142072013
 30
0.0
 10
370.5293772300622
 20
202.659429142037
 30
0.0
 10
370.8545345778925
 20
202.6739268148226
 30
0.0
 10
371.4841939095816
 20
202.7042102443378
 30
0.0
 10
371.7857997327281
 20
202.719847444074
 30
0.0
 10
372.6522224890914
 20
202.7682338444339
 30
0.0
 10
373.179076435802
 20
202.8024416989674
 30
0.0
 10
374.1275002059643
 20
202.875076671468
 30
0.0
 10
374.533281157353
 20
202.9123147920872
 30
0.0
 10
375.0404250126564
 20
202.9693297503343
 30
0.0
 10
375.1925904031624
 20
202.9885427635638
 30
0.0
 10
375.4621570481625
 20
203.0274037273485
 30
0.0
 10
375.5787020537737
 20
203.0469625127134
 30
0.0
 10
375.6752195696499
 20
203.0662855980353
 30
0.0
  0
LINE
  5
203
330
1F
100
AcDbEntity
  8
0
  6
Continuous
 62
     7
370
    15
100
AcDbLine
 10
375.6752185972
 20
203.0662854075
 30
0.0
 11
379.8272073717
 21
203.8974162995
 31
0.0
  0
SPLINE
  5
204
330
1F
100
AcDbEntity
  8
0
  6
Continuous
 62
     7
370
    15
100
AcDbSpline
210
0.0
220
0.0
230
1.0
 70
     8
 71
     3
 72
    10
 73
     6
 74
     0
 42
0.00000001
 43
0.00000001
 12
1.0
 22
0.0
 32
0.0
 13
1.0
 23
0.0
 33
0.0
 40
0.0
 40
0.0
 40
0.0
 40
0.0
 40
0.086448594073633
 40
0.8215168674836696
 40
0.9999999999999999
 40
0.9999999999999999
 40
0.9999999999999999
 40
0.9999999999999999
 10
319.3310521991472
 20
203.8974162995188
 30
0.0
 10
319.3550625883955
 20
203.8988677723777
 30
0.0
 10
319.5832321725717
 20
203.912661049747
 30
0.0
 10
319.8578128579705
 20
203.9295000639908
 30
0.0
 10
320.0885429057884
 20
203.9445853706936
 30
0.0
 10
320.1336212904672
 20
203.947532629904
 30
0.0
  0
SPLINE
  5
205
330
1F
100
AcDbEntity
  8
0
  6
Continuous
 62
     7
370
    15
100
AcDbSpline
210
0.0
220
0.0
230
1.0
 70
     8
 71
     3
 72
    18
 73
    14
 74
     0
 42
0.00000001
 43
0.00000001
 12
1.0
 22
0.0
 32
0.0
 13
1.0
 23
0.0
 33
0.0
 40
0.0
 40
0.0
 40
0.0
 40
0.0
 40
0.0545640814525119
 40
0.1479316502322019
 40
0.2416315472081105
 40
0.3353324842584784
 40
0.4287008071398367
 40
0.5221931545233983
 40
0.6160201975648582
 40
0.7098460073567088
 40
0.8033392762798169
 40
0.901669917169334
 40
1.0
 40
1.0
 40
1.0
 40
1.0
 10
320.1336212904672
 20
204.2303585320084
 30
0.0
 10
320.0234565959565
 20
204.2264101808195
 30
0.0
 10
319.724783098255
 20
204.2157055910689
 30
0.0
 10
319.1986590351893
 20
204.1951405328341
 30
0.0
 10
318.5648918323184
 20
204.1692619630545
 30
0.0
 10
317.9057159052011
 20
204.1410270730999
 30
0.0
 10
317.2280187373719
 20
204.1108357733566
 30
0.0
 10
316.5348730430889
 20
204.078805659526
 30
0.0
 10
315.8310306236291
 20
204.0452175451272
 30
0.0
 10
315.1223796924183
 20
204.0103890509102
 30
0.0
 10
314.4028735301534
 20
203.9739988060999
 30
0.0
 10
313.6764129756887
 20
203.9362784045742
 30
0.0
 10
313.1947912409682
 20
203.910370310031
 30
0.0
 10
312.9539810569505
 20
203.8974162995188
 30
0.0
  0
LINE
  5
206
330
1F
100
AcDbEntity
  8
0
  6
Continuous
 62
     7
370
    15
100
AcDbLine
 10
312.953981057
 20
203.8974162995
 30
0.0
 11
297.6320036204
 21
203.0662854075
 31
0.0
  0
SPLINE
  5
207
330
1F
100
AcDbEntity
  8
0
  6
Continuous
 62
     7
370
    15
100
AcDbSpline
210
0.0
220
0.0
230
1.0
 70
     8
 71
     3
 72
    53
 73
    49
 74
     0
 42
0.00000001
 43
0.00000001
 12
1.0
 22
0.0
 32
0.0
 13
1.0
 23
0.0
 33
0.0
 40
0.0
 40
0.0
 40
0.0
 40
0.0
 40
0.0312500000000011
 40
0.0312500000000011
 40
0.0625000000000023
 40
0.0625000000000023
 40
0.1250000000000035
 40
0.1250000000000035
 40
0.156250000000004
 40
0.156250000000004
 40
0.1875000000000044
 40
0.1875000000000044
 40
0.2500000000000046
 40
0.2500000000000046
 40
0.3125000000000047
 40
0.3125000000000047
 40
0.3437500000000046
 40
0.3437500000000046
 40
0.3750000000000046
 40
0.3750000000000046
 40
0.4375000000000044
 40
0.4375000000000044
 40
0.4687500000000045
 40
0.4687500000000045
 40
0.5000000000000046
 40
0.5312500000000046
 40
0.5312500000000046
 40
0.5625000000000046
 40
0.5625000000000046
 40
0.625000000000004
 40
0.625000000000004
 40
0.6562500000000037
 40
0.6562500000000037
 40
0.6875000000000033
 40
0.6875000000000033
 40
0.7187500000000031
 40
0.7187500000000031
 40
0.7500000000000028
 40
0.7500000000000028
 40
0.8125000000000023
 40
0.8125000000000023
 40
0.875000000000002
 40
0.875000000000002
 40
0.9375000000000016
 40
0.9375000000000016
 40
0.9687500000000009
 40
0.9687500000000009
 40
1.0
 40
1.0
 40
1.0
 40
1.0
 10
297.6320045366387
 20
203.0662855980353
 30
0.0
 10
297.2772151209623
 20
203.0470377725489
 30
0.0
 10
296.927475245844
 20
203.0277474167926
 30
0.0
 10
296.2382680964581
 20
202.9890795344925
 30
0.0
 10
295.8969594340977
 20
202.9695928191852
 30
0.0
 10
294.9097166766611
 20
202.9121882710201
 30
0.0
 10
294.295972168161
 20
202.8751035326002
 30
0.0
 10
293.4412255601295
 20
202.8211503269275
 30
0.0
 10
293.1659621248396
 20
202.8033517642849
 30
0.0
 10
292.6458077573755
 20
202.7688040314946
 30
0.0
 10
292.4018366197695
 20
202.7521219857164
 30
0.0
 10
291.7168746324348
 20
202.7037674676702
 30
0.0
 10
291.3217309060224
 20
202.6737208203275
 30
0.0
 10
290.663513818045
 20
202.6182967693202
 30
0.0
 10
290.4109364754762
 20
202.5938122396892
 30
0.0
 10
290.1428039618432
 20
202.5616114040218
 30
0.0
 10
290.0720389895474
 20
202.5516389325007
 30
0.0
 10
289.9689799612383
 20
202.5332450802665
 30
0.0
 10
289.9373442408363
 20
202.5249190924357
 30
0.0
 10
289.9016868345499
 20
202.5027605287108
 30
0.0
 10
289.9554295791772
 20
202.4915720903928
 30
0.0
 10
290.1546026844354
 20
202.4801901851466
 30
0.0
 10
290.2411572978152
 20
202.4773225689269
 30
0.0
 10
290.4500855760879
 20
202.4735380840481
 30
0.0
 10
290.6955197584461
 20
202.4716521267713
 30
0.0
 10
291.0130012164563
 20
202.4735084173243
 30
0.0
 10
291.3672485320052
 20
202.4772767150667
 30
0.0
 10
291.5638175416474
 20
202.4801420473912
 30
0.0
 10
292.1959640030294
 20
202.4914573363406
 30
0.0
 10
292.6764323068207
 20
202.5026003562333
 30
0.0
 10
293.4852458426115
 20
202.5247667332675
 30
0.0
 10
293.7715229795265
 20
202.5331318101727
 30
0.0
 10
294.3637939384707
 20
202.5514461925833
 30
0.0
 10
294.6697239872277
 20
202.5613857558941
 30
0.0
 10
295.300681283343
 20
202.5828117229078
 30
0.0
 10
295.6257094528263
 20
202.5942981534974
 30
0.0
 10
296.2950244707403
 20
202.6188544734329
 30
0.0
 10
296.6409611708281
 20
202.631989421848
 30
0.0
 10
297.6972747662886
 20
202.6734513981817
 30
0.0
 10
298.4155171108872
 20
202.7033861787724
 30
0.0
 10
299.8792596096515
 20
202.7679077255156
 30
0.0
 10
300.6317095248511
 20
202.802864502605
 30
0.0
 10
302.0984629003565
 20
202.8746530042079
 30
0.0
 10
302.819576116244
 20
202.911753538497
 30
0.0
 10
303.8823417527119
 20
202.9693487025893
 30
0.0
 10
304.2313145094753
 20
202.9887640376336
 30
0.0
 10
304.9090318111872
 20
203.0274851082979
 30
0.0
 10
305.2392819993486
 20
203.0468719657013
 30
0.0
 10
305.560885106536
 20
203.0662855980353
 30
0.0
  0
LINE
  5
208
330
1F
100
AcDbEntity
  8
0
  6
Continuous
 62
     7
370
    15
100
AcDbLine
 10
305.5608816893
 20
203.0662854075
 30
0.0
 11
319.3310521991
 21
203.8974162995
 31
0.0
  0
LINE
  5
209
330
1F
100
AcDbEntity
  8
0
  6
Continuous
 62
     7
370
    15
100
AcDbLine
 10
338.8719581516
 20
203.8049434184
 30
0.0
 11
349.7109137924
 21
204.6080247372
 31
0.0
  0
SPLINE
  5
20A
330
1F
100
AcDbEntity
  8
0
  6
Continuous
 62
     7
370
    15
100
AcDbSpline
210
0.0
220
0.0
230
1.0
 70
     8
 71
     3
 72
    18
 73
    14
 74
     0
 42
0.00000001
 43
0.00000001
 12
1.0
 22
0.0
 32
0.0
 13
1.0
 23
0.0
 33
0.0
 40
0.0
 40
0.0
 40
0.0
 40
0.0
 40
0.2499999999999993
 40
0.2499999999999993
 40
0.3749999999999993
 40
0.3749999999999993
 40
0.4999999999999994
 40
0.4999999999999994
 40
0.6249999999999996
 40
0.6249999999999996
 40
0.7499999999999996
 40
0.7499999999999996
 40
1.0
 40
1.0
 40
1.0
 40
1.0
 10
349.710915334012
 20
204.6080241035821
 30
0.0
 10
351.0752057415931
 20
204.6140603785684
 30
0.0
 10
352.5351853880482
 20
204.6263620779215
 30
0.0
 10
354.8676476031764
 20
204.6543677514793
 30
0.0
 10
355.6721723656474
 20
204.6653663208414
 30
0.0
 10
357.2992711092957
 20
204.6902478256513
 30
0.0
 10
358.1247953177162
 20
204.7041567231486
 30
0.0
 10
359.7993029475343
 20
204.734932130399
 30
0.0
 10
360.6482870846444
 20
204.7517985104483
 30
0.0
 10
362.3699022404657
 20
204.7886111053227
 30
0.0
 10
363.2438933111587
 20
204.8085900698611
 30
0.0
 10
365.8940603723137
 20
204.8732867727782
 30
0.0
 10
367.6623593236577
 20
204.9218215234663
 30
0.0
 10
369.4321657758844
 20
204.9763285162125
 30
0.0
  0
SPLINE
  5
20B
330
1F
100
AcDbEntity
  8
0
  6
Continuous
 62
     7
370
    15
100
AcDbSpline
210
0.0
220
0.0
230
1.0
 70
     8
 71
     3
 72
    20
 73
    16
 74
     0
 42
0.00000001
 43
0.00000001
 12
1.0
 22
0.0
 32
0.0
 13
1.0
 23
0.0
 33
0.0
 40
0.0
 40
0.0
 40
0.0
 40
0.0
 40
0.2500000000000004
 40
0.2500000000000004
 40
0.3125000000000003
 40
0.3125000000000003
 40
0.3750000000000002
 40
0.3750000000000002
 40
0.5000000000000001
 40
0.5000000000000001
 40
0.6250000000000001
 40
0.6250000000000001
 40
0.7499999999999999
 40
0.7499999999999999
 40
1.0
 40
1.0
 40
1.0
 40
1.0
 10
369.4321657758845
 20
204.9763285162126
 30
0.0
 10
371.460302922758
 20
205.0387916497455
 30
0.0
 10
373.4697563973708
 20
205.0869814753673
 30
0.0
 10
375.9590295668456
 20
205.1281801241403
 30
0.0
 10
376.4557412110416
 20
205.1354583465688
 30
0.0
 10
377.4468348817485
 20
205.1480230680022
 30
0.0
 10
377.9427423819214
 20
205.1533186979511
 30
0.0
 10
379.4088578048514
 20
205.1659583455277
 30
0.0
 10
380.3613093410228
 20
205.1701361382022
 30
0.0
 10
382.217750953784
 20
205.1701674906867
 30
0.0
 10
383.1217383080667
 20
205.1660207115119
 30
0.0
 10
384.8805454531504
 20
205.1493570356301
 30
0.0
 10
385.7399816361043
 20
205.1367125335501
 30
0.0
 10
388.1846345064055
 20
205.0871429025529
 30
0.0
 10
389.6519635393594
 20
205.0387919087806
 30
0.0
 10
390.9538392846166
 20
204.9763285162125
 30
0.0
  0
SPLINE
  5
20C
330
1F
100
AcDbEntity
  8
0
  6
Continuous
 62
     7
370
    15
100
AcDbSpline
210
0.0
220
0.0
230
1.0
 70
     8
 71
     3
 72
    40
 73
    36
 74
     0
 42
0.00000001
 43
0.00000001
 12
1.0
 22
0.0
 32
0.0
 13
1.0
 23
0.0
 33
0.0
 40
0.0
 40
0.0
 40
0.0
 40
0.0
 40
0.1249999999999989
 40
0.1249999999999989
 40
0.1874999999999986
 40
0.1874999999999986
 40
0.2187499999999985
 40
0.2187499999999985
 40
0.2499999999999983
 40
0.2499999999999983
 40
0.3749999999999981
 40
0.3749999999999981
 40
0.4062499999999981
 40
0.4062499999999981
 40
0.4374999999999981
 40
0.4374999999999981
 40
0.4999999999999982
 40
0.4999999999999982
 40
0.5312499999999982
 40
0.5312499999999982
 40
0.5624999999999983
 40
0.5624999999999983
 40
0.6249999999999984
 40
0.6249999999999984
 40
0.6874999999999986
 40
0.6874999999999986
 40
0.7499999999999987
 40
0.7499999999999987
 40
0.874999999999999
 40
0.874999999999999
 40
0.9062499999999991
 40
0.9062499999999991
 40
0.9374999999999993
 40
0.9374999999999993
 40
1.0
 40
1.0
 40
1.0
 40
1.0
 10
390.9538392846166
 20
204.9763285162125
 30
0.0
 10
392.2250888882181
 20
204.9153345516725
 30
0.0
 10
393.6397981988714
 20
204.8622486016623
 30
0.0
 10
395.9689001393828
 20
204.7929120600695
 30
0.0
 10
396.7800860835981
 20
204.7715355853021
 30
0.0
 10
398.0509463951848
 20
204.7420475544272
 30
0.0
 10
398.4819174968627
 20
204.7326910651821
 30
0.0
 10
399.3518286129581
 20
204.7150330240659
 30
0.0
 10
399.7917447230676
 20
204.7067085636224
 30
0.0
 10
402.0157438604464
 20
204.6675318302854
 30
0.0
 10
403.872205398803
 20
204.6439138992259
 30
0.0
 10
406.292062546899
 20
204.6238682187518
 30
0.0
 10
406.7810022110679
 20
204.6203436760146
 30
0.0
 10
407.7579878746893
 20
204.6143305736853
 30
0.0
 10
408.247400113268
 20
204.6118297936596
 30
0.0
 10
409.7183629819846
 20
204.6058200676913
 30
0.0
 10
410.7026316550558
 20
204.6037983922944
 30
0.0
 10
412.1844952826731
 20
204.6037428322543
 30
0.0
 10
412.6793619474816
 20
204.6042218042743
 30
0.0
 10
413.670948054817
 20
204.6061912177953
 30
0.0
 10
414.1670784411027
 20
204.6076834245628
 30
0.0
 10
415.6436297713881
 20
204.6136354641701
 30
0.0
 10
416.6169935215466
 20
204.6195727880575
 30
0.0
 10
418.5419949072052
 20
204.6353801622837
 30
0.0
 10
419.4936332337954
 20
204.6452498743897
 30
0.0
 10
421.3746712369972
 20
204.6690898951796
 30
0.0
 10
422.2927132378974
 20
204.68292691059
 30
0.0
 10
424.9623338527197
 20
204.7298651731133
 30
0.0
 10
426.638973729052
 20
204.7684191622953
 30
0.0
 10
428.6023144668684
 20
204.8266621071466
 30
0.0
 10
428.9881071666783
 20
204.8388193409841
 30
0.0
 10
429.738541303593
 20
204.8639382441098
 30
0.0
 10
430.104176374273
 20
204.8769283509851
 30
0.0
 10
431.1725098374399
 20
204.9172178681831
 30
0.0
 10
431.8467240412729
 20
204.9458314307898
 30
0.0
 10
432.482350993005
 20
204.9763285162125
 30
0.0
  0
SPLINE
  5
20D
330
1F
100
AcDbEntity
  8
0
  6
Continuous
 62
     7
370
    15
100
AcDbSpline
210
0.0
220
0.0
230
1.0
 70
     8
 71
     3
 72
    20
 73
    16
 74
     0
 42
0.00000001
 43
0.00000001
 12
1.0
 22
0.0
 32
0.0
 13
1.0
 23
0.0
 33
0.0
 40
0.0
 40
0.0
 40
0.0
 40
0.0
 40
0.2500000000000022
 40
0.2500000000000022
 40
0.3125000000000021
 40
0.3125000000000021
 40
0.375000000000002
 40
0.375000000000002
 40
0.5000000000000018
 40
0.5000000000000018
 40
0.6250000000000016
 40
0.6250000000000016
 40
0.7500000000000013
 40
0.7500000000000013
 40
1.0
 40
1.0
 40
1.0
 40
1.0
 10
432.4823509930044
 20
204.9763285162126
 30
0.0
 10
433.7842213393954
 20
205.0387916497455
 30
0.0
 10
435.2482423941856
 20
205.0869814753673
 30
0.0
 10
437.2742710237504
 20
205.1281801241403
 30
0.0
 10
437.6894135576042
 20
205.1354583465688
 30
0.0
 10
438.5399578141124
 20
205.1480230680022
 30
0.0
 10
438.9767832745775
 20
205.1533186979511
 30
0.0
 10
440.3020434025054
 20
205.1659583455277
 30
0.0
 10
441.2081497452956
 20
205.1701361382022
 30
0.0
 10
443.064243023386
 20
205.1701674906867
 30
0.0
 10
444.0142324239817
 20
205.1660207115119
 30
0.0
 10
445.9587313623754
 20
205.1493570356301
 30
0.0
 10
446.9592942964516
 20
205.1367125335501
 30
0.0
 10
449.961283535195
 20
205.0871429025529
 30
0.0
 10
451.975878944163
 20
205.0387919087806
 30
0.0
 10
454.0040245017368
 20
204.9763285162125
 30
0.0
  0
SPLINE
  5
20E
330
1F
100
AcDbEntity
  8
0
  6
Continuous
 62
     7
370
    15
100
AcDbSpline
210
0.0
220
0.0
230
1.0
 70
     8
 71
     3
 72
    18
 73
    14
 74
     0
 42
0.00000001
 43
0.00000001
 12
1.0
 22
0.0
 32
0.0
 13
1.0
 23
0.0
 33
0.0
 40
0.0
 40
0.0
 40
0.0
 40
0.0
 40
0.2499999999999996
 40
0.2499999999999996
 40
0.3749999999999993
 40
0.3749999999999993
 40
0.499999999999999
 40
0.499999999999999
 40
0.7499999999999999
 40
0.7499999999999999
 40
0.875
 40
0.875
 40
1.0
 40
1.0
 40
1.0
 40
1.0
 10
454.0040245017368
 20
204.9763285162125
 30
0.0
 10
455.7773020248466
 20
204.9217146204571
 30
0.0
 10
457.537188669254
 20
204.8734577874012
 30
0.0
 10
460.1577228840094
 20
204.8094094397639
 30
0.0
 10
461.027994606009
 20
204.7894628807716
 30
0.0
 10
462.7619071283896
 20
204.7523226110507
 30
0.0
 10
463.6280438335218
 20
204.735096632284
 30
0.0
 10
466.1605338644488
 20
204.6885466544204
 30
0.0
 10
467.7793539584907
 20
204.6638815125619
 30
0.0
 10
470.1042550786084
 20
204.6359098710999
 30
0.0
 10
470.8640533323726
 20
204.6280856491421
 30
0.0
 10
472.3379518848397
 20
204.6156239770519
 30
0.0
 10
473.0458308801918
 20
204.6110302899349
 30
0.0
 10
473.7252749436071
 20
204.6080241035822
 30
0.0
  0
LINE
  5
20F
330
1F
100
AcDbEntity
  8
0
  6
Continuous
 62
     7
370
    15
100
AcDbLine
 10
484.550090924
 20
203.8059920877
 30
0.0
 11
473.7252764852
 21
204.6080247372
 31
0.0
  0
SPLINE
  5
210
330
1F
100
AcDbEntity
  8
0
  6
Continuous
 62
     7
370
    15
100
AcDbSpline
210
0.0
220
0.0
230
1.0
 70
     8
 71
     3
 72
     8
 73
     4
 74
     0
 42
0.00000001
 43
0.00000001
 12
1.0
 22
0.0
 32
0.0
 13
1.0
 23
0.0
 33
0.0
 40
0.0
 40
0.0
 40
0.0
 40
0.0
 40
1.0
 40
1.0
 40
1.0
 40
1.0
 10
320.1336248395294
 20
202.8870597124224
 30
0.0
 10
323.2566797522471
 20
202.8995393019069
 30
0.0
 10
326.3797347024874
 20
202.8995582200341
 30
0.0
 10
329.5027896902512
 20
202.8871161388469
 30
0.0
  0
LINE
  5
211
330
1F
100
AcDbEntity
  8
0
  6
Continuous
 62
     7
370
    15
100
AcDbLine
 10
329.5027859957
 20
202.8871157079
 30
0.0
 11
338.8719581516
 21
203.5803940951
 31
0.0
  0
LINE
  5
212
330
1F
100
AcDbEntity
  8
0
  6
Continuous
 62
     7
370
    15
100
AcDbLine
 10
343.6221130641
 20
189.8684619799
 30
0.0
 11
343.6221130641
 21
185.8684617899
 31
0.0
  0
LINE
  5
213
330
1F
100
AcDbEntity
  8
0
  6
Continuous
 62
     7
370
    15
100
AcDbLine
 10
380.530752659
 20
189.8684619799
 30
0.0
 11
380.530752659
 21
185.8684617899
 31
0.0
  0
LINE
  5
214
330
1F
100
AcDbEntity
  8
0
  6
Continuous
 62
     7
370
    15
100
AcDbLine
 10
380.530752659
 20
185.8684617899
 30
0.0
 11
343.6221130641
 21
185.8684617899
 31
0.0
  0
LINE
  5
215
330
1F
100
AcDbEntity
  8
0
  6
Continuous
 62
     7
370
    15
100
AcDbLine
 10
442.9054376186
 20
189.8684619799
 30
0.0
 11
442.9054376186
 21
185.8684617899
 31
0.0
  0
LINE
  5
216
330
1F
100
AcDbEntity
  8
0
  6
Continuous
 62
     7
370
    15
100
AcDbLine
 10
479.8140772135
 20
189.8684619799
 30
0.0
 11
479.8140772135
 21
185.8684617899
 31
0.0
  0
LINE
  5
217
330
1F
100
AcDbEntity
  8
0
  6
Continuous
 62
     7
370
    15
100
AcDbLine
 10
479.8140772135
 20
185.8684617899
 30
0.0
 11
442.9054376186
 21
185.8684617899
 31
0.0
  0
LINE
  5
218
330
1F
100
AcDbEntity
  8
0
  6
Continuous
 62
     7
370
    15
100
AcDbLine
 10
380.672976792
 20
189.8684619799
 30
0.0
 11
380.530752659
 21
185.8684617899
 31
0.0
  0
LINE
  5
219
330
1F
100
AcDbEntity
  8
0
  6
Continuous
 62
     7
370
    15
100
AcDbLine
 10
385.9533019812
 20
185.8684617899
 30
0.0
 11
380.530752659
 21
185.8684617899
 31
0.0
  0
LINE
  5
21A
330
1F
100
AcDbEntity
  8
0
  6
Continuous
 62
     7
370
    15
100
AcDbLine
 10
442.7632134856
 20
189.8684619799
 30
0.0
 11
442.9054376186
 21
185.8684617899
 31
0.0
  0
LINE
  5
21B
330
1F
100
AcDbEntity
  8
0
  6
Continuous
 62
     7
370
    15
100
AcDbLine
 10
437.4828882964
 20
185.8684617899
 30
0.0
 11
442.9054376186
 21
185.8684617899
 31
0.0
  0
LINE
  5
21C
330
1F
100
AcDbEntity
  8
0
  6
Continuous
 62
     7
370
    15
100
AcDbLine
 10
405.5917751492
 20
185.8684617899
 30
0.0
 11
385.9533019812
 21
185.8684617899
 31
0.0
  0
LINE
  5
21D
330
1F
100
AcDbEntity
  8
0
  6
Continuous
 62
     7
370
    15
100
AcDbLine
 10
417.8444151284
 20
185.8684617899
 30
0.0
 11
437.4828882964
 21
185.8684617899
 31
0.0
  0
LINE
  5
21E
330
1F
100
AcDbEntity
  8
0
  6
Continuous
 62
     7
370
    15
100
AcDbLine
 10
480.0235428364
 20
189.8684619799
 30
0.0
 11
479.8140772135
 21
185.8684617899
 31
0.0
  0
LINE
  5
21F
330
1F
100
AcDbEntity
  8
0
  6
Continuous
 62
     7
370
    15
100
AcDbLine
 10
479.8314519675
 20
185.8684617899
 30
0.0
 11
479.8140772135
 21
185.8684617899
 31
0.0
  0
LINE
  5
220
330
1F
100
AcDbEntity
  8
0
  6
Continuous
 62
     7
370
    15
100
AcDbLine
 10
343.4126474412
 20
189.8684619799
 30
0.0
 11
343.6221130641
 21
185.8684617899
 31
0.0
  0
LINE
  5
221
330
1F
100
AcDbEntity
  8
0
  6
Continuous
 62
     7
370
    15
100
AcDbLine
 10
343.6047383101
 20
185.8684617899
 30
0.0
 11
343.6221130641
 21
185.8684617899
 31
0.0
  0
LINE
  5
222
330
1F
100
AcDbEntity
  8
0
  6
Continuous
 62
     7
370
    15
100
AcDbLine
 10
417.8444151284
 20
185.8684617899
 30
0.0
 11
405.5917751492
 21
185.8684617899
 31
0.0
  0
LINE
  5
223
330
1F
100
AcDbEntity
  8
0
  6
Continuous
 62
     7
370
    15
100
AcDbLine
 10
442.7465539874
 20
182.8684617638
 30
0.0
 11
380.6896362902
 21
182.8684617638
 31
0.0
  0
LINE
  5
224
330
1F
100
AcDbEntity
  8
0
  6
Continuous
 62
     7
370
    15
100
AcDbLine
 10
380.6896362902
 20
182.8684617638
 30
0.0
 11
379.7463685723
 21
185.8684617899
 31
0.0
  0
LINE
  5
225
330
1F
100
AcDbEntity
  8
0
  6
Continuous
 62
     7
370
    15
100
AcDbLine
 10
443.6898217054
 20
185.8684617899
 30
0.0
 11
442.7465539874
 21
182.8684617638
 31
0.0
  0
LINE
  5
226
330
1F
100
AcDbEntity
  8
0
  6
Continuous
 62
     7
370
    15
100
AcDbLine
 10
348.0707653315
 20
321.1463947653
 30
0.0
 11
475.3654249461
 21
321.1463947653
 31
0.0
  0
SPLINE
  5
227
330
1F
100
AcDbEntity
  8
0
  6
Continuous
 62
     7
370
    15
100
AcDbSpline
210
0.0
220
0.0
230
1.0
 70
     8
 71
     3
 72
     8
 73
     4
 74
     0
 42
0.00000001
 43
0.00000001
 12
1.0
 22
0.0
 32
0.0
 13
1.0
 23
0.0
 33
0.0
 40
0.0000005920566772
 40
0.0000005920566772
 40
0.0000005920566772
 40
0.0000005920566772
 40
0.0111809635222787
 40
0.0111809635222787
 40
0.0111809635222787
 40
0.0111809635222787
 10
348.0707643406391
 20
321.1463928016208
 30
0.0
 10
350.5973076918248
 20
322.4053228851286
 30
0.0
 10
353.1241810468838
 20
323.6627376589585
 30
0.0
 10
355.6515010453143
 20
324.9180896921237
 30
0.0
  0
SPLINE
  5
228
330
1F
100
AcDbEntity
  8
0
  6
Continuous
 62
     7
370
    15
100
AcDbSpline
210
0.0
220
0.0
230
1.0
 70
     8
 71
     3
 72
     8
 73
     4
 74
     0
 42
0.00000001
 43
0.00000001
 12
1.0
 22
0.0
 32
0.0
 13
1.0
 23
0.0
 33
0.0
 40
0.0
 40
0.0
 40
0.0
 40
0.0
 40
1.0
 40
1.0
 40
1.0
 40
1.0
 10
364.0021500728281
 20
329.1489041401688
 30
0.0
 10
361.2179103406025
 20
327.7413866528969
 30
0.0
 10
358.4344439626599
 20
326.3307827306851
 30
0.0
 10
355.6515010453143
 20
324.9180896921238
 30
0.0
  0
LINE
  5
229
330
1F
100
AcDbEntity
  8
0
  6
Continuous
 62
     7
370
    15
100
AcDbLine
 10
364.0021518321
 20
329.1488994717
 30
0.0
 11
459.4340384455
 21
329.1488994717
 31
0.0
  0
SPLINE
  5
22A
330
1F
100
AcDbEntity
  8
0
  6
Continuous
 62
     7
370
    15
100
AcDbSpline
210
0.0
220
0.0
230
1.0
 70
     8
 71
     3
 72
     8
 73
     4
 74
     0
 42
0.00000001
 43
0.00000001
 12
1.0
 22
0.0
 32
0.0
 13
1.0
 23
0.0
 33
0.0
 40
0.0
 40
0.0
 40
0.0
 40
0.0
 40
1.0
 40
1.0
 40
1.0
 40
1.0
 10
467.7846892323059
 20
324.9180896921237
 30
0.0
 10
465.0017463149603
 20
326.3307827306851
 30
0.0
 10
462.2182799370176
 20
327.7413866528969
 30
0.0
 10
459.434040204792
 20
329.1489041401688
 30
0.0
  0
SPLINE
  5
22B
330
1F
100
AcDbEntity
  8
0
  6
Continuous
 62
     7
370
    15
100
AcDbSpline
210
0.0
220
0.0
230
1.0
 70
     8
 71
     3
 72
     8
 73
     4
 74
     0
 42
0.00000001
 43
0.00000001
 12
1.0
 22
0.0
 32
0.0
 13
1.0
 23
0.0
 33
0.0
 40
0.0000005937442536
 40
0.0000005937442536
 40
0.0000005937442536
 40
0.0000005937442536
 40
0.0111809652098551
 40
0.0111809652098551
 40
0.0111809652098551
 40
0.0111809652098551
 10
467.7846892323059
 20
324.9180896921237
 30
0.0
 10
470.3120092307362
 20
323.6627376589585
 30
0.0
 10
472.8388825857953
 20
322.4053228851286
 30
0.0
 10
475.3654259369811
 20
321.1463928016208
 30
0.0
  0
SPLINE
  5
22C
330
1F
100
AcDbEntity
  8
0
  6
Continuous
 62
     7
370
    15
100
AcDbSpline
210
0.0
220
0.0
230
1.0
 70
     8
 71
     3
 72
     8
 73
     4
 74
     0
 42
0.00000001
 43
0.00000001
 12
1.0
 22
0.0
 32
0.0
 13
1.0
 23
0.0
 33
0.0
 40
0.0000002004816534
 40
0.0000002004816534
 40
0.0000002004816534
 40
0.0000002004816534
 40
0.0204579362972699
 40
0.0204579362972699
 40
0.0204579362972699
 40
0.0204579362972699
 10
347.9690672786921
 20
300.7376218731887
 30
0.0
 10
348.0020030503647
 20
307.5404839034611
 30
0.0
 10
348.0359104825995
 20
314.3434083514301
 30
0.0
 10
348.0707643406391
 20
321.1463928016208
 30
0.0
  0
SPLINE
  5
22D
330
1F
100
AcDbEntity
  8
0
  6
Continuous
 62
     7
370
    15
100
AcDbSpline
210
0.0
220
0.0
230
1.0
 70
     8
 71
     3
 72
     8
 73
     4
 74
     0
 42
0.00000001
 43
0.00000001
 12
1.0
 22
0.0
 32
0.0
 13
1.0
 23
0.0
 33
0.0
 40
0.0000002004780457
 40
0.0000002004780457
 40
0.0000002004780457
 40
0.0000002004780457
 40
0.0204579362936622
 40
0.0204579362936622
 40
0.0204579362936622
 40
0.0204579362936622
 10
475.3654259369811
 20
321.1463928016208
 30
0.0
 10
475.4002797950205
 20
314.3434083514301
 30
0.0
 10
475.4341872272554
 20
307.5404839034611
 30
0.0
 10
475.4671229989279
 20
300.7376218731887
 30
0.0
  0
LINE
  5
22E
330
1F
100
AcDbEntity
  8
0
  6
Continuous
 62
     7
370
    15
100
AcDbLine
 10
304.7681920679
 20
329.9180825114
 30
0.0
 11
304.7681920679
 21
324.9180872797
 31
0.0
  0
LINE
  5
22F
330
1F
100
AcDbEntity
  8
0
  6
Continuous
 62
     7
370
    15
100
AcDbLine
 10
327.3956127913
 20
329.9180825114
 30
0.0
 11
327.3956127913
 21
324.9180872797
 31
0.0
  0
LINE
  5
230
330
1F
100
AcDbEntity
  8
0
  6
Continuous
 62
     7
370
    15
100
AcDbLine
 10
327.3956127913
 20
324.9180872797
 30
0.0
 11
304.7681920679
 21
324.9180872797
 31
0.0
  0
LINE
  5
231
330
1F
100
AcDbEntity
  8
0
  6
Continuous
 62
     7
370
    15
100
AcDbLine
 10
327.3956127913
 20
329.9180825114
 30
0.0
 11
304.7681920679
 21
329.9180825114
 31
0.0
  0
LINE
  5
232
330
1F
100
AcDbEntity
  8
0
  6
Continuous
 62
     7
370
    15
100
AcDbLine
 10
355.6515001209
 20
324.9180872797
 30
0.0
 11
333.3975099476
 21
324.9180872797
 31
0.0
  0
LINE
  5
233
330
1F
100
AcDbEntity
  8
0
  6
Continuous
 62
     7
370
    15
100
AcDbLine
 10
364.0021518321
 20
329.9180825114
 30
0.0
 11
364.0021518321
 21
329.1488994717
 31
0.0
  0
LINE
  5
234
330
1F
100
AcDbEntity
  8
0
  6
Continuous
 62
     7
370
    15
100
AcDbLine
 10
327.3956127913
 20
324.9180872797
 30
0.0
 11
333.3975099476
 21
324.9180872797
 31
0.0
  0
LINE
  5
235
330
1F
100
AcDbEntity
  8
0
  6
Continuous
 62
     7
370
    15
100
AcDbLine
 10
364.0021518321
 20
329.9180825114
 30
0.0
 11
327.3956127913
 21
329.9180825114
 31
0.0
  0
LINE
  5
236
330
1F
100
AcDbEntity
  8
0
  6
Continuous
 62
     7
370
    15
100
AcDbLine
 10
459.4340384455
 20
329.1488994717
 30
0.0
 11
459.4340384455
 21
329.9180825114
 31
0.0
  0
LINE
  5
237
330
1F
100
AcDbEntity
  8
0
  6
Continuous
 62
     7
370
    15
100
AcDbLine
 10
496.0405774863
 20
329.9180825114
 30
0.0
 11
459.4340384455
 21
329.9180825114
 31
0.0
  0
LINE
  5
238
330
1F
100
AcDbEntity
  8
0
  6
Continuous
 62
     7
370
    15
100
AcDbLine
 10
496.0405774863
 20
329.9180825114
 30
0.0
 11
496.0405774863
 21
324.9180872797
 31
0.0
  0
LINE
  5
239
330
1F
100
AcDbEntity
  8
0
  6
Continuous
 62
     7
370
    15
100
AcDbLine
 10
496.0405774863
 20
324.9180872797
 30
0.0
 11
490.0386803301
 21
324.9180872797
 31
0.0
  0
LINE
  5
23A
330
1F
100
AcDbEntity
  8
0
  6
Continuous
 62
     7
370
    15
100
AcDbLine
 10
490.0386803301
 20
324.9180872797
 30
0.0
 11
467.7846901567
 21
324.9180872797
 31
0.0
  0
LINE
  5
23B
330
1F
100
AcDbEntity
  8
0
  6
Continuous
 62
     7
370
    15
100
AcDbLine
 10
518.6679982097
 20
329.9180825114
 30
0.0
 11
518.6679982097
 21
324.9180872797
 31
0.0
  0
LINE
  5
23C
330
1F
100
AcDbEntity
  8
0
  6
Continuous
 62
     7
370
    15
100
AcDbLine
 10
518.6679982097
 20
324.9180872797
 30
0.0
 11
496.0405774863
 21
324.9180872797
 31
0.0
  0
LINE
  5
23D
330
1F
100
AcDbEntity
  8
0
  6
Continuous
 62
     7
370
    15
100
AcDbLine
 10
518.6679982097
 20
329.9180825114
 30
0.0
 11
496.0405774863
 21
329.9180825114
 31
0.0
  0
LINE
  5
23E
330
1F
100
AcDbEntity
  8
0
  6
Continuous
 62
     7
370
    15
100
AcDbLine
 10
460.3378646524
 20
182.8684617638
 30
0.0
 11
461.6849706025
 21
185.8684617899
 31
0.0
  0
LINE
  5
23F
330
1F
100
AcDbEntity
  8
0
  6
Continuous
 62
     7
370
    15
100
AcDbLine
 10
459.96209462
 20
182.8684617638
 30
0.0
 11
460.3378646524
 21
182.8684617638
 31
0.0
  0
LINE
  5
240
330
1F
100
AcDbEntity
  8
0
  6
Continuous
 62
     7
370
    15
100
AcDbLine
 10
363.0983256252
 20
182.8684617638
 30
0.0
 11
363.4740956576
 21
182.8684617638
 31
0.0
  0
LINE
  5
241
330
1F
100
AcDbEntity
  8
0
  6
Continuous
 62
     7
370
    15
100
AcDbLine
 10
361.7512196751
 20
185.8684617899
 30
0.0
 11
363.0983256252
 21
182.8684617638
 31
0.0
  0
LINE
  5
242
330
1F
100
AcDbEntity
  8
0
  6
Continuous
 62
     7
370
    15
100
AcDbLine
 10
349.6517897101
 20
298.3684648632
 30
0.0
 11
473.7844005676
 21
298.3684648632
 31
0.0
  0
SPLINE
  5
243
330
1F
100
AcDbEntity
  8
0
  6
Continuous
 62
     7
370
    15
100
AcDbSpline
210
0.0
220
0.0
230
1.0
 70
     8
 71
     3
 72
    20
 73
    16
 74
     0
 42
0.00000001
 43
0.00000001
 12
1.0
 22
0.0
 32
0.0
 13
1.0
 23
0.0
 33
0.0
 40
0.0
 40
0.0
 40
0.0
 40
0.0
 40
0.2499999999999975
 40
0.2499999999999975
 40
0.3749999999999979
 40
0.3749999999999979
 40
0.4999999999999983
 40
0.4999999999999983
 40
0.6249999999999988
 40
0.6249999999999988
 40
0.7499999999999991
 40
0.7499999999999991
 40
0.8749999999999996
 40
0.8749999999999996
 40
1.0
 40
1.0
 40
1.0
 40
1.0
 10
349.6517884985582
 20
298.3684617637961
 30
0.0
 10
349.4284613839215
 20
298.3684617637961
 30
0.0
 10
349.2046550606722
 20
298.4287471282915
 30
0.0
 10
348.8992960285086
 20
298.6023746533177
 30
0.0
 10
348.8005508583269
 20
298.6750984734767
 30
0.0
 10
348.6170147628554
 20
298.8453202926762
 30
0.0
 10
348.5324311010374
 20
298.9421474761743
 30
0.0
 10
348.3775310051089
 20
299.1590687931234
 30
0.0
 10
348.3068024633316
 20
299.2804554072889
 30
0.0
 10
348.1857058879718
 20
299.5374639223398
 30
0.0
 10
348.1345638117926
 20
299.6738089665272
 30
0.0
 10
348.0513540542669
 20
299.9623990015039
 30
0.0
 10
348.0197109431077
 20
300.1142426039479
 30
0.0
 10
347.9784287294709
 20
300.4211554875666
 30
0.0
 10
347.9682932954941
 20
300.5777561514294
 30
0.0
 10
347.9690672786921
 20
300.7376218731887
 30
0.0
  0
SPLINE
  5
244
330
1F
100
AcDbEntity
  8
0
  6
Continuous
 62
     7
370
    15
100
AcDbSpline
210
0.0
220
0.0
230
1.0
 70
     8
 71
     3
 72
    20
 73
    16
 74
     0
 42
0.00000001
 43
0.00000001
 12
1.0
 22
0.0
 32
0.0
 13
1.0
 23
0.0
 33
0.0
 40
0.0
 40
0.0
 40
0.0
 40
0.0
 40
0.1250000000000009
 40
0.1250000000000009
 40
0.2500000000000018
 40
0.2500000000000018
 40
0.3750000000000027
 40
0.3750000000000027
 40
0.5000000000000036
 40
0.5000000000000036
 40
0.6250000000000044
 40
0.6250000000000044
 40
0.7500000000000053
 40
0.7500000000000053
 40
1.0
 40
1.0
 40
1.0
 40
1.0
 10
475.4671229989279
 20
300.7376218731887
 30
0.0
 10
475.4678968764347
 20
300.5777779818879
 30
0.0
 10
475.4577642074241
 20
300.421243344877
 30
0.0
 10
475.4165280810289
 20
300.1145370081316
 30
0.0
 10
475.3849551999672
 20
299.9628849732924
 30
0.0
 10
475.301728100045
 20
299.6740883164936
 30
0.0
 10
475.2505826750862
 20
299.5377110394052
 30
0.0
 10
475.1295387005361
 20
299.2807371973083
 30
0.0
 10
475.0588440133247
 20
299.1593584453132
 30
0.0
 10
474.90390344419
 20
298.9423186313555
 30
0.0
 10
474.8192922476528
 20
298.8454395301943
 30
0.0
 10
474.6356854344099
 20
298.6751301874413
 30
0.0
 10
474.537020845012
 20
298.6024573794613
 30
0.0
 10
474.2315837469903
 20
298.4287532513305
 30
0.0
 10
474.0078237842951
 20
298.3684617637961
 30
0.0
 10
473.784401779062
 20
298.3684617637961
 30
0.0
  0
LINE
  5
245
330
1F
100
AcDbEntity
  8
0
  6
Continuous
 62
     7
370
    15
100
AcDbLine
 10
333.3975099476
 20
324.9180872797
 30
0.0
 11
347.0605634601
 21
298.3684648632
 31
0.0
  0
LINE
  5
246
330
1F
100
AcDbEntity
  8
0
  6
Continuous
 62
     7
370
    15
100
AcDbLine
 10
327.7491651924
 20
324.9180872797
 30
0.0
 11
343.3799691947
 21
298.3684648632
 31
0.0
  0
LINE
  5
247
330
1F
100
AcDbEntity
  8
0
  6
Continuous
 62
     7
370
    15
100
AcDbLine
 10
347.0605634601
 20
298.3684648632
 30
0.0
 11
343.3799691947
 21
298.3684648632
 31
0.0
  0
LINE
  5
248
330
1F
100
AcDbEntity
  8
0
  6
Continuous
 62
     7
370
    15
100
AcDbLine
 10
349.6517897101
 20
298.3684648632
 30
0.0
 11
347.0605634601
 21
298.3684648632
 31
0.0
  0
LINE
  5
249
330
1F
100
AcDbEntity
  8
0
  6
Continuous
 62
     7
370
    15
100
AcDbLine
 10
476.3756268175
 20
298.3684648632
 30
0.0
 11
490.0386803301
 21
324.9180872797
 31
0.0
  0
LINE
  5
24A
330
1F
100
AcDbEntity
  8
0
  6
Continuous
 62
     7
370
    15
100
AcDbLine
 10
476.3756268175
 20
298.3684648632
 30
0.0
 11
473.7844005676
 21
298.3684648632
 31
0.0
  0
LINE
  5
24B
330
1F
100
AcDbEntity
  8
0
  6
Continuous
 62
     7
370
    15
100
AcDbLine
 10
480.0562210829
 20
298.3684648632
 30
0.0
 11
495.6870250852
 21
324.9180872797
 31
0.0
  0
LINE
  5
24C
330
1F
100
AcDbEntity
  8
0
  6
Continuous
 62
     7
370
    15
100
AcDbLine
 10
480.0562210829
 20
298.3684648632
 30
0.0
 11
476.3756268175
 21
298.3684648632
 31
0.0
  0
LINE
  5
24D
330
1F
100
AcDbEntity
  8
0
  6
Continuous
 62
     7
370
    15
100
AcDbLine
 10
442.7465539874
 20
182.8684617638
 30
0.0
 11
459.96209462
 21
182.8684617638
 31
0.0
  0
LINE
  5
24E
330
1F
100
AcDbEntity
  8
0
  6
Continuous
 62
     7
370
    15
100
AcDbLine
 10
363.4740956576
 20
182.8684617638
 30
0.0
 11
380.6896362902
 21
182.8684617638
 31
0.0
  0
LINE
  5
24F
330
1F
100
AcDbEntity
  8
0
  6
Continuous
 62
     7
370
    15
100
AcDbLine
 10
316.2180953176
 20
294.2684625148
 30
0.0
 11
323.5027887376
 21
294.2684625148
 31
0.0
  0
LINE
  5
250
330
1F
100
AcDbEntity
  8
0
  6
Continuous
 62
     7
370
    15
100
AcDbLine
 10
335.5027907045
 20
294.2684625148
 30
0.0
 11
487.9192583711
 21
294.2684625148
 31
0.0
  0
LINE
  5
251
330
1F
100
AcDbEntity
  8
0
  6
Continuous
 62
     7
370
    15
100
AcDbLine
 10
499.9192603381
 20
294.2684625148
 30
0.0
 11
507.21809496
 21
294.2684625148
 31
0.0
  0
LINE
  5
252
330
1F
100
AcDbEntity
  8
0
  6
Continuous
 62
     7
370
    15
100
AcDbLine
 10
316.2180953176
 20
295.2684645414
 30
0.0
 11
323.5027887376
 21
295.2684645414
 31
0.0
  0
LINE
  5
253
330
1F
100
AcDbEntity
  8
0
  6
Continuous
 62
     7
370
    15
100
AcDbLine
 10
335.5027907045
 20
295.2684645414
 30
0.0
 11
487.9192583711
 21
295.2684645414
 31
0.0
  0
LINE
  5
254
330
1F
100
AcDbEntity
  8
0
  6
Continuous
 62
     7
370
    15
100
AcDbLine
 10
499.9192603381
 20
295.2684645414
 30
0.0
 11
507.21809496
 21
295.2684645414
 31
0.0
  0
SPLINE
  5
255
330
1F
100
AcDbEntity
  8
0
  6
Continuous
 62
     7
370
    15
100
AcDbSpline
210
0.0
220
0.0
230
1.0
 70
     8
 71
     3
 72
     8
 73
     4
 74
     0
 42
0.00000001
 43
0.00000001
 12
1.0
 22
0.0
 32
0.0
 13
1.0
 23
0.0
 33
0.0
 40
0.0
 40
0.0
 40
0.0
 40
0.0
 40
1.0
 40
1.0
 40
1.0
 40
1.0
 10
346.2399161542705
 20
185.8684617637961
 30
0.0
 10
346.4508946109279
 20
184.8244485890087
 30
0.0
 10
346.5482360013084
 20
183.8202100596231
 30
0.0
 10
346.5082317504442
 20
182.8684617637961
 30
0.0
  0
LINE
  5
256
330
1F
100
AcDbEntity
  8
0
  6
Continuous
 62
     7
370
    15
100
AcDbLine
 10
363.0983256252
 20
182.8684617638
 30
0.0
 11
346.5082295687
 21
182.8684617638
 31
0.0
  0
SPLINE
  5
257
330
1F
100
AcDbEntity
  8
0
  6
Continuous
 62
     7
370
    15
100
AcDbSpline
210
0.0
220
0.0
230
1.0
 70
     8
 71
     3
 72
     8
 73
     4
 74
     0
 42
0.00000001
 43
0.00000001
 12
1.0
 22
0.0
 32
0.0
 13
1.0
 23
0.0
 33
0.0
 40
0.0
 40
0.0
 40
0.0
 40
0.0
 40
1.0
 40
1.0
 40
1.0
 40
1.0
 10
476.9279585271705
 20
182.8684617637961
 30
0.0
 10
476.8879542763062
 20
183.8202100596231
 30
0.0
 10
476.9852956666867
 20
184.8244485890087
 30
0.0
 10
477.1962741233442
 20
185.8684617637961
 30
0.0
  0
LINE
  5
258
330
1F
100
AcDbEntity
  8
0
  6
Continuous
 62
     7
370
    15
100
AcDbLine
 10
476.9279607089
 20
182.8684617638
 30
0.0
 11
460.3378646524
 21
182.8684617638
 31
0.0
  0
LINE
  5
259
330
1F
100
AcDbEntity
  8
0
  6
Continuous
 62
     7
370
    15
100
AcDbLine
 10
485.433975652
 20
332.4180950283
 30
0.0
 11
481.919261113
 21
332.4180950283
 31
0.0
  0
LINE
  5
25A
330
1F
100
AcDbEntity
  8
0
  6
Continuous
 62
     7
370
    15
100
AcDbLine
 10
505.9192575963
 20
332.4180950283
 30
0.0
 11
485.433975652
 21
332.4180950283
 31
0.0
  0
LINE
  5
25B
330
1F
100
AcDbEntity
  8
0
  6
Continuous
 62
     7
370
    15
100
AcDbLine
 10
341.5027879627
 20
332.4180950283
 30
0.0
 11
317.5027914794
 21
332.4180950283
 31
0.0
  0
LINE
  5
25C
330
1F
100
AcDbEntity
  8
0
  6
Continuous
 62
     7
370
    15
100
AcDbLine
 10
486.1625381263
 20
342.4180854916
 30
0.0
 11
486.1625381263
 21
332.4180950283
 31
0.0
  0
LINE
  5
25D
330
1F
100
AcDbEntity
  8
0
  6
Continuous
 62
     7
370
    15
100
AcDbLine
 10
496.7584111245
 20
342.4180854916
 30
0.0
 11
496.7584111245
 21
332.4180950283
 31
0.0
  0
LINE
  5
25E
330
1F
100
AcDbEntity
  8
0
  6
Continuous
 62
     7
370
    15
100
AcDbLine
 10
486.1625381263
 20
342.4180854916
 30
0.0
 11
496.7584111245
 21
342.4180854916
 31
0.0
  0
LINE
  5
25F
330
1F
100
AcDbEntity
  8
0
  6
Continuous
 62
     7
370
    15
100
AcDbLine
 10
504.5151286276
 20
342.4180854916
 30
0.0
 11
504.5151286276
 21
332.4180950283
 31
0.0
  0
LINE
  5
260
330
1F
100
AcDbEntity
  8
0
  6
Continuous
 62
     7
370
    15
100
AcDbLine
 10
496.7584111245
 20
342.4180854916
 30
0.0
 11
504.5151286276
 21
342.4180854916
 31
0.0
  0
LINE
  5
261
330
1F
100
AcDbEntity
  8
0
  6
Continuous
 62
     7
370
    15
100
AcDbLine
 10
318.9069129975
 20
342.4180854916
 30
0.0
 11
318.9069129975
 21
332.4180950283
 31
0.0
  0
LINE
  5
262
330
1F
100
AcDbEntity
  8
0
  6
Continuous
 62
     7
370
    15
100
AcDbLine
 10
326.6636305006
 20
342.4180854916
 30
0.0
 11
326.6636305006
 21
332.4180950283
 31
0.0
  0
LINE
  5
263
330
1F
100
AcDbEntity
  8
0
  6
Continuous
 62
     7
370
    15
100
AcDbLine
 10
318.9069129975
 20
342.4180854916
 30
0.0
 11
326.6636305006
 21
342.4180854916
 31
0.0
  0
LINE
  5
264
330
1F
100
AcDbEntity
  8
0
  6
Continuous
 62
     7
370
    15
100
AcDbLine
 10
337.2595034988
 20
342.4180854916
 30
0.0
 11
337.2595034988
 21
332.4180950283
 31
0.0
  0
LINE
  5
265
330
1F
100
AcDbEntity
  8
0
  6
Continuous
 62
     7
370
    15
100
AcDbLine
 10
326.6636305006
 20
342.4180854916
 30
0.0
 11
337.2595034988
 21
342.4180854916
 31
0.0
  0
LINE
  5
266
330
1F
100
AcDbEntity
  8
0
  6
Continuous
 62
     7
370
    15
100
AcDbLine
 10
484.550090924
 20
205.7180904656
 30
0.0
 11
493.9192556293
 21
205.7180904656
 31
0.0
  0
LINE
  5
267
330
1F
100
AcDbEntity
  8
0
  6
Continuous
 62
     7
370
    15
100
AcDbLine
 10
493.9192556293
 20
205.7180904656
 30
0.0
 11
493.9192556293
 21
202.8870598286
 31
0.0
  0
LINE
  5
268
330
1F
100
AcDbEntity
  8
0
  6
Continuous
 62
     7
370
    15
100
AcDbLine
 10
484.550090924
 20
205.7180904656
 30
0.0
 11
484.550090924
 21
203.5803307652
 31
0.0
  0
LINE
  5
269
330
1F
100
AcDbEntity
  8
0
  6
Continuous
 62
     7
370
    15
100
AcDbLine
 10
503.2884203346
 20
205.7180904656
 30
0.0
 11
503.2884203346
 21
202.8871157079
 31
0.0
  0
LINE
  5
26A
330
1F
100
AcDbEntity
  8
0
  6
Continuous
 62
     7
370
    15
100
AcDbLine
 10
493.9192556293
 20
205.7180904656
 30
0.0
 11
503.2884203346
 21
205.7180904656
 31
0.0
  0
LINE
  5
26B
330
1F
100
AcDbEntity
  8
0
  6
Continuous
 62
     7
370
    15
100
AcDbLine
 10
320.1336212905
 20
205.7180904656
 30
0.0
 11
329.5027859957
 21
205.7180904656
 31
0.0
  0
LINE
  5
26C
330
1F
100
AcDbEntity
  8
0
  6
Continuous
 62
     7
370
    15
100
AcDbLine
 10
329.5027859957
 20
205.7180904656
 30
0.0
 11
329.5027859957
 21
202.8871157079
 31
0.0
  0
LINE
  5
26D
330
1F
100
AcDbEntity
  8
0
  6
Continuous
 62
     7
370
    15
100
AcDbLine
 10
320.1336212905
 20
205.7180904656
 30
0.0
 11
320.1336212905
 21
202.8870598286
 31
0.0
  0
LINE
  5
26E
330
1F
100
AcDbEntity
  8
0
  6
Continuous
 62
     7
370
    15
100
AcDbLine
 10
338.8719581516
 20
205.7180904656
 30
0.0
 11
338.8719581516
 21
203.5803940951
 31
0.0
  0
LINE
  5
26F
330
1F
100
AcDbEntity
  8
0
  6
Continuous
 62
     7
370
    15
100
AcDbLine
 10
329.5027859957
 20
205.7180904656
 30
0.0
 11
338.8719581516
 21
205.7180904656
 31
0.0
  0
LINE
  5
270
330
1F
100
AcDbEntity
  8
0
  6
Continuous
 62
     7
370
    15
100
AcDbLine
 10
323.454017237
 20
226.7980796158
 30
0.0
 11
323.5027887376
 21
226.7980796158
 31
0.0
  0
LINE
  5
271
330
1F
100
AcDbEntity
  8
0
  6
Continuous
 62
     7
370
    15
100
AcDbLine
 10
335.5027907045
 20
226.7980796158
 30
0.0
 11
342.0202456863
 21
226.7980796158
 31
0.0
  0
SPLINE
  5
272
330
1F
100
AcDbEntity
  8
0
  6
Continuous
 62
     7
370
    15
100
AcDbSpline
210
0.0
220
0.0
230
1.0
 70
     8
 71
     3
 72
    32
 73
    28
 74
     0
 42
0.00000001
 43
0.00000001
 12
1.0
 22
0.0
 32
0.0
 13
1.0
 23
0.0
 33
0.0
 40
0.0
 40
0.0
 40
0.0
 40
0.0
 40
0.0795886276050128
 40
0.1591763998271326
 40
0.2388346492534755
 40
0.3184915046419849
 40
0.3729109569261983
 40
0.4273296658039136
 40
0.481822598966231
 40
0.5363140469347804
 40
0.5738778453519977
 40
0.6114408818547452
 40
0.6490867906778965
 40
0.6867309574281649
 40
0.7248328999438551
 40
0.7629300930828832
 40
0.8014392545195588
 40
0.8399308956399556
 40
0.8714043351206955
 40
0.88729846210324
 40
0.9031897085349958
 40
0.918974981185456
 40
0.9347546924395229
 40
0.9511068183484078
 40
0.9674487313343775
 40
0.9835691759209345
 40
1.0
 40
1.0
 40
1.0
 40
1.0
 10
323.4540172369699
 20
226.7980796157686
 30
0.0
 10
323.3932335606787
 20
226.1790624522775
 30
0.0
 10
323.2716668613722
 20
224.9410347782144
 30
0.0
 10
323.0896541683498
 20
223.0909264007112
 30
0.0
 10
322.9080268802884
 20
221.2472214766872
 30
0.0
 10
322.7461227788322
 20
219.6060467665775
 30
0.0
 10
322.6038977298783
 20
218.1662713689427
 30
0.0
 10
322.4812045110572
 20
216.925209878943
 30
0.0
 10
322.359094360102
 20
215.6913673196992
 30
0.0
 10
322.2503495830656
 20
214.5935785856929
 30
0.0
 10
322.1548994617278
 20
213.6308244951573
 30
0.0
 10
322.0725124172551
 20
212.8002976264168
 30
0.0
 10
321.9908425547565
 20
211.97767544201
 30
0.0
 10
321.9098217521021
 20
211.1619833941764
 30
0.0
 10
321.8297710093637
 20
210.356559172231
 30
0.0
 10
321.7509102406751
 20
209.5636102064562
 30
0.0
 10
321.6741414404221
 20
208.7923002820948
 30
0.0
 10
321.6051668190051
 20
208.0995187558638
 30
0.0
 10
321.5540903861348
 20
207.5868938128409
 30
0.0
 10
321.5191131452735
 20
207.2358547046258
 30
0.0
 10
321.4944444157239
 20
206.9884524995994
 30
0.0
 10
321.4718657619297
 20
206.761941179755
 30
0.0
 10
321.4516105226883
 20
206.5587503505529
 30
0.0
 10
321.4343358977181
 20
206.3856247989149
 30
0.0
 10
321.4211434768025
 20
206.2532258039463
 30
0.0
 10
321.4123901975782
 20
206.1655569071483
 30
0.0
 10
321.4112738868528
 20
206.1543648067376
 30
0.0
 10
321.4107104094247
 20
206.1487153976528
 30
0.0
  0
SPLINE
  5
273
330
1F
100
AcDbEntity
  8
0
  6
Continuous
 62
     7
370
    15
100
AcDbSpline
210
0.0
220
0.0
230
1.0
 70
     8
 71
     3
 72
    31
 73
    27
 74
     0
 42
0.00000001
 43
0.00000001
 12
1.0
 22
0.0
 32
0.0
 13
1.0
 23
0.0
 33
0.0
 40
0.0
 40
0.0
 40
0.0
 40
0.0
 40
0.0061028746018596
 40
0.0167241348839072
 40
0.0277296365507346
 40
0.0387370809244051
 40
0.0518544521210916
 40
0.0649759611392554
 40
0.0784636307463207
 40
0.0919544473666413
 40
0.1155354197018126
 40
0.1391297736946768
 40
0.1632527928072026
 40
0.1873809678063636
 40
0.2269084066711466
 40
0.2664911851953922
 40
0.3061120131180712
 40
0.3456914566048178
 40
0.3996322859394245
 40
0.4535917473488172
 40
0.5075441195753818
 40
0.5894506766850294
 40
0.6713764411948961
 40
0.7532951865996208
 40
0.8766452984653161
 40
1.0
 40
1.0
 40
1.0
 40
1.0
 10
502.0251818449716
 20
206.1516993551819
 30
0.0
 10
502.0252167781354
 20
206.1513309819242
 30
0.0
 10
502.0253125079319
 20
206.1503215028754
 30
0.0
 10
502.022774776276
 20
206.1757901563665
 30
0.0
 10
502.0177536305416
 20
206.22613102195
 30
0.0
 10
502.009777663748
 20
206.3061100307953
 30
0.0
 10
501.9987364380052
 20
206.416769213867
 30
0.0
 10
501.9843997688398
 20
206.5606747782848
 30
0.0
 10
501.9676631151737
 20
206.7283862684785
 30
0.0
 10
501.9442066613904
 20
206.9636778330606
 30
0.0
 10
501.9128393821894
 20
207.2784641226395
 30
0.0
 10
501.8724334305134
 20
207.6838763171515
 30
0.0
 10
501.8291173303522
 20
208.1186980154824
 30
0.0
 10
501.7736960625134
 20
208.6752521301292
 30
0.0
 10
501.7057291404168
 20
209.3581264260411
 30
0.0
 10
501.6246658481034
 20
210.1730516991507
 30
0.0
 10
501.5414133783567
 20
211.0106146562199
 30
0.0
 10
501.4464059336443
 20
211.9668862312205
 30
0.0
 10
501.3396261579077
 20
213.0427080889895
 30
0.0
 10
501.2208262933912
 20
214.2405578244935
 30
0.0
 10
501.0801615664922
 20
215.660369179194
 30
0.0
 10
500.9173409370397
 20
217.3055449512643
 30
0.0
 10
500.7322241982245
 20
219.1789700457605
 30
0.0
 10
500.5147165008104
 20
221.3833421525227
 30
0.0
 10
500.264763014524
 20
223.9209108819607
 30
0.0
 10
500.0763708668837
 20
225.8390114764557
 30
0.0
 10
499.9821730406503
 20
226.7980796157686
 30
0.0
  0
LINE
  5
274
330
1F
100
AcDbEntity
  8
0
  6
Continuous
 62
     7
370
    15
100
AcDbLine
 10
481.4159445913
 20
226.7980796158
 30
0.0
 11
487.9192583711
 21
226.7980796158
 31
0.0
  0
LINE
  5
275
330
1F
100
AcDbEntity
  8
0
  6
Continuous
 62
     7
370
    15
100
AcDbLine
 10
499.9192603381
 20
226.7980796158
 30
0.0
 11
499.9821730407
 21
226.7980796158
 31
0.0
  0
SPLINE
  5
276
330
1F
100
AcDbEntity
  8
0
  6
Continuous
 62
     7
370
    15
100
AcDbSpline
210
0.0
220
0.0
230
1.0
 70
     8
 71
     3
 72
    12
 73
     8
 74
     0
 42
0.00000001
 43
0.00000001
 12
1.0
 22
0.0
 32
0.0
 13
1.0
 23
0.0
 33
0.0
 40
0.0
 40
0.0
 40
0.0
 40
0.0
 40
0.2701589804757679
 40
0.5403343818233255
 40
0.8104671316463768
 40
0.9952350036687138
 40
1.0
 40
1.0
 40
1.0
 40
1.0
 10
481.4159445913057
 20
226.7980796157687
 30
0.0
 10
481.3317952556187
 20
225.9725732714753
 30
0.0
 10
481.1634914694585
 20
224.3215104067521
 30
0.0
 10
480.8725560228994
 20
221.8582653531821
 30
0.0
 10
480.572383533672
 20
219.6702055957718
 30
0.0
 10
480.3703261191433
 20
218.2875630316445
 30
0.0
 10
480.2736020477797
 20
217.723502143974
 30
0.0
 10
480.2711703331689
 20
217.7093212365477
 30
0.0
  0
ELLIPSE
  5
277
330
1F
100
AcDbEntity
  8
0
  6
Continuous
 62
     7
370
    15
100
AcDbEllipse
 10
415.972797994
 20
309.2829575808
 30
0.0
 11
-76.10564574016406
 21
80.09999409227667
 31
0.0
210
0.0
220
0.0
230
1.0
 40
0.4130611018
 41
2.737430934752085
 42
2.797770168083552
  0
LINE
  5
278
330
1F
100
AcDbEntity
  8
0
  6
Continuous
 62
     7
370
    15
100
AcDbLine
 10
473.7252764852
 20
207.3120322883
 30
0.0
 11
472.935708657
 21
223.2741710603
 31
0.0
  0
SPLINE
  5
279
330
1F
100
AcDbEntity
  8
0
  6
Continuous
 62
     7
370
    15
100
AcDbSpline
210
0.0
220
0.0
230
1.0
 70
     8
 71
     3
 72
    20
 73
    16
 74
     0
 42
0.00000001
 43
0.00000001
 12
1.0
 22
0.0
 32
0.0
 13
1.0
 23
0.0
 33
0.0
 40
0.0
 40
0.0
 40
0.0
 40
0.0
 40
0.0625
 40
0.0625
 40
0.1249999999999999
 40
0.1249999999999999
 40
0.2500000000000003
 40
0.2500000000000003
 40
0.3750000000000007
 40
0.3750000000000007
 40
0.5000000000000011
 40
0.5000000000000011
 40
0.7500000000000006
 40
0.7500000000000006
 40
1.0
 40
1.0
 40
1.0
 40
1.0
 10
473.7252749436071
 20
207.3120316458963
 30
0.0
 10
473.4737464545085
 20
207.6157072377424
 30
0.0
 10
473.2421512265251
 20
207.9485454165128
 30
0.0
 10
472.8032468604349
 20
208.6497355765917
 30
0.0
 10
472.596995947084
 20
209.0174072008263
 30
0.0
 10
472.0133286915726
 20
210.1374147493673
 30
0.0
 10
471.6653548953846
 20
210.9139882812045
 30
0.0
 10
471.01277131072
 20
212.4986209701449
 30
0.0
 10
470.7090924081932
 20
213.3073575074106
 30
0.0
 10
470.1309040561702
 20
214.9459846758465
 30
0.0
 10
469.8563804462541
 20
215.7768890249299
 30
0.0
 10
469.068087960011
 20
218.2813487708022
 30
0.0
 10
468.5875581066454
 20
219.9697812894589
 30
0.0
 10
467.6795042416934
 20
223.3687247331165
 30
0.0
 10
467.252686306441
 20
225.079531611922
 30
0.0
 10
466.8445015854788
 20
226.7980782543626
 30
0.0
  0
LINE
  5
27A
330
1F
100
AcDbEntity
  8
0
  6
Continuous
 62
     7
370
    15
100
AcDbLine
 10
422.0216613711
 20
226.7980796158
 30
0.0
 11
466.8445013912
 21
226.7980796158
 31
0.0
  0
SPLINE
  5
27B
330
1F
100
AcDbEntity
  8
0
  6
Continuous
 62
     7
370
    15
100
AcDbSpline
210
0.0
220
0.0
230
1.0
 70
     8
 71
     3
 72
    46
 73
    42
 74
     0
 42
0.00000001
 43
0.00000001
 12
1.0
 22
0.0
 32
0.0
 13
1.0
 23
0.0
 33
0.0
 40
0.0
 40
0.0
 40
0.0
 40
0.0
 40
0.1249999999999998
 40
0.1249999999999998
 40
0.2499999999999996
 40
0.2499999999999996
 40
0.3124999999999996
 40
0.3124999999999996
 40
0.3749999999999996
 40
0.3749999999999996
 40
0.4062499999999996
 40
0.4062499999999996
 40
0.4374999999999996
 40
0.4374999999999996
 40
0.4687499999999995
 40
0.4687499999999995
 40
0.4843749999999994
 40
0.4843749999999994
 40
0.4921874999999993
 40
0.4921874999999993
 40
0.4999999999999993
 40
0.4999999999999993
 40
0.5156249999999992
 40
0.5156249999999992
 40
0.5312499999999991
 40
0.5312499999999991
 40
0.5468749999999989
 40
0.5468749999999989
 40
0.5624999999999988
 40
0.5624999999999988
 40
0.5937499999999988
 40
0.5937499999999988
 40
0.6249999999999987
 40
0.6249999999999987
 40
0.6874999999999989
 40
0.6874999999999989
 40
0.7499999999999991
 40
0.7499999999999991
 40
0.8749999999999996
 40
0.8749999999999996
 40
1.0
 40
1.0
 40
1.0
 40
1.0
 10
422.0216610885338
 20
226.7980782543616
 30
0.0
 10
421.5573636586839
 20
224.8451588458552
 30
0.0
 10
421.0586336862934
 20
222.9014071579462
 30
0.0
 10
419.9532335740588
 20
219.042590731694
 30
0.0
 10
419.3488397786205
 20
217.1269769961393
 30
0.0
 10
418.2962745769303
 20
214.3052871924312
 30
0.0
 10
417.9205831387607
 20
213.3732817837553
 30
0.0
 10
417.0934773348114
 20
211.5442156995777
 30
0.0
 10
416.6418738254131
 20
210.6434642964055
 30
0.0
 10
415.8679224601684
 20
209.3559542525535
 30
0.0
 10
415.5934574536842
 20
208.9371206496005
 30
0.0
 10
414.9931552345671
 20
208.1316690188109
 30
0.0
 10
414.6664294461995
 20
207.7435525119232
 30
0.0
 10
413.9421987538337
 20
207.0442158833814
 30
0.0
 10
413.5396241420509
 20
206.7286100876633
 30
0.0
 10
412.8726506550041
 20
206.3870932010131
 30
0.0
 10
412.6363212553675
 20
206.293910763157
 30
0.0
 10
412.2653149542539
 20
206.2014585064137
 30
0.0
 10
412.1402897785887
 20
206.1788247629672
 30
0.0
 10
411.8873402824014
 20
206.1510487771571
 30
0.0
 10
411.7587223622453
 20
206.1460355788732
 30
0.0
 10
411.3791514118698
 20
206.1581414023633
 30
0.0
 10
411.1314702491714
 20
206.2016263911064
 30
0.0
 10
410.6456180715292
 20
206.3513598653899
 30
0.0
 10
410.4136466793508
 20
206.4558943070261
 30
0.0
 10
409.9761931371356
 20
206.7037749458362
 30
0.0
 10
409.767510503543
 20
206.8488585488977
 30
0.0
 10
409.3726340402677
 20
207.1650071090094
 30
0.0
 10
409.1876442985952
 20
207.3347597229471
 30
0.0
 10
408.6592865767516
 20
207.8689832590013
 30
0.0
 10
408.3413637527115
 20
208.2588831160442
 30
0.0
 10
407.7502406007784
 20
209.074039672502
 30
0.0
 10
407.4809283000418
 20
209.4944658602172
 30
0.0
 10
406.7227154226003
 20
210.7800851692406
 30
0.0
 10
406.2825825254342
 20
211.6691510484086
 30
0.0
 10
405.4710578598026
 20
213.4809435779252
 30
0.0
 10
405.1011528252315
 20
214.40439777991
 30
0.0
 10
404.0607315307361
 20
217.2087034486386
 30
0.0
 10
403.4633910009146
 20
219.1075144711445
 30
0.0
 10
402.3695682967015
 20
222.9327572114879
 30
0.0
 10
401.8751704407809
 20
224.8605373959511
 30
0.0
 10
401.4145291890881
 20
226.7980782543626
 30
0.0
  0
LINE
  5
27C
330
1F
100
AcDbEntity
  8
0
  6
Continuous
 62
     7
370
    15
100
AcDbLine
 10
356.5916888864
 20
226.7980796158
 30
0.0
 11
401.4145289065
 21
226.7980796158
 31
0.0
  0
SPLINE
  5
27D
330
1F
100
AcDbEntity
  8
0
  6
Continuous
 62
     7
370
    15
100
AcDbSpline
210
0.0
220
0.0
230
1.0
 70
     8
 71
     3
 72
    20
 73
    16
 74
     0
 42
0.00000001
 43
0.00000001
 12
1.0
 22
0.0
 32
0.0
 13
1.0
 23
0.0
 33
0.0
 40
0.0
 40
0.0
 40
0.0
 40
0.0
 40
0.25
 40
0.25
 40
0.5
 40
0.5
 40
0.6249999999999996
 40
0.6249999999999996
 40
0.7499999999999996
 40
0.7499999999999996
 40
0.8749999999999996
 40
0.8749999999999996
 40
0.9374999999999998
 40
0.9374999999999998
 40
1.0
 40
1.0
 40
1.0
 40
1.0
 10
356.5916886921431
 20
226.7980782543614
 30
0.0
 10
356.18353612541
 20
225.0796669882334
 30
0.0
 10
355.7566224888523
 20
223.3684155547117
 30
0.0
 10
354.8478536808389
 20
219.966938697964
 30
0.0
 10
354.3663824845755
 20
218.2755607247326
 30
0.0
 10
353.5783769427109
 20
215.7724993554546
 30
0.0
 10
353.3043802358644
 20
214.9432506081036
 30
0.0
 10
352.7253035581419
 20
213.3024395184884
 30
0.0
 10
352.4208241607371
 20
212.4916939157609
 30
0.0
 10
351.7650282893839
 20
210.9005215424483
 30
0.0
 10
351.4147188552358
 20
210.1205024632195
 30
0.0
 10
350.8332691652283
 20
209.0066975945088
 30
0.0
 10
350.6298180404928
 20
208.6445322594798
 30
0.0
 10
350.1935436836282
 20
207.9479660132991
 30
0.0
 10
349.9613316924703
 20
207.614364539217
 30
0.0
 10
349.7109153340119
 20
207.3120316458927
 30
0.0
  0
LINE
  5
27E
330
1F
100
AcDbEntity
  8
0
  6
Continuous
 62
     7
370
    15
100
AcDbLine
 10
349.7109137924
 20
207.3120322883
 30
0.0
 11
350.5004816206
 21
223.2741710603
 31
0.0
  0
ELLIPSE
  5
27F
330
1F
100
AcDbEntity
  8
0
  6
Continuous
 62
     7
370
    15
100
AcDbEllipse
 10
407.4633922836
 20
309.2829575808
 30
0.0
 11
76.10564574016439
 21
80.09999409227696
 31
0.0
210
0.0
220
0.0
230
1.0
 40
0.4130611018
 41
3.485415139096059
 42
3.545754372427525
  0
SPLINE
  5
280
330
1F
100
AcDbEntity
  8
0
  6
Continuous
 62
     7
370
    15
100
AcDbSpline
210
0.0
220
0.0
230
1.0
 70
     8
 71
     3
 72
    11
 73
     7
 74
     0
 42
0.00000001
 43
0.00000001
 12
1.0
 22
0.0
 32
0.0
 13
1.0
 23
0.0
 33
0.0
 40
0.0
 40
0.0
 40
0.0
 40
0.0
 40
0.1635328529963649
 40
0.3720460232216103
 40
0.6860172499419841
 40
1.0
 40
1.0
 40
1.0
 40
1.0
 10
343.1671061070184
 20
217.712383425173
 30
0.0
 10
343.0888369634652
 20
218.2013086666061
 30
0.0
 10
342.9107704583784
 20
219.313639848964
 30
0.0
 10
342.6273240728589
 20
221.3838136727906
 30
0.0
 10
342.3145991353353
 20
223.9207729985565
 30
0.0
 10
342.1183647029952
 20
225.8389656766969
 30
0.0
 10
342.0202456863145
 20
226.7980796157686
 30
0.0
  0
LINE
  5
281
330
1F
100
AcDbEntity
  8
0
  6
Continuous
 62
     7
370
    15
100
AcDbLine
 10
488.2624023111
 20
355.4180969357
 30
0.0
 11
485.9192617686
 21
355.4180969357
 31
0.0
  0
LINE
  5
282
330
1F
100
AcDbEntity
  8
0
  6
Continuous
 62
     7
370
    15
100
AcDbLine
 10
501.9192569406
 20
355.4180969357
 30
0.0
 11
488.2624023111
 21
355.4180969357
 31
0.0
  0
LINE
  5
283
330
1F
100
AcDbEntity
  8
0
  6
Continuous
 62
     7
370
    15
100
AcDbLine
 10
488.2624023111
 20
354.9180884718
 30
0.0
 11
485.9192617686
 21
354.9180884718
 31
0.0
  0
LINE
  5
284
330
1F
100
AcDbEntity
  8
0
  6
Continuous
 62
     7
370
    15
100
AcDbLine
 10
501.9192569406
 20
354.9180884718
 30
0.0
 11
488.2624023111
 21
354.9180884718
 31
0.0
  0
LINE
  5
285
330
1F
100
AcDbEntity
  8
0
  6
Continuous
 62
     7
370
    15
100
AcDbLine
 10
337.502787307
 20
355.4180969357
 30
0.0
 11
321.502792135
 21
355.4180969357
 31
0.0
  0
LINE
  5
286
330
1F
100
AcDbEntity
  8
0
  6
Continuous
 62
     7
370
    15
100
AcDbLine
 10
337.502787307
 20
354.9180884718
 30
0.0
 11
321.502792135
 21
354.9180884718
 31
0.0
  0
LINE
  5
287
330
1F
100
AcDbEntity
  8
0
  6
Continuous
 62
     7
370
    15
100
AcDbLine
 10
483.3233826311
 20
342.4180854916
 30
0.0
 11
483.3233826311
 21
332.4180950283
 31
0.0
  0
LINE
  5
288
330
1F
100
AcDbEntity
  8
0
  6
Continuous
 62
     7
370
    15
100
AcDbLine
 10
483.3233826311
 20
342.4180854916
 30
0.0
 11
486.1625381263
 21
342.4180854916
 31
0.0
  0
LINE
  5
289
330
1F
100
AcDbEntity
  8
0
  6
Continuous
 62
     7
370
    15
100
AcDbLine
 10
340.0986664446
 20
342.4180854916
 30
0.0
 11
340.0986664446
 21
332.4180950283
 31
0.0
  0
LINE
  5
28A
330
1F
100
AcDbEntity
  8
0
  6
Continuous
 62
     7
370
    15
100
AcDbLine
 10
337.2595034988
 20
342.4180854916
 30
0.0
 11
340.0986664446
 21
342.4180854916
 31
0.0
  0
SPLINE
  5
28B
330
1F
100
AcDbEntity
  8
0
  6
Continuous
 62
     7
370
    15
100
AcDbSpline
210
0.0
220
0.0
230
1.0
 70
     8
 71
     3
 72
     8
 73
     4
 74
     0
 42
0.00000001
 43
0.00000001
 12
1.0
 22
0.0
 32
0.0
 13
1.0
 23
0.0
 33
0.0
 40
0.0
 40
0.0
 40
0.0
 40
0.0
 40
1.0
 40
1.0
 40
1.0
 40
1.0
 10
496.9756934915004
 20
185.8684617637961
 30
0.0
 10
495.8213455736102
 20
184.8244485890087
 30
0.0
 10
494.6253854763742
 20
183.8202100596231
 30
0.0
 10
493.3754506976985
 20
182.8684617637961
 30
0.0
  0
LINE
  5
28C
330
1F
100
AcDbEntity
  8
0
  6
Continuous
 62
     7
370
    15
100
AcDbLine
 10
499.9755867274
 20
189.8684619799
 30
0.0
 11
499.6801414044
 21
185.8684617899
 31
0.0
  0
LINE
  5
28D
330
1F
100
AcDbEntity
  8
0
  6
Continuous
 62
     7
370
    15
100
AcDbLine
 10
499.6801414044
 20
185.8684617899
 30
0.0
 11
496.9756924064
 21
185.8684617899
 31
0.0
  0
LINE
  5
28E
330
1F
100
AcDbEntity
  8
0
  6
Continuous
 62
     7
370
    15
100
AcDbLine
 10
476.9279607089
 20
182.8684617638
 30
0.0
 11
493.3754526527
 21
182.8684617638
 31
0.0
  0
SPLINE
  5
28F
330
1F
100
AcDbEntity
  8
0
  6
Continuous
 62
     7
370
    15
100
AcDbSpline
210
0.0
220
0.0
230
1.0
 70
     8
 71
     3
 72
     8
 73
     4
 74
     0
 42
0.00000001
 43
0.00000001
 12
1.0
 22
0.0
 32
0.0
 13
1.0
 23
0.0
 33
0.0
 40
0.0
 40
0.0
 40
0.0
 40
0.0
 40
1.0
 40
1.0
 40
1.0
 40
1.0
 10
330.0607395799145
 20
182.868461763796
 30
0.0
 10
328.8108048012389
 20
183.8202100596231
 30
0.0
 10
327.6148447040028
 20
184.8244485890087
 30
0.0
 10
326.4604967861125
 20
185.8684617637961
 30
0.0
  0
LINE
  5
290
330
1F
100
AcDbEntity
  8
0
  6
Continuous
 62
     7
370
    15
100
AcDbLine
 10
326.4604978712
 20
185.8684617899
 30
0.0
 11
323.7560488732
 21
185.8684617899
 31
0.0
  0
LINE
  5
291
330
1F
100
AcDbEntity
  8
0
  6
Continuous
 62
     7
370
    15
100
AcDbLine
 10
323.4606035502
 20
189.8684619799
 30
0.0
 11
323.7560488732
 21
185.8684617899
 31
0.0
  0
LINE
  5
292
330
1F
100
AcDbEntity
  8
0
  6
Continuous
 62
     7
370
    15
100
AcDbLine
 10
330.0607376249
 20
182.8684617638
 30
0.0
 11
346.5082295687
 21
182.8684617638
 31
0.0
  0
LINE
  5
293
330
1F
100
AcDbEntity
  8
0
  6
Continuous
 62
     7
370
    15
100
AcDbLine
 10
489.3230669649
 20
366.9180829882
 30
0.0
 11
487.4192573579
 21
366.9180829882
 31
0.0
  0
LINE
  5
294
330
1F
100
AcDbEntity
  8
0
  6
Continuous
 62
     7
370
    15
100
AcDbLine
 10
500.4192613514
 20
366.9180829882
 30
0.0
 11
489.3230669649
 21
366.9180829882
 31
0.0
  0
LINE
  5
295
330
1F
100
AcDbEntity
  8
0
  6
Continuous
 62
     7
370
    15
100
AcDbLine
 10
336.0027917178
 20
366.9180829882
 30
0.0
 11
323.0027877243
 21
366.9180829882
 31
0.0
  0
LINE
  5
296
330
1F
100
AcDbEntity
  8
0
  6
Continuous
 62
     7
370
    15
100
AcDbLine
 10
340.0986664446
 20
332.918088591
 30
0.0
 11
483.3233826311
 21
332.918088591
 31
0.0
  0
LINE
  5
297
330
1F
100
AcDbEntity
  8
0
  6
Continuous
 62
     7
370
    15
100
AcDbLine
 10
323.5027887376
 20
311.1519773363
 30
0.0
 11
316.4184339793
 21
324.9180872797
 31
0.0
  0
LINE
  5
298
330
1F
100
AcDbEntity
  8
0
  6
Continuous
 62
     7
370
    15
100
AcDbLine
 10
507.0177562983
 20
324.9180872797
 30
0.0
 11
499.9192603381
 21
311.1244995951
 31
0.0
  0
LINE
  5
299
330
1F
100
AcDbEntity
  8
0
  6
Continuous
 62
     7
370
    15
100
AcDbLine
 10
323.5027887376
 20
303.2910187601
 30
0.0
 11
310.7700892241
 21
324.9180872797
 31
0.0
  0
LINE
  5
29A
330
1F
100
AcDbEntity
  8
0
  6
Continuous
 62
     7
370
    15
100
AcDbLine
 10
512.6661010535
 20
324.9180872797
 30
0.0
 11
499.9192603381
 21
303.2669980883
 31
0.0
  0
LINE
  5
29B
330
1F
100
AcDbEntity
  8
0
  6
Continuous
 62
     7
370
    15
100
AcDbLine
 10
335.5027907045
 20
298.3684648632
 30
0.0
 11
343.3799691947
 21
298.3684648632
 31
0.0
  0
LINE
  5
29C
330
1F
100
AcDbEntity
  8
0
  6
Continuous
 62
     7
370
    15
100
AcDbLine
 10
480.0562210829
 20
298.3684648632
 30
0.0
 11
487.9192583711
 21
298.3684648632
 31
0.0
  0
LINE
  5
29D
330
1F
100
AcDbEntity
  8
0
  6
Continuous
 62
     7
370
    15
100
AcDbLine
 10
484.923789695
 20
205.7180904656
 30
0.0
 11
472.935708657
 21
223.2741710603
 31
0.0
  0
LINE
  5
29E
330
1F
100
AcDbEntity
  8
0
  6
Continuous
 62
     7
370
    15
100
AcDbLine
 10
487.9192583711
 20
206.5089975356
 30
0.0
 11
476.4712401183
 21
223.2741710603
 31
0.0
  0
LINE
  5
29F
330
1F
100
AcDbEntity
  8
0
  6
Continuous
 62
     7
370
    15
100
AcDbLine
 10
473.7252764852
 20
207.3120322883
 30
0.0
 11
473.7252764852
 21
204.6080247372
 31
0.0
  0
LINE
  5
2A0
330
1F
100
AcDbEntity
  8
0
  6
Continuous
 62
     7
370
    15
100
AcDbLine
 10
335.5027907045
 20
206.4882867842
 30
0.0
 11
346.9649501593
 21
223.2741710603
 31
0.0
  0
LINE
  5
2A1
330
1F
100
AcDbEntity
  8
0
  6
Continuous
 62
     7
370
    15
100
AcDbLine
 10
338.5124005826
 20
205.7180904656
 30
0.0
 11
350.5004816206
 21
223.2741710603
 31
0.0
  0
LINE
  5
2A2
330
1F
100
AcDbEntity
  8
0
  6
Continuous
 62
     7
370
    15
100
AcDbLine
 10
349.7109137924
 20
207.3120322883
 30
0.0
 11
349.7109137924
 21
204.6080247372
 31
0.0
  0
LINE
  5
2A3
330
1F
100
AcDbEntity
  8
0
  6
Continuous
 62
     7
370
    15
100
AcDbLine
 10
523.9279740007
 20
189.8684619799
 30
0.0
 11
523.9196442516
 21
185.8684617899
 31
0.0
  0
LINE
  5
2A4
330
1F
100
AcDbEntity
  8
0
  6
Continuous
 62
     7
370
    15
100
AcDbLine
 10
514.5703502448
 20
185.8684617899
 30
0.0
 11
523.9196442516
 21
185.8684617899
 31
0.0
  0
LINE
  5
2A5
330
1F
100
AcDbEntity
  8
0
  6
Continuous
 62
     7
370
    15
100
AcDbLine
 10
299.5082162769
 20
189.8684619799
 30
0.0
 11
299.516546026
 21
185.8684617899
 31
0.0
  0
LINE
  5
2A6
330
1F
100
AcDbEntity
  8
0
  6
Continuous
 62
     7
370
    15
100
AcDbLine
 10
308.8658400328
 20
185.8684617899
 30
0.0
 11
299.516546026
 21
185.8684617899
 31
0.0
  0
LINE
  5
2A7
330
1F
100
AcDbEntity
  8
0
  6
Continuous
 62
     7
370
    15
100
AcDbLine
 10
545.0455792697
 20
185.8684617899
 30
0.0
 11
523.9196442516
 21
185.8684617899
 31
0.0
  0
LINE
  5
2A8
330
1F
100
AcDbEntity
  8
0
  6
Continuous
 62
     7
370
    15
100
AcDbLine
 10
299.516546026
 20
185.8684617899
 30
0.0
 11
278.390611008
 21
185.8684617899
 31
0.0
  0
LINE
  5
2A9
330
1F
100
AcDbEntity
  8
0
  6
Continuous
 62
     7
370
    15
100
AcDbLine
 10
499.6801414044
 20
185.8684617899
 30
0.0
 11
514.5703502448
 21
185.8684617899
 31
0.0
  0
LINE
  5
2AA
330
1F
100
AcDbEntity
  8
0
  6
Continuous
 62
     7
370
    15
100
AcDbLine
 10
323.7560488732
 20
185.8684617899
 30
0.0
 11
308.8658400328
 21
185.8684617899
 31
0.0
  0
LINE
  5
2AB
330
1F
100
AcDbEntity
  8
0
  6
Continuous
 62
     7
370
    15
100
AcDbLine
 10
506.8998210581
 20
185.8684617899
 30
0.0
 11
504.2187296303
 21
182.8684617638
 31
0.0
  0
LINE
  5
2AC
330
1F
100
AcDbEntity
  8
0
  6
Continuous
 62
     7
370
    15
100
AcDbLine
 10
504.2187296303
 20
182.8684617638
 30
0.0
 11
493.3754526527
 21
182.8684617638
 31
0.0
  0
LINE
  5
2AD
330
1F
100
AcDbEntity
  8
0
  6
Continuous
 62
     7
370
    15
100
AcDbLine
 10
319.2174606474
 20
182.8684617638
 30
0.0
 11
316.5363692196
 21
185.8684617899
 31
0.0
  0
LINE
  5
2AE
330
1F
100
AcDbEntity
  8
0
  6
Continuous
 62
     7
370
    15
100
AcDbLine
 10
330.0607376249
 20
182.8684617638
 30
0.0
 11
319.2174606474
 21
182.8684617638
 31
0.0
  0
LINE
  5
2AF
330
1F
100
AcDbEntity
  8
0
  6
Continuous
 62
     7
370
    15
100
AcDbLine
 10
499.9192603381
 20
298.3684648632
 30
0.0
 11
515.1386656316
 21
298.3684648632
 31
0.0
  0
LINE
  5
2B0
330
1F
100
AcDbEntity
  8
0
  6
Continuous
 62
     7
370
    15
100
AcDbLine
 10
308.2975246461
 20
298.3684648632
 30
0.0
 11
323.5027887376
 21
298.3684648632
 31
0.0
  0
LINE
  5
2B1
330
1F
100
AcDbEntity
  8
0
  6
Continuous
 62
     7
370
    15
100
AcDbLine
 10
304.7313787492
 20
321.1463947653
 30
0.0
 11
312.9906379135
 21
321.1463947653
 31
0.0
  0
LINE
  5
2B2
330
1F
100
AcDbEntity
  8
0
  6
Continuous
 62
     7
370
    15
100
AcDbLine
 10
510.4455523641
 20
321.1463947653
 30
0.0
 11
518.7048115285
 21
321.1463947653
 31
0.0
  0
LINE
  5
2B3
330
1F
100
AcDbEntity
  8
0
  6
Continuous
 62
     7
370
    15
100
AcDbLine
 10
504.2160623224
 20
182.8684617638
 30
0.0
 11
510.7733779104
 21
182.8684617638
 31
0.0
  0
LINE
  5
2B4
330
1F
100
AcDbEntity
  8
0
  6
Continuous
 62
     7
370
    15
100
AcDbLine
 10
312.6628123672
 20
182.8684617638
 30
0.0
 11
319.2219309957
 21
182.8684617638
 31
0.0
  0
LINE
  5
2B5
330
1F
100
AcDbEntity
  8
0
  6
Continuous
 62
     7
370
    15
100
AcDbLine
 10
511.5052931459
 20
182.8684617638
 30
0.0
 11
514.3536575587
 21
185.8684617899
 31
0.0
  0
LINE
  5
2B6
330
1F
100
AcDbEntity
  8
0
  6
Continuous
 62
     7
370
    15
100
AcDbLine
 10
510.7733779104
 20
182.8684617638
 30
0.0
 11
511.5052931459
 21
182.8684617638
 31
0.0
  0
LINE
  5
2B7
330
1F
100
AcDbEntity
  8
0
  6
Continuous
 62
     7
370
    15
100
AcDbLine
 10
309.0825327189
 20
185.8684617899
 30
0.0
 11
311.9308971317
 21
182.8684617638
 31
0.0
  0
LINE
  5
2B8
330
1F
100
AcDbEntity
  8
0
  6
Continuous
 62
     7
370
    15
100
AcDbLine
 10
311.9308971317
 20
182.8684617638
 30
0.0
 11
312.6628123672
 21
182.8684617638
 31
0.0
  0
LINE
  5
2B9
330
1F
100
AcDbEntity
  8
0
  6
Continuous
 62
     7
370
    15
100
AcDbLine
 10
516.2180982979
 20
182.8684617638
 30
0.0
 11
511.5052931459
 21
182.8684617638
 31
0.0
  0
LINE
  5
2BA
330
1F
100
AcDbEntity
  8
0
  6
Continuous
 62
     7
370
    15
100
AcDbLine
 10
311.9308971317
 20
182.8684617638
 30
0.0
 11
307.2180919798
 21
182.8684617638
 31
0.0
  0
LINE
  5
2BB
330
1F
100
AcDbEntity
  8
0
  6
Continuous
 62
     7
370
    15
100
AcDbLine
 10
499.9242149742
 20
245.1539893507
 30
0.0
 11
499.9192603381
 21
245.2241700947
 31
0.0
  0
ELLIPSE
  5
2BC
330
1F
100
AcDbEntity
  8
0
  6
Continuous
 62
     7
370
    15
100
AcDbEllipse
 10
411.7180951388
 20
249.2026364863
 30
0.0
 11
88.76442693653917
 21
0.0
 31
0.0
210
0.0
220
0.0
230
1.0
 40
0.4073079628
 41
6.170470416021077
 42
6.170967950492441
  0
LINE
  5
2BD
330
1F
100
AcDbEntity
  8
0
  6
Continuous
 62
     7
370
    15
100
AcDbLine
 10
500.086943105
 20
238.8025370299
 30
0.0
 11
499.9192603381
 21
241.1694411992
 31
0.0
  0
ELLIPSE
  5
2BE
330
1F
100
AcDbEntity
  8
0
  6
Continuous
 62
     7
370
    15
100
AcDbEllipse
 10
411.7180951388
 20
232.36392655
 30
0.0
 11
89.94547923275263
 21
0.0
 31
0.0
210
0.0
220
0.0
230
1.0
 40
0.3840023995
 41
0.1662209501245558
 42
0.1875109990390271
  0
LWPOLYLINE
  5
2BF
330
1F
100
AcDbEntity
  8
0
  6
Continuous
 62
     7
370
    15
100
AcDbPolyline
 90
        3
 70
   128
 43
0.0
 10
500.6929137261
 20
234.2684601306
 10
500.559697345
 20
236.1550477206
 10
500.4238658102
 20
238.078675872
  0
ELLIPSE
  5
2C0
330
1F
100
AcDbEntity
  8
0
  6
Continuous
 62
     7
370
    15
100
AcDbEllipse
 10
411.7180951388
 20
228.5509634944
 30
0.0
 11
90.21201151127678
 21
0.0
 31
0.0
210
0.0
220
0.0
230
1.0
 40
0.3840023995
 41
0.1658057040872646
 42
0.2115351222218889
  0
LINE
  5
2C1
330
1F
100
AcDbEntity
  8
0
  6
Continuous
 62
     7
370
    15
100
AcDbLine
 10
500.6929137261
 20
234.2684601306
 30
0.0
 11
499.9192603381
 21
234.2684601306
 31
0.0
  0
LINE
  5
2C2
330
1F
100
AcDbEntity
  8
0
  6
Continuous
 62
     7
370
    15
100
AcDbLine
 10
505.9333987982
 20
332.4180950283
 30
0.0
 11
505.9192575963
 21
332.4180950283
 31
0.0
  0
LINE
  5
2C3
330
1F
100
AcDbEntity
  8
0
  6
Continuous
 62
     7
370
    15
100
AcDbLine
 10
340.1128076465
 20
342.4180854916
 30
0.0
 11
340.1128076465
 21
332.918088591
 31
0.0
  0
LINE
  5
2C4
330
1F
100
AcDbEntity
  8
0
  6
Continuous
 62
     7
370
    15
100
AcDbLine
 10
340.0986664446
 20
342.4180854916
 30
0.0
 11
340.1128076465
 21
342.4180854916
 31
0.0
  0
LINE
  5
2C5
330
1F
100
AcDbEntity
  8
0
  6
Continuous
 62
     7
370
    15
100
AcDbLine
 10
503.3025689872
 20
205.7180904656
 30
0.0
 11
503.3025689872
 21
204.5368307143
 31
0.0
  0
LINE
  5
2C6
330
1F
100
AcDbEntity
  8
0
  6
Continuous
 62
     7
370
    15
100
AcDbLine
 10
503.2884203346
 20
205.7180904656
 30
0.0
 11
503.3025689872
 21
205.7180904656
 31
0.0
  0
LINE
  5
2C7
330
1F
100
AcDbEntity
  8
0
  6
Continuous
 62
     7
370
    15
100
AcDbLine
 10
501.9333981426
 20
354.9180884718
 30
0.0
 11
501.9192569406
 21
354.9180884718
 31
0.0
  0
LINE
  5
2C8
330
1F
100
AcDbEntity
  8
0
  6
Continuous
 62
     7
370
    15
100
AcDbLine
 10
501.9333981426
 20
355.4180969357
 30
0.0
 11
501.9192569406
 21
355.4180969357
 31
0.0
  0
LINE
  5
2C9
330
1F
100
AcDbEntity
  8
0
  6
Continuous
 62
     7
370
    15
100
AcDbLine
 10
337.516928509
 20
355.4180969357
 30
0.0
 11
337.502787307
 21
355.4180969357
 31
0.0
  0
LINE
  5
2CA
330
1F
100
AcDbEntity
  8
0
  6
Continuous
 62
     7
370
    15
100
AcDbLine
 10
337.516928509
 20
354.9180884718
 30
0.0
 11
337.502787307
 21
354.9180884718
 31
0.0
  0
LINE
  5
2CB
330
1F
100
AcDbEntity
  8
0
  6
Continuous
 62
     7
370
    15
100
AcDbLine
 10
504.5292772801
 20
342.4180854916
 30
0.0
 11
504.5292772801
 21
332.4180950283
 31
0.0
  0
LINE
  5
2CC
330
1F
100
AcDbEntity
  8
0
  6
Continuous
 62
     7
370
    15
100
AcDbLine
 10
504.5151286276
 20
342.4180854916
 30
0.0
 11
504.5292772801
 21
342.4180854916
 31
0.0
  0
LINE
  5
2CD
330
1F
100
AcDbEntity
  8
0
  6
Continuous
 62
     7
370
    15
100
AcDbLine
 10
500.4334025533
 20
366.9180829882
 30
0.0
 11
500.4192613514
 21
366.9180829882
 31
0.0
  0
LINE
  5
2CE
330
1F
100
AcDbEntity
  8
0
  6
Continuous
 62
     7
370
    15
100
AcDbLine
 10
336.0169329198
 20
366.9180829882
 30
0.0
 11
336.0027917178
 21
366.9180829882
 31
0.0
  0
LINE
  5
2CF
330
1F
100
AcDbEntity
  8
0
  6
Continuous
 62
     8
370
     0
100
AcDbLine
 10
386.1471977533
 20
189.8684619799
 30
0.0
 11
385.9533019812
 21
185.8684617899
 31
0.0
  0
LINE
  5
2D0
330
1F
100
AcDbEntity
  8
0
  6
Continuous
 62
     8
370
     0
100
AcDbLine
 10
437.2889925243
 20
189.8684619799
 30
0.0
 11
437.4828882964
 21
185.8684617899
 31
0.0
  0
LINE
  5
2D1
330
1F
100
AcDbEntity
  8
0
  6
Continuous
 62
     8
370
     0
100
AcDbLine
 10
466.9029809983
 20
203.0662854075
 30
0.0
 11
466.9251315744
 21
202.5798481762
 31
0.0
  0
LINE
  5
2D2
330
1F
100
AcDbEntity
  8
0
  6
Continuous
 62
     8
370
     0
100
AcDbLine
 10
356.5332092793
 20
203.0662854075
 30
0.0
 11
356.5110587032
 21
202.5798519015
 31
0.0
  0
LINE
  5
2D3
330
1F
100
AcDbEntity
  8
0
  6
Continuous
 62
     8
370
     0
100
AcDbLine
 10
405.5798286089
 20
189.8684619799
 30
0.0
 11
405.5917751492
 21
185.8684617899
 31
0.0
  0
LINE
  5
2D4
330
1F
100
AcDbEntity
  8
0
  6
Continuous
 62
     8
370
     0
100
AcDbLine
 10
417.8563616687
 20
189.8684619799
 30
0.0
 11
417.8444151284
 21
185.8684617899
 31
0.0
  0
LINE
  5
2D5
330
1F
100
AcDbEntity
  8
0
  6
Continuous
 62
     8
370
     0
100
AcDbLine
 10
347.9690649064
 20
300.7376228332
 30
0.0
 11
475.4671253712
 21
300.7376228332
 31
0.0
  0
LINE
  5
2D6
330
1F
100
AcDbEntity
  8
0
  6
Continuous
 62
     8
370
     0
100
AcDbLine
 10
459.0046093316
 20
203.8974162995
 30
0.0
 11
459.068609819
 21
202.4917525112
 31
0.0
  0
LINE
  5
2D7
330
1F
100
AcDbEntity
  8
0
  6
Continuous
 62
     8
370
     0
100
AcDbLine
 10
459.8254994006
 20
185.8684617899
 30
0.0
 11
459.96209462
 21
182.8684617638
 31
0.0
  0
LINE
  5
2D8
330
1F
100
AcDbEntity
  8
0
  6
Continuous
 62
     8
370
     0
100
AcDbLine
 10
364.431580946
 20
203.8974162995
 30
0.0
 11
364.3675767334
 21
202.4916761427
 31
0.0
  0
LINE
  5
2D9
330
1F
100
AcDbEntity
  8
0
  6
Continuous
 62
     8
370
     0
100
AcDbLine
 10
363.610690877
 20
185.8684617899
 30
0.0
 11
363.4740956576
 21
182.8684617638
 31
0.0
  0
LINE
  5
2DA
330
1F
100
AcDbEntity
  8
0
  6
Continuous
 62
     8
370
     0
100
AcDbLine
 10
480.6610070617
 20
291.4293591737
 30
0.0
 11
335.5027907045
 21
291.4293591737
 31
0.0
  0
LINE
  5
2DB
330
1F
100
AcDbEntity
  8
0
  6
Continuous
 62
     8
370
     0
100
AcDbLine
 10
323.5027887376
 20
291.4293591737
 30
0.0
 11
314.2180987151
 21
291.4293591737
 31
0.0
  0
LINE
  5
2DC
330
1F
100
AcDbEntity
  8
0
  6
Continuous
 62
     8
370
     0
100
AcDbLine
 10
509.2180915625
 20
291.4293591737
 30
0.0
 11
499.9192603381
 21
291.4293591737
 31
0.0
  0
LINE
  5
2DD
330
1F
100
AcDbEntity
  8
0
  6
Continuous
 62
     8
370
     0
100
AcDbLine
 10
487.9192583711
 20
291.4293591737
 30
0.0
 11
480.6610070617
 21
291.4293591737
 31
0.0
  0
LINE
  5
2DE
330
1F
100
AcDbEntity
  8
0
  6
Continuous
 62
     8
370
     0
100
AcDbLine
 10
479.9032457621
 20
289.1312275886
 30
0.0
 11
335.5027907045
 21
289.1312275886
 31
0.0
  0
LINE
  5
2DF
330
1F
100
AcDbEntity
  8
0
  6
Continuous
 62
     8
370
     0
100
AcDbLine
 10
323.5027887376
 20
289.1312275886
 30
0.0
 11
315.2897306235
 21
289.1312275886
 31
0.0
  0
LINE
  5
2E0
330
1F
100
AcDbEntity
  8
0
  6
Continuous
 62
     8
370
     0
100
AcDbLine
 10
508.1464596541
 20
289.1312275886
 30
0.0
 11
499.9192603381
 21
289.1312275886
 31
0.0
  0
LINE
  5
2E1
330
1F
100
AcDbEntity
  8
0
  6
Continuous
 62
     8
370
     0
100
AcDbLine
 10
487.9192583711
 20
289.1312275886
 30
0.0
 11
479.9032457621
 21
289.1312275886
 31
0.0
  0
LINE
  5
2E2
330
1F
100
AcDbEntity
  8
0
  6
Continuous
 62
     8
370
     0
100
AcDbLine
 10
480.6610070617
 20
292.2684584617
 30
0.0
 11
335.5027907045
 21
292.2684584617
 31
0.0
  0
LINE
  5
2E3
330
1F
100
AcDbEntity
  8
0
  6
Continuous
 62
     8
370
     0
100
AcDbLine
 10
323.5027887376
 20
292.2684584617
 30
0.0
 11
314.2180987151
 21
292.2684584617
 31
0.0
  0
LINE
  5
2E4
330
1F
100
AcDbEntity
  8
0
  6
Continuous
 62
     8
370
     0
100
AcDbLine
 10
509.2180915625
 20
292.2684584617
 30
0.0
 11
499.9192603381
 21
292.2684584617
 31
0.0
  0
LINE
  5
2E5
330
1F
100
AcDbEntity
  8
0
  6
Continuous
 62
     8
370
     0
100
AcDbLine
 10
487.9192583711
 20
292.2684584617
 30
0.0
 11
480.6610070617
 21
292.2684584617
 31
0.0
  0
LINE
  5
2E6
330
1F
100
AcDbEntity
  8
0
  6
Continuous
 62
     8
370
     0
100
AcDbLine
 10
473.3192086668
 20
281.3181762456
 30
0.0
 11
335.5027907045
 21
281.3181762456
 31
0.0
  0
LINE
  5
2E7
330
1F
100
AcDbEntity
  8
0
  6
Continuous
 62
     8
370
     0
100
AcDbLine
 10
487.9192583711
 20
281.3181762456
 30
0.0
 11
473.3192086668
 21
281.3181762456
 31
0.0
  0
LINE
  5
2E8
330
1F
100
AcDbEntity
  8
0
  6
Continuous
 62
     8
370
     0
100
AcDbLine
 10
472.0648847969
 20
277.1391753911
 30
0.0
 11
335.5027907045
 21
277.1391753911
 31
0.0
  0
LINE
  5
2E9
330
1F
100
AcDbEntity
  8
0
  6
Continuous
 62
     8
370
     0
100
AcDbLine
 10
487.9192583711
 20
277.1391753911
 30
0.0
 11
472.0648847969
 21
277.1391753911
 31
0.0
  0
LINE
  5
2EA
330
1F
100
AcDbEntity
  8
0
  6
Continuous
 62
     8
370
     0
100
AcDbLine
 10
432.482351035
 20
226.7980796158
 30
0.0
 11
432.482351035
 21
204.9763292878
 31
0.0
  0
LINE
  5
2EB
330
1F
100
AcDbEntity
  8
0
  6
Continuous
 62
     8
370
     0
100
AcDbLine
 10
390.9538392426
 20
226.7980796158
 30
0.0
 11
390.9538392426
 21
204.9763292878
 31
0.0
  0
LINE
  5
2EC
330
1F
100
AcDbEntity
  8
0
  6
Continuous
 62
     8
370
     0
100
AcDbLine
 10
341.5027879627
 20
330.9180845379
 30
0.0
 11
481.919261113
 21
330.9180845379
 31
0.0
  0
LINE
  5
2ED
330
1F
100
AcDbEntity
  8
0
  6
Continuous
 62
     8
370
     0
100
AcDbLine
 10
369.4321647735
 20
226.7980796158
 30
0.0
 11
369.4321647735
 21
204.9763292878
 31
0.0
  0
LINE
  5
2EE
330
1F
100
AcDbEntity
  8
0
  6
Continuous
 62
     8
370
     0
100
AcDbLine
 10
454.0040255041
 20
226.7980796158
 30
0.0
 11
454.0040255041
 21
204.9763292878
 31
0.0
  0
LINE
  5
2EF
330
1F
100
AcDbEntity
  8
0
  6
Continuous
 62
     8
370
     0
100
AcDbLine
 10
514.4895934017
 20
189.8684619799
 30
0.0
 11
514.5703502448
 21
185.8684617899
 31
0.0
  0
LINE
  5
2F0
330
1F
100
AcDbEntity
  8
0
  6
Continuous
 62
     8
370
     0
100
AcDbLine
 10
308.9465968759
 20
189.8684619799
 30
0.0
 11
308.8658400328
 21
185.8684617899
 31
0.0
  0
LINE
  5
2F1
330
1F
100
AcDbEntity
  8
0
  6
Continuous
 62
     8
370
     0
100
AcDbLine
 10
499.9192603381
 20
300.7376228332
 30
0.0
 11
517.6352359803
 21
300.7376228332
 31
0.0
  0
LINE
  5
2F2
330
1F
100
AcDbEntity
  8
0
  6
Continuous
 62
     8
370
     0
100
AcDbLine
 10
305.8009542973
 20
300.7376228332
 30
0.0
 11
323.5027887376
 21
300.7376228332
 31
0.0
  0
LINE
  5
2F3
330
1F
100
AcDbEntity
  8
0
  6
Continuous
 62
     8
370
     0
100
AcDbLine
 10
525.8041866572
 20
203.0662854075
 30
0.0
 11
525.8096553834
 21
202.6711718052
 31
0.0
  0
LINE
  5
2F4
330
1F
100
AcDbEntity
  8
0
  6
Continuous
 62
     8
370
     0
100
AcDbLine
 10
297.6320036204
 20
203.0662854075
 30
0.0
 11
297.6265348942
 21
202.6711773931
 31
0.0
  0
LINE
  5
2F5
330
1F
100
AcDbEntity
  8
0
  6
Continuous
 62
     8
370
     0
100
AcDbLine
 10
510.4822092207
 20
203.8974162995
 30
0.0
 11
510.4875438364
 21
203.5121914803
 31
0.0
  0
LINE
  5
2F6
330
1F
100
AcDbEntity
  8
0
  6
Continuous
 62
     8
370
     0
100
AcDbLine
 10
510.7318409236
 20
185.8684617899
 30
0.0
 11
510.7733779104
 21
182.8684617638
 31
0.0
  0
LINE
  5
2F7
330
1F
100
AcDbEntity
  8
0
  6
Continuous
 62
     8
370
     0
100
AcDbLine
 10
312.953981057
 20
203.8974162995
 30
0.0
 11
312.9486464412
 21
203.5121914803
 31
0.0
  0
LINE
  5
2F8
330
1F
100
AcDbEntity
  8
0
  6
Continuous
 62
     8
370
     0
100
AcDbLine
 10
312.7043493541
 20
185.8684617899
 30
0.0
 11
312.6628123672
 21
182.8684617638
 31
0.0
  0
LINE
  5
2F9
330
1F
100
AcDbEntity
  8
0
  6
CENTERX2
 62
     7
370
     0
100
AcDbLine
 10
411.7180951388
 20
350.0895022899
 30
0.0
 11
411.7180951388
 21
167.6766461645
 31
0.0
  0
CIRCLE
  5
2FA
330
1F
100
AcDbEntity
  8
0
  6
Continuous
 62
     7
370
    15
100
AcDbCircle
 10
6.2974695988
 20
83.8272318189
 30
0.0
 40
6.500000000000015
  0
CIRCLE
  5
2FB
330
1F
100
AcDbEntity
  8
0
  6
Continuous
 62
     7
370
    15
100
AcDbCircle
 10
170.7139383603
 20
83.8130896833
 30
0.0
 40
6.499999999999992
  0
CIRCLE
  5
2FC
330
1F
100
AcDbEntity
  8
0
  6
Continuous
 62
     7
370
    15
100
AcDbCircle
 10
6.2833274632
 20
-80.5892369426
 30
0.0
 40
6.499999999999994
  0
CIRCLE
  5
2FD
330
1F
100
AcDbEntity
  8
0
  6
Continuous
 62
     7
370
    15
100
AcDbCircle
 10
170.6997962247
 20
-80.6033790782
 30
0.0
 40
6.499999999999972
  0
CIRCLE
  5
2FE
330
1F
100
AcDbEntity
  8
0
  6
Continuous
 62
     7
370
    15
100
AcDbCircle
 10
170.7139383603
 20
83.8130896833
 30
0.0
 40
7.999999999999974
  0
CIRCLE
  5
2FF
330
1F
100
AcDbEntity
  8
0
  6
Continuous
 62
     7
370
    15
100
AcDbCircle
 10
6.2974695988
 20
83.8272318189
 30
0.0
 40
8.000000000000007
  0
CIRCLE
  5
300
330
1F
100
AcDbEntity
  8
0
  6
Continuous
 62
     7
370
    15
100
AcDbCircle
 10
6.2833274632
 20
-80.5892369426
 30
0.0
 40
7.999999999999997
  0
CIRCLE
  5
301
330
1F
100
AcDbEntity
  8
0
  6
Continuous
 62
     7
370
    15
100
AcDbCircle
 10
170.6997962247
 20
-80.6033790782
 30
0.0
 40
7.999999999999984
  0
LINE
  5
302
330
1F
100
AcDbEntity
  8
0
  6
Continuous
 62
     7
370
    15
100
AcDbLine
 10
-4.298400577
 20
86.6663910086
 30
0.0
 11
-1.4592450818
 21
76.0705180103
 31
0.0
  0
LINE
  5
303
330
1F
100
AcDbEntity
  8
0
  6
Continuous
 62
     7
370
    15
100
AcDbLine
 10
3.4583169261
 20
94.4231085116
 30
0.0
 11
-4.298400577
 21
86.6663910086
 31
0.0
  0
LINE
  5
304
330
1F
100
AcDbEntity
  8
0
  6
Continuous
 62
     7
370
    15
100
AcDbLine
 10
14.0541899243
 20
91.5839530165
 30
0.0
 11
3.4583169261
 21
94.4231085116
 31
0.0
  0
LINE
  5
305
330
1F
100
AcDbEntity
  8
0
  6
Continuous
 62
     7
370
    15
100
AcDbLine
 10
16.8933454195
 20
80.9880725676
 30
0.0
 11
14.0541899243
 21
91.5839530165
 31
0.0
  0
LINE
  5
306
330
1F
100
AcDbEntity
  8
0
  6
Continuous
 62
     7
370
    15
100
AcDbLine
 10
9.1366279164
 20
73.2313550646
 30
0.0
 11
16.8933454195
 21
80.9880725676
 31
0.0
  0
LINE
  5
307
330
1F
100
AcDbEntity
  8
0
  6
Continuous
 62
     7
370
    15
100
AcDbLine
 10
-1.4592450818
 20
76.0705180103
 30
0.0
 11
9.1366279164
 21
73.2313550646
 31
0.0
  0
LINE
  5
308
330
1F
100
AcDbEntity
  8
0
  6
Continuous
 62
     7
370
    15
100
AcDbLine
 10
173.55309755
 20
94.4089598591
 30
0.0
 11
162.9572245518
 21
91.5698043639
 31
0.0
  0
LINE
  5
309
330
1F
100
AcDbEntity
  8
0
  6
Continuous
 62
     7
370
    15
100
AcDbLine
 10
181.3098150531
 20
86.652242356
 30
0.0
 11
173.55309755
 21
94.4089598591
 31
0.0
  0
LINE
  5
30A
330
1F
100
AcDbEntity
  8
0
  6
Continuous
 62
     7
370
    15
100
AcDbLine
 10
178.4706595579
 20
76.0563693578
 30
0.0
 11
181.3098150531
 21
86.652242356
 31
0.0
  0
LINE
  5
30B
330
1F
100
AcDbEntity
  8
0
  6
Continuous
 62
     7
370
    15
100
AcDbLine
 10
167.8747791091
 20
73.2172138626
 30
0.0
 11
178.4706595579
 21
76.0563693578
 31
0.0
  0
LINE
  5
30C
330
1F
100
AcDbEntity
  8
0
  6
Continuous
 62
     7
370
    15
100
AcDbLine
 10
160.118061606
 20
80.9739313657
 30
0.0
 11
167.8747791091
 21
73.2172138626
 31
0.0
  0
LINE
  5
30D
330
1F
100
AcDbEntity
  8
0
  6
Continuous
 62
     7
370
    15
100
AcDbLine
 10
162.9572245518
 20
91.5698043639
 30
0.0
 11
160.118061606
 21
80.9739313657
 31
0.0
  0
LINE
  5
30E
330
1F
100
AcDbEntity
  8
0
  6
Continuous
 62
     7
370
    15
100
AcDbLine
 10
3.4441682735
 20
-91.1851071184
 30
0.0
 11
14.0400412718
 21
-88.3459516233
 31
0.0
  0
LINE
  5
30F
330
1F
100
AcDbEntity
  8
0
  6
Continuous
 62
     7
370
    15
100
AcDbLine
 10
-4.3125492295
 20
-83.4283896154
 30
0.0
 11
3.4441682735
 21
-91.1851071184
 31
0.0
  0
LINE
  5
310
330
1F
100
AcDbEntity
  8
0
  6
Continuous
 62
     7
370
    15
100
AcDbLine
 10
-1.4733937344
 20
-72.8325166171
 30
0.0
 11
-4.3125492295
 21
-83.4283896154
 31
0.0
  0
LINE
  5
311
330
1F
100
AcDbEntity
  8
0
  6
Continuous
 62
     7
370
    15
100
AcDbLine
 10
9.1224867144
 20
-69.9933611219
 30
0.0
 11
-1.4733937344
 21
-72.8325166171
 31
0.0
  0
LINE
  5
312
330
1F
100
AcDbEntity
  8
0
  6
Continuous
 62
     7
370
    15
100
AcDbLine
 10
16.8792042175
 20
-77.750078625
 30
0.0
 11
9.1224867144
 21
-69.9933611219
 31
0.0
  0
LINE
  5
313
330
1F
100
AcDbEntity
  8
0
  6
Continuous
 62
     7
370
    15
100
AcDbLine
 10
14.0400412718
 20
-88.3459516233
 30
0.0
 11
16.8792042175
 21
-77.750078625
 31
0.0
  0
LINE
  5
314
330
1F
100
AcDbEntity
  8
0
  6
Continuous
 62
     7
370
    15
100
AcDbLine
 10
181.2956664005
 20
-83.4425382679
 30
0.0
 11
178.4565109054
 21
-72.8466652697
 31
0.0
  0
LINE
  5
315
330
1F
100
AcDbEntity
  8
0
  6
Continuous
 62
     7
370
    15
100
AcDbLine
 10
173.5389488974
 20
-91.199255771
 30
0.0
 11
181.2956664005
 21
-83.4425382679
 31
0.0
  0
LINE
  5
316
330
1F
100
AcDbEntity
  8
0
  6
Continuous
 62
     7
370
    15
100
AcDbLine
 10
162.9430758992
 20
-88.3601002758
 30
0.0
 11
173.5389488974
 21
-91.199255771
 31
0.0
  0
LINE
  5
317
330
1F
100
AcDbEntity
  8
0
  6
Continuous
 62
     7
370
    15
100
AcDbLine
 10
160.103920404
 20
-77.764219827
 30
0.0
 11
162.9430758992
 21
-88.3601002758
 31
0.0
  0
LINE
  5
318
330
1F
100
AcDbEntity
  8
0
  6
Continuous
 62
     7
370
    15
100
AcDbLine
 10
167.8606379071
 20
-70.0075023239
 30
0.0
 11
160.103920404
 21
-77.764219827
 31
0.0
  0
LINE
  5
319
330
1F
100
AcDbEntity
  8
0
  6
Continuous
 62
     7
370
    15
100
AcDbLine
 10
178.4565109054
 20
-72.8466652697
 30
0.0
 11
167.8606379071
 21
-70.0075023239
 31
0.0
  0
CIRCLE
  5
31A
330
1F
100
AcDbEntity
  8
0
  6
Continuous
 62
     7
370
    15
100
AcDbCircle
 10
88.4986329118
 20
1.6119263703
 30
0.0
 40
85.00000000000001
  0
CIRCLE
  5
31B
330
1F
100
AcDbEntity
  8
0
  6
Continuous
 62
     7
370
    15
100
AcDbCircle
 10
88.4986329118
 20
1.6119263703
 30
0.0
 40
78.49999999999999
  0
CIRCLE
  5
31C
330
1F
100
AcDbEntity
  8
0
  6
Continuous
 62
     7
370
    15
100
AcDbCircle
 10
6.2974695988
 20
83.8272318189
 30
0.0
 40
12.0
  0
CIRCLE
  5
31D
330
1F
100
AcDbEntity
  8
0
  6
Continuous
 62
     7
370
    15
100
AcDbCircle
 10
170.7139383603
 20
83.8130896833
 30
0.0
 40
11.99999999999998
  0
CIRCLE
  5
31E
330
1F
100
AcDbEntity
  8
0
  6
Continuous
 62
     7
370
    15
100
AcDbCircle
 10
170.6997962247
 20
-80.6033790782
 30
0.0
 40
11.99999999999998
  0
CIRCLE
  5
31F
330
1F
100
AcDbEntity
  8
0
  6
Continuous
 62
     7
370
    15
100
AcDbCircle
 10
6.2833274632
 20
-80.5892369426
 30
0.0
 40
12.00000000000001
  0
LINE
  5
320
330
1F
100
AcDbEntity
  8
0
  6
Continuous
 62
     7
370
    15
100
AcDbLine
 10
172.8211152593
 20
96.8945629532
 30
0.0
 11
174.5232674518
 21
95.1924107606
 31
0.0
  0
LINE
  5
321
330
1F
100
AcDbEntity
  8
0
  6
Continuous
 62
     7
370
    15
100
AcDbLine
 10
171.6991323272
 20
95.7725800211
 30
0.0
 11
172.8211152593
 21
96.8945629532
 31
0.0
  0
LINE
  5
322
330
1F
100
AcDbEntity
  8
0
  6
Continuous
 62
     7
370
    15
100
AcDbLine
 10
183.7812694946
 20
85.9344087178
 30
0.0
 11
182.671252195
 21
84.8243839676
 31
0.0
  0
LINE
  5
323
330
1F
100
AcDbEntity
  8
0
  6
Continuous
 62
     7
370
    15
100
AcDbLine
 10
182.093258504
 20
87.6224197084
 30
0.0
 11
183.7812694946
 21
85.9344087178
 31
0.0
  0
LINE
  5
324
330
1F
100
AcDbEntity
  8
0
  6
Continuous
 62
     7
370
    15
100
AcDbLine
 10
195.4485359827
 20
85.9344087178
 30
0.0
 11
158.8419932166
 21
49.327869677
 31
0.0
  0
LINE
  5
325
330
1F
100
AcDbEntity
  8
0
  6
Continuous
 62
     7
370
    15
100
AcDbLine
 10
168.7552514711
 20
66.3121945793
 30
0.0
 11
155.8754625955
 21
53.432409429
 31
0.0
  0
LINE
  5
326
330
1F
100
AcDbEntity
  8
0
  6
Continuous
 62
     7
370
    15
100
AcDbLine
 10
153.1989011207
 20
81.8685449297
 30
0.0
 11
168.7552514711
 21
66.3121945793
 31
0.0
  0
LINE
  5
327
330
1F
100
AcDbEntity
  8
0
  6
Continuous
 62
     7
370
    15
100
AcDbLine
 10
140.3191159705
 20
68.9887560541
 30
0.0
 11
153.1989011207
 21
81.8685449297
 31
0.0
  0
LINE
  5
328
330
1F
100
AcDbEntity
  8
0
  6
Continuous
 62
     7
370
    15
100
AcDbLine
 10
136.2145762185
 20
71.9552866752
 30
0.0
 11
172.8211152593
 21
108.5618294413
 31
0.0
  0
LINE
  5
329
330
1F
100
AcDbEntity
  8
0
  6
Continuous
 62
     7
370
    15
100
AcDbLine
 10
172.8211152593
 20
108.5618294413
 30
0.0
 11
195.4485359827
 21
85.9344087178
 31
0.0
  0
LINE
  5
32A
330
1F
100
AcDbEntity
  8
0
  6
Continuous
 62
     7
370
    15
100
AcDbLine
 10
-5.662020739
 20
84.8124257857
 30
0.0
 11
-6.7840036711
 21
85.9344087178
 31
0.0
  0
LINE
  5
32B
330
1F
100
AcDbEntity
  8
0
  6
Continuous
 62
     7
370
    15
100
AcDbLine
 10
4.1761505643
 20
96.8945629532
 30
0.0
 11
5.2861753145
 21
95.7845456535
 31
0.0
  0
LINE
  5
32C
330
1F
100
AcDbEntity
  8
0
  6
Continuous
 62
     7
370
    15
100
AcDbLine
 10
2.4881395737
 20
95.2065519626
 30
0.0
 11
4.1761505643
 21
96.8945629532
 31
0.0
  0
LINE
  5
32D
330
1F
100
AcDbEntity
  8
0
  6
Continuous
 62
     7
370
    15
100
AcDbLine
 10
-6.7840036711
 20
85.9344087178
 30
0.0
 11
-5.0818514785
 21
87.6365609104
 31
0.0
  0
LINE
  5
32E
330
1F
100
AcDbEntity
  8
0
  6
Continuous
 62
     7
370
    15
100
AcDbLine
 10
23.7983647028
 20
81.8685449297
 30
0.0
 11
36.6781498531
 21
68.9887560541
 31
0.0
  0
LINE
  5
32F
330
1F
100
AcDbEntity
  8
0
  6
Continuous
 62
     7
370
    15
100
AcDbLine
 10
8.2420143524
 20
66.3121945793
 30
0.0
 11
23.7983647028
 21
81.8685449297
 31
0.0
  0
LINE
  5
330
330
1F
100
AcDbEntity
  8
0
  6
Continuous
 62
     7
370
    15
100
AcDbLine
 10
21.121803228
 20
53.432409429
 30
0.0
 11
8.2420143524
 21
66.3121945793
 31
0.0
  0
LINE
  5
331
330
1F
100
AcDbEntity
  8
0
  6
Continuous
 62
     7
370
    15
100
AcDbLine
 10
18.1552726069
 20
49.327869677
 30
0.0
 11
-18.4512701592
 21
85.9344087178
 31
0.0
  0
LINE
  5
332
330
1F
100
AcDbEntity
  8
0
  6
Continuous
 62
     7
370
    15
100
AcDbLine
 10
-18.4512701592
 20
85.9344087178
 30
0.0
 11
4.1761505643
 21
108.5618294413
 31
0.0
  0
LINE
  5
333
330
1F
100
AcDbEntity
  8
0
  6
Continuous
 62
     7
370
    15
100
AcDbLine
 10
4.1761505643
 20
108.5618294413
 30
0.0
 11
40.7826896051
 21
71.9552866752
 31
0.0
  0
LINE
  5
334
330
1F
100
AcDbEntity
  8
0
  6
Continuous
 62
     7
370
    15
100
AcDbLine
 10
5.2981334964
 20
-92.5487272804
 30
0.0
 11
4.1761505643
 21
-93.6707102125
 31
0.0
  0
LINE
  5
335
330
1F
100
AcDbEntity
  8
0
  6
Continuous
 62
     7
370
    15
100
AcDbLine
 10
-6.7840036711
 20
-82.7105559772
 30
0.0
 11
-5.6739863714
 21
-81.6005312269
 31
0.0
  0
LINE
  5
336
330
1F
100
AcDbEntity
  8
0
  6
Continuous
 62
     7
370
    15
100
AcDbLine
 10
-5.0959926805
 20
-84.3985669678
 30
0.0
 11
-6.7840036711
 21
-82.7105559772
 31
0.0
  0
LINE
  5
337
330
1F
100
AcDbEntity
  8
0
  6
Continuous
 62
     7
370
    15
100
AcDbLine
 10
4.1761505643
 20
-93.6707102125
 30
0.0
 11
2.4739983717
 21
-91.9685580199
 31
0.0
  0
LINE
  5
338
330
1F
100
AcDbEntity
  8
0
  6
Continuous
 62
     7
370
    15
100
AcDbLine
 10
8.2420143524
 20
-63.0883418387
 30
0.0
 11
21.121803228
 21
-50.2085566884
 31
0.0
  0
LINE
  5
339
330
1F
100
AcDbEntity
  8
0
  6
Continuous
 62
     7
370
    15
100
AcDbLine
 10
23.7983647028
 20
-78.644692189
 30
0.0
 11
8.2420143524
 21
-63.0883418387
 31
0.0
  0
LINE
  5
33A
330
1F
100
AcDbEntity
  8
0
  6
Continuous
 62
     7
370
    15
100
AcDbLine
 10
36.6781498531
 20
-65.7649033135
 30
0.0
 11
23.7983647028
 21
-78.644692189
 31
0.0
  0
LINE
  5
33B
330
1F
100
AcDbEntity
  8
0
  6
Continuous
 62
     7
370
    15
100
AcDbLine
 10
40.7826896051
 20
-68.7314339345
 30
0.0
 11
4.1761505643
 21
-105.3379767006
 31
0.0
  0
LINE
  5
33C
330
1F
100
AcDbEntity
  8
0
  6
Continuous
 62
     7
370
    15
100
AcDbLine
 10
4.1761505643
 20
-105.3379767006
 30
0.0
 11
-18.4512701592
 21
-82.7105559772
 31
0.0
  0
LINE
  5
33D
330
1F
100
AcDbEntity
  8
0
  6
Continuous
 62
     7
370
    15
100
AcDbLine
 10
-18.4512701592
 20
-82.7105559772
 30
0.0
 11
18.1552726069
 21
-46.1040169364
 31
0.0
  0
LINE
  5
33E
330
1F
100
AcDbEntity
  8
0
  6
Continuous
 62
     7
370
    15
100
AcDbLine
 10
182.6592865625
 20
-81.5885730451
 30
0.0
 11
183.7812694946
 21
-82.7105559772
 31
0.0
  0
LINE
  5
33F
330
1F
100
AcDbEntity
  8
0
  6
Continuous
 62
     7
370
    15
100
AcDbLine
 10
172.8211152593
 20
-93.6707102125
 30
0.0
 11
171.711090509
 21
-92.5606929129
 31
0.0
  0
LINE
  5
340
330
1F
100
AcDbEntity
  8
0
  6
Continuous
 62
     7
370
    15
100
AcDbLine
 10
174.5091262499
 20
-91.9826992219
 30
0.0
 11
172.8211152593
 21
-93.6707102125
 31
0.0
  0
LINE
  5
341
330
1F
100
AcDbEntity
  8
0
  6
Continuous
 62
     7
370
    15
100
AcDbLine
 10
183.7812694946
 20
-82.7105559772
 30
0.0
 11
182.079117302
 21
-84.4127081698
 31
0.0
  0
LINE
  5
342
330
1F
100
AcDbEntity
  8
0
  6
Continuous
 62
     7
370
    15
100
AcDbLine
 10
158.8419932166
 20
-46.1040169364
 30
0.0
 11
195.4485359827
 21
-82.7105559772
 31
0.0
  0
LINE
  5
343
330
1F
100
AcDbEntity
  8
0
  6
Continuous
 62
     7
370
    15
100
AcDbLine
 10
195.4485359827
 20
-82.7105559772
 30
0.0
 11
172.8211152593
 21
-105.3379767006
 31
0.0
  0
LINE
  5
344
330
1F
100
AcDbEntity
  8
0
  6
Continuous
 62
     7
370
    15
100
AcDbLine
 10
172.8211152593
 20
-105.3379767006
 30
0.0
 11
136.2145762185
 21
-68.7314339345
 31
0.0
  0
LINE
  5
345
330
1F
100
AcDbEntity
  8
0
  6
Continuous
 62
     7
370
    15
100
AcDbLine
 10
153.1989011207
 20
-78.644692189
 30
0.0
 11
140.3191159705
 21
-65.7649033135
 31
0.0
  0
LINE
  5
346
330
1F
100
AcDbEntity
  8
0
  6
Continuous
 62
     7
370
    15
100
AcDbLine
 10
168.7552514711
 20
-63.0883418387
 30
0.0
 11
153.1989011207
 21
-78.644692189
 31
0.0
  0
LINE
  5
347
330
1F
100
AcDbEntity
  8
0
  6
Continuous
 62
     7
370
    15
100
AcDbLine
 10
155.8754625955
 20
-50.2085566884
 30
0.0
 11
168.7552514711
 21
-63.0883418387
 31
0.0
  0
ARC
  5
348
330
1F
100
AcDbEntity
  8
0
  6
Continuous
 62
     7
370
    15
100
AcDbCircle
 10
88.4986329118
 20
1.6119263703
 30
0.0
 40
106.9867192015897
100
AcDbArc
 50
53.6009230487
 51
126.3990769513
  0
ARC
  5
349
330
1F
100
AcDbEntity
  8
0
  6
Continuous
 62
     7
370
    15
100
AcDbCircle
 10
88.4986329118
 20
1.6119263703
 30
0.0
 40
106.9867192015897
100
AcDbArc
 50
143.6009230487
 51
216.3990769513
  0
ARC
  5
34A
330
1F
100
AcDbEntity
  8
0
  6
Continuous
 62
     7
370
    15
100
AcDbCircle
 10
88.4986329118
 20
1.6119263703
 30
0.0
 40
106.9867192015897
100
AcDbArc
 50
323.6009230487
 51
36.3990769513
  0
ARC
  5
34B
330
1F
100
AcDbEntity
  8
0
  6
Continuous
 62
     7
370
    15
100
AcDbCircle
 10
88.4986329118
 20
1.6119263703
 30
0.0
 40
106.9867192015897
100
AcDbArc
 50
233.6009230487
 51
306.3990769513
  0
CIRCLE
  5
34C
330
1F
100
AcDbEntity
  8
0
  6
Continuous
 62
     7
370
    15
100
AcDbCircle
 10
88.4986329118
 20
1.6119263703
 30
0.0
 40
75.00000000000001
  0
CIRCLE
  5
34D
330
1F
100
AcDbEntity
  8
0
  6
Continuous
 62
     7
370
    15
100
AcDbCircle
 10
88.4986329118
 20
1.6119263703
 30
0.0
 40
142.5
  0
LINE
  5
34E
330
1F
100
AcDbEntity
  8
0
  6
Continuous
 62
     7
370
    15
100
AcDbLine
 10
190.3495970407
 20
34.3392982716
 30
0.0
 11
202.5847244302
 21
37.6548029119
 31
0.0
  0
SPLINE
  5
34F
330
1F
100
AcDbEntity
  8
0
  6
Continuous
 62
     7
370
    15
100
AcDbSpline
210
0.0
220
0.0
230
1.0
 70
     8
 71
     3
 72
    53
 73
    49
 74
     0
 42
0.00000001
 43
0.00000001
 12
1.0
 22
0.0
 32
0.0
 13
1.0
 23
0.0
 33
0.0
 40
0.0
 40
0.0
 40
0.0
 40
0.0
 40
0.0312499999999993
 40
0.0312499999999993
 40
0.0624999999999987
 40
0.0624999999999987
 40
0.1249999999999987
 40
0.1249999999999987
 40
0.1562499999999987
 40
0.1562499999999987
 40
0.1874999999999987
 40
0.1874999999999987
 40
0.2499999999999982
 40
0.2499999999999982
 40
0.3124999999999978
 40
0.3124999999999978
 40
0.3437499999999976
 40
0.3437499999999976
 40
0.3749999999999973
 40
0.3749999999999973
 40
0.4374999999999962
 40
0.4374999999999962
 40
0.4687499999999957
 40
0.4687499999999957
 40
0.4999999999999951
 40
0.5312499999999946
 40
0.5312499999999946
 40
0.562499999999994
 40
0.562499999999994
 40
0.6249999999999941
 40
0.6249999999999941
 40
0.6562499999999943
 40
0.6562499999999943
 40
0.6874999999999946
 40
0.6874999999999946
 40
0.7187499999999948
 40
0.7187499999999948
 40
0.749999999999995
 40
0.749999999999995
 40
0.8124999999999966
 40
0.8124999999999966
 40
0.8749999999999981
 40
0.8749999999999981
 40
0.9374999999999997
 40
0.9374999999999997
 40
0.9687499999999998
 40
0.9687499999999998
 40
1.0
 40
1.0
 40
1.0
 40
1.0
 10
202.584723513938
 20
37.65480193948851
 30
0.0
 10
202.9395129296143
 20
37.75094353753139
 30
0.0
 10
203.2892528047327
 20
37.86576833695089
 30
0.0
 10
203.9784599541185
 20
38.13342622792491
 30
0.0
 10
204.319768616479
 20
38.28734520160949
 30
0.0
 10
205.3070113739155
 20
38.79768930383676
 30
0.0
 10
205.9207558824156
 20
39.20272687094614
 30
0.0
 10
206.7755024904471
 20
39.90638524748037
 30
0.0
 10
207.0507659257371
 20
40.1585856010589
 30
0.0
 10
207.5709202932011
 20
40.68920858669848
 30
0.0
 10
207.8148914308071
 20
40.96632793628068
 30
0.0
 10
208.4998534181418
 20
41.83210579349887
 30
0.0
 10
208.8949971445542
 20
42.45595148461044
 30
0.0
 10
209.5532142325316
 20
43.7940238990556
 30
0.0
 10
209.8057915751003
 20
44.48630303785423
 30
0.0
 10
210.0739240887333
 20
45.55834741955749
 30
0.0
 10
210.1446890610291
 20
45.92134749825362
 30
0.0
 10
210.2477480893383
 20
46.65902915913728
 30
0.0
 10
210.2793838097402
 20
47.03018500246741
 30
0.0
 10
210.3150412160267
 20
48.13685325456147
 30
0.0
 10
210.2612984713992
 20
48.87128515819851
 30
0.0
 10
210.0621253661411
 20
49.96781250612059
 30
0.0
 10
209.9755707527612
 20
50.33205272725885
 30
0.0
 10
209.7666424744886
 20
51.04141978742535
 30
0.0
 10
209.5212075640579
 20
51.73615787567946
 30
0.0
 10
209.2037268341202
 20
52.40202569270728
 30
0.0
 10
208.8494795185713
 20
53.05316036900719
 30
0.0
 10
208.652910508929
 20
53.37256415468197
 30
0.0
 10
208.020764047547
 20
54.28661696739888
 30
0.0
 10
207.5402957437558
 20
54.84432135745116
 30
0.0
 10
206.731482207965
 20
55.60376942280821
 30
0.0
 10
206.44520507105
 20
55.84526607457261
 30
0.0
 10
205.8529341121057
 20
56.29288644526715
 30
0.0
 10
205.5470040633488
 20
56.49936876238678
 30
0.0
 10
204.9160467672335
 20
56.87854665765992
 30
0.0
 10
204.5910185977501
 20
57.05124060731477
 30
0.0
 10
203.9217035798361
 20
57.36255463714449
 30
0.0
 10
203.5757668797484
 20
57.50172060480165
 30
0.0
 10
202.5194532842878
 20
57.86206190734642
 30
0.0
 10
201.8012109396892
 20
58.02401706480527
 30
0.0
 10
200.337468440925
 20
58.19584687441075
 30
0.0
 10
199.5850185257253
 20
58.20371562629303
 30
0.0
 10
198.11826515022
 20
58.0626069171108
 30
0.0
 10
197.3971519343324
 20
57.915787715862
 30
0.0
 10
196.3343862978646
 20
57.57802313431797
 30
0.0
 10
195.9854135411011
 20
57.44615158010299
 30
0.0
 10
195.3076962393892
 20
57.14800953614569
 30
0.0
 10
194.9774460512278
 20
56.98128005778548
 30
0.0
 10
194.6558429440404
 20
56.79681294577178
 30
0.0
  0
LINE
  5
350
330
1F
100
AcDbEntity
  8
0
  6
Continuous
 62
     7
370
    15
100
AcDbLine
 10
194.6558463612
 20
56.7968122298
 30
0.0
 11
183.6572694817
 21
50.4881895716
 31
0.0
  0
LINE
  5
351
330
1F
100
AcDbEntity
  8
0
  6
Continuous
 62
     7
370
    15
100
AcDbLine
 10
183.6599218884
 20
-47.2658567493
 30
0.0
 11
194.6558463612
 21
-53.5729594892
 31
0.0
  0
SPLINE
  5
352
330
1F
100
AcDbEntity
  8
0
  6
Continuous
 62
     7
370
    15
100
AcDbSpline
210
0.0
220
0.0
230
1.0
 70
     8
 71
     3
 72
    54
 73
    50
 74
     0
 42
0.00000001
 43
0.00000001
 12
1.0
 22
0.0
 32
0.0
 13
1.0
 23
0.0
 33
0.0
 40
0.0
 40
0.0
 40
0.0
 40
0.0
 40
0.0625000000000009
 40
0.0625000000000009
 40
0.0937500000000007
 40
0.0937500000000007
 40
0.1250000000000005
 40
0.1250000000000005
 40
0.1562500000000003
 40
0.1562500000000003
 40
0.1875000000000001
 40
0.1875000000000001
 40
0.2499999999999996
 40
0.2499999999999996
 40
0.3124999999999991
 40
0.3124999999999991
 40
0.3749999999999986
 40
0.3749999999999986
 40
0.4062499999999984
 40
0.4062499999999984
 40
0.4374999999999982
 40
0.4374999999999982
 40
0.4687499999999979
 40
0.4687499999999979
 40
0.4999999999999977
 40
0.4999999999999977
 40
0.5624999999999982
 40
0.5624999999999982
 40
0.5937499999999982
 40
0.5937499999999982
 40
0.6249999999999982
 40
0.6249999999999982
 40
0.6562499999999982
 40
0.6562499999999982
 40
0.6874999999999982
 40
0.6874999999999982
 40
0.7499999999999984
 40
0.7499999999999984
 40
0.7812499999999986
 40
0.7812499999999986
 40
0.8124999999999987
 40
0.8124999999999987
 40
0.8749999999999989
 40
0.8749999999999989
 40
0.9374999999999991
 40
0.9374999999999991
 40
0.9687499999999996
 40
0.9687499999999996
 40
1.0
 40
1.0
 40
1.0
 40
1.0
 10
194.6558429440404
 20
-53.57296020511351
 30
0.0
 10
195.297543327722
 20
-53.94103070539889
 30
0.0
 10
195.9704862149762
 20
-54.23741082689882
 30
0.0
 10
197.0266442542938
 20
-54.57471812729838
 30
0.0
 10
197.3887730354143
 20
-54.66948742997766
 30
0.0
 10
198.115195857411
 20
-54.81858900153505
 30
0.0
 10
198.4798741311111
 20
-54.8733400145947
 30
0.0
 10
199.2120937801872
 20
-54.94418530853257
 30
0.0
 10
199.5796352742376
 20
-54.96027800540226
 30
0.0
 10
200.3176082843704
 20
-54.95343026628865
 30
0.0
 10
200.6898544311701
 20
-54.93025897462088
 30
0.0
 10
201.7981141322835
 20
-54.80124962610681
 30
0.0
 10
202.5162623566443
 20
-54.63855191742901
 30
0.0
 10
203.9122583240564
 20
-54.1638159982495
 30
0.0
 10
204.5954423407925
 20
-53.84699088021534
 30
0.0
 10
205.8598814001568
 20
-53.0878604344921
 30
0.0
 10
206.4483361825172
 20
-52.64451771955736
 30
0.0
 10
207.2634455367331
 20
-51.88103693319185
 30
0.0
 10
207.5216886375273
 20
-51.61167940929964
 30
0.0
 10
208.0039560526353
 20
-51.05220993669275
 30
0.0
 10
208.2292731479905
 20
-50.76090964482808
 30
0.0
 10
208.64854617874
 20
-50.15537704962526
 30
0.0
 10
208.8425035806268
 20
-49.84114581838125
 30
0.0
 10
209.1982612478317
 20
-49.18916940715839
 30
0.0
 10
209.3598734205528
 20
-48.85108671145085
 30
0.0
 10
209.7846511274024
 20
-47.8256285677183
 30
0.0
 10
209.9930453502272
 20
-47.11938976584453
 30
0.0
 10
210.1929705325257
 20
-46.02598666509211
 30
0.0
 10
210.2406539592976
 20
-45.65393141356702
 30
0.0
 10
210.2954913491462
 20
-44.91459351188271
 30
0.0
 10
210.3031162591962
 20
-44.54580024423791
 30
0.0
 10
210.2795926204367
 20
-43.80992936965235
 30
0.0
 10
210.2484432138752
 20
-43.44285179991054
 30
0.0
 10
210.1468636275549
 20
-42.71043515373589
 30
0.0
 10
210.0758257266034
 20
-42.34291758524257
 30
0.0
 10
209.8060255183042
 20
-41.26176429255859
 30
0.0
 10
209.5527438772595
 20
-40.57044765568957
 30
0.0
 10
209.0648549811267
 20
-39.57679153841787
 30
0.0
 10
208.8832985312312
 20
-39.25163419058761
 30
0.0
 10
208.4858917416345
 20
-38.62197485889848
 30
0.0
 10
208.2720650441146
 20
-38.32036903575206
 30
0.0
 10
207.5866777415309
 20
-37.45394627938871
 30
0.0
 10
207.0717036678011
 20
-36.92709233267811
 30
0.0
 10
205.9213673100681
 20
-35.97866856251584
 30
0.0
 10
205.3047792103848
 20
-35.5728876111271
 30
0.0
 10
204.3243208517844
 20
-35.06574375582369
 30
0.0
 10
203.9879356639027
 20
-34.91357836531773
 30
0.0
 10
203.2954681601833
 20
-34.64401172031764
 30
0.0
 10
202.9409001716735
 20
-34.52746671470646
 30
0.0
 10
202.584723513938
 20
-34.43094919883023
 30
0.0
  0
LINE
  5
353
330
1F
100
AcDbEntity
  8
0
  6
Continuous
 62
     7
370
    15
100
AcDbLine
 10
202.5847244302
 20
-34.4309501713
 30
0.0
 11
190.3467062155
 21
-31.1146594947
 31
0.0
  0
LINE
  5
354
330
1F
100
AcDbEntity
  8
0
  6
Continuous
 62
     7
370
    15
100
AcDbLine
 10
121.226004813
 20
-100.2390377586
 30
0.0
 11
124.5415094534
 21
-112.4741651481
 31
0.0
  0
SPLINE
  5
355
330
1F
100
AcDbEntity
  8
0
  6
Continuous
 62
     7
370
    15
100
AcDbSpline
210
0.0
220
0.0
230
1.0
 70
     8
 71
     3
 72
    53
 73
    49
 74
     0
 42
0.00000001
 43
0.00000001
 12
1.0
 22
0.0
 32
0.0
 13
1.0
 23
0.0
 33
0.0
 40
0.0
 40
0.0
 40
0.0
 40
0.0
 40
0.0312500000000004
 40
0.0312500000000004
 40
0.0625000000000008
 40
0.0625000000000008
 40
0.1250000000000004
 40
0.1250000000000004
 40
0.15625
 40
0.15625
 40
0.1874999999999996
 40
0.1874999999999996
 40
0.2499999999999999
 40
0.2499999999999999
 40
0.3125000000000003
 40
0.3125000000000003
 40
0.3437500000000005
 40
0.3437500000000005
 40
0.3750000000000007
 40
0.3750000000000007
 40
0.4375000000000011
 40
0.4375000000000011
 40
0.4687500000000014
 40
0.4687500000000014
 40
0.5000000000000017
 40
0.531250000000002
 40
0.531250000000002
 40
0.5625000000000022
 40
0.5625000000000022
 40
0.6250000000000022
 40
0.6250000000000022
 40
0.6562500000000022
 40
0.6562500000000022
 40
0.6875000000000021
 40
0.6875000000000021
 40
0.7187500000000021
 40
0.7187500000000021
 40
0.7500000000000021
 40
0.7500000000000021
 40
0.8125000000000018
 40
0.8125000000000018
 40
0.8750000000000016
 40
0.8750000000000016
 40
0.9375000000000012
 40
0.9375000000000012
 40
0.9687500000000007
 40
0.9687500000000007
 40
1.0
 40
1.0
 40
1.0
 40
1.0
 10
124.5415084809259
 20
-112.474164231842
 30
0.0
 10
124.6376500789688
 20
-112.8289536475183
 30
0.0
 10
124.7524748783883
 20
-113.1786935226367
 30
0.0
 10
125.0201327693623
 20
-113.8679006720226
 30
0.0
 10
125.1740517430469
 20
-114.2092093343831
 30
0.0
 10
125.6843958452742
 20
-115.1964520918196
 30
0.0
 10
126.0894334123835
 20
-115.8101966003197
 30
0.0
 10
126.7930917889177
 20
-116.6649432083512
 30
0.0
 10
127.0452921424963
 20
-116.9402066436412
 30
0.0
 10
127.5759151281359
 20
-117.4603610111052
 30
0.0
 10
127.8530344777181
 20
-117.7043321487112
 30
0.0
 10
128.7188123349363
 20
-118.3892941360458
 30
0.0
 10
129.3426580260478
 20
-118.7844378624583
 30
0.0
 10
130.680730440493
 20
-119.4426549504356
 30
0.0
 10
131.3730095792916
 20
-119.6952322930044
 30
0.0
 10
132.4450539609948
 20
-119.9633648066375
 30
0.0
 10
132.808054039691
 20
-120.0341297789332
 30
0.0
 10
133.5457357005747
 20
-120.1371888072424
 30
0.0
 10
133.9168915439048
 20
-120.1688245276443
 30
0.0
 10
135.0235597959988
 20
-120.2044819339308
 30
0.0
 10
135.7579916996359
 20
-120.1507391893033
 30
0.0
 10
136.854519047558
 20
-119.9515660840452
 30
0.0
 10
137.2187592686962
 20
-119.8650114706654
 30
0.0
 10
137.9281263288627
 20
-119.6560831923927
 30
0.0
 10
138.6228644171168
 20
-119.4106482819621
 30
0.0
 10
139.2887322341447
 20
-119.0931675520243
 30
0.0
 10
139.9398669104446
 20
-118.7389202364753
 30
0.0
 10
140.2592706961194
 20
-118.5423512268331
 30
0.0
 10
141.1733235088363
 20
-117.9102047654511
 30
0.0
 10
141.7310278988886
 20
-117.4297364616599
 30
0.0
 10
142.4904759642456
 20
-116.6209229258691
 30
0.0
 10
142.73197261601
 20
-116.3346457889541
 30
0.0
 10
143.1795929867045
 20
-115.7423748300099
 30
0.0
 10
143.3860753038242
 20
-115.4364447812529
 30
0.0
 10
143.7652531990973
 20
-114.8054874851376
 30
0.0
 10
143.9379471487522
 20
-114.4804593156542
 30
0.0
 10
144.2492611785819
 20
-113.8111442977403
 30
0.0
 10
144.388427146239
 20
-113.4652075976525
 30
0.0
 10
144.7487684487838
 20
-112.408894002192
 30
0.0
 10
144.9107236062427
 20
-111.6906516575934
 30
0.0
 10
145.0825534158482
 20
-110.2269091588291
 30
0.0
 10
145.0904221677305
 20
-109.4744592436295
 30
0.0
 10
144.9493134585482
 20
-108.007705868124
 30
0.0
 10
144.8024942572994
 20
-107.2865926522365
 30
0.0
 10
144.4647296757554
 20
-106.2238270157687
 30
0.0
 10
144.3328581215404
 20
-105.8748542590052
 30
0.0
 10
144.0347160775831
 20
-105.1971369572933
 30
0.0
 10
143.8679865992229
 20
-104.8668867691319
 30
0.0
 10
143.6835194872092
 20
-104.5452836619445
 30
0.0
  0
LINE
  5
356
330
1F
100
AcDbEntity
  8
0
  6
Continuous
 62
     7
370
    15
100
AcDbLine
 10
143.6835187713
 20
-104.5452870791
 30
0.0
 11
137.374896113
 21
-93.5467101996
 31
0.0
  0
LINE
  5
357
330
1F
100
AcDbEntity
  8
0
  6
Continuous
 62
     7
370
    15
100
AcDbLine
 10
39.6208497921
 20
-93.5493626063
 30
0.0
 11
33.3137470523
 21
-104.5452870791
 31
0.0
  0
SPLINE
  5
358
330
1F
100
AcDbEntity
  8
0
  6
Continuous
 62
     7
370
    15
100
AcDbSpline
210
0.0
220
0.0
230
1.0
 70
     8
 71
     3
 72
    54
 73
    50
 74
     0
 42
0.00000001
 43
0.00000001
 12
1.0
 22
0.0
 32
0.0
 13
1.0
 23
0.0
 33
0.0
 40
0.0
 40
0.0
 40
0.0
 40
0.0
 40
0.062500000000001
 40
0.062500000000001
 40
0.0937500000000009
 40
0.0937500000000009
 40
0.1250000000000008
 40
0.1250000000000008
 40
0.1562500000000006
 40
0.1562500000000006
 40
0.1875000000000005
 40
0.1875000000000005
 40
0.2500000000000003
 40
0.2500000000000003
 40
0.3125
 40
0.3125
 40
0.3749999999999998
 40
0.3749999999999998
 40
0.4062499999999997
 40
0.4062499999999997
 40
0.4374999999999996
 40
0.4374999999999996
 40
0.4687499999999995
 40
0.4687499999999995
 40
0.4999999999999994
 40
0.4999999999999994
 40
0.562499999999999
 40
0.562499999999999
 40
0.5937499999999991
 40
0.5937499999999991
 40
0.6249999999999991
 40
0.6249999999999991
 40
0.6562499999999992
 40
0.6562499999999992
 40
0.6874999999999993
 40
0.6874999999999993
 40
0.7499999999999992
 40
0.7499999999999992
 40
0.7812499999999992
 40
0.7812499999999992
 40
0.8124999999999991
 40
0.8124999999999991
 40
0.874999999999999
 40
0.874999999999999
 40
0.937499999999999
 40
0.937499999999999
 40
0.9687499999999994
 40
0.9687499999999994
 40
1.0
 40
1.0
 40
1.0
 40
1.0
 10
33.31374633632392
 20
-104.5452836619441
 30
0.0
 10
32.94567583603854
 20
-105.1869840456257
 30
0.0
 10
32.64929571453857
 20
-105.8599269328799
 30
0.0
 10
32.31198841413907
 20
-106.9160849721975
 30
0.0
 10
32.21721911145975
 20
-107.278213753318
 30
0.0
 10
32.06811753990238
 20
-108.0046365753146
 30
0.0
 10
32.0133665268427
 20
-108.3693148490147
 30
0.0
 10
31.94252123290483
 20
-109.1015344980908
 30
0.0
 10
31.92642853603515
 20
-109.4690759921413
 30
0.0
 10
31.93327627514875
 20
-110.2070490022741
 30
0.0
 10
31.95644756681649
 20
-110.5792951490738
 30
0.0
 10
32.0854569153306
 20
-111.6875548501871
 30
0.0
 10
32.2481546240084
 20
-112.4057030745479
 30
0.0
 10
32.72289054318787
 20
-113.8016990419601
 30
0.0
 10
33.03971566122205
 20
-114.4848830586962
 30
0.0
 10
33.79884610694522
 20
-115.7493221180605
 30
0.0
 10
34.24218882187998
 20
-116.337776900421
 30
0.0
 10
35.0056696082455
 20
-117.1528862546368
 30
0.0
 10
35.27502713213769
 20
-117.4111293554311
 30
0.0
 10
35.83449660474459
 20
-117.8933967705391
 30
0.0
 10
36.12579689660927
 20
-118.1187138658943
 30
0.0
 10
36.73132949181208
 20
-118.5379868966437
 30
0.0
 10
37.0455607230561
 20
-118.7319442985305
 30
0.0
 10
37.69753713427893
 20
-119.0877019657355
 30
0.0
 10
38.03561982998647
 20
-119.2493141384566
 30
0.0
 10
39.06107797371906
 20
-119.6740918453061
 30
0.0
 10
39.76731677559281
 20
-119.8824860681309
 30
0.0
 10
40.86071987634524
 20
-120.0824112504295
 30
0.0
 10
41.23277512787033
 20
-120.1300946772013
 30
0.0
 10
41.97211302955463
 20
-120.18493206705
 30
0.0
 10
42.34090629719945
 20
-120.1925569770999
 30
0.0
 10
43.07677717178502
 20
-120.1690333383404
 30
0.0
 10
43.44385474152681
 20
-120.137883931779
 30
0.0
 10
44.17627138770146
 20
-120.0363043454586
 30
0.0
 10
44.54378895619478
 20
-119.9652664445072
 30
0.0
 10
45.62494224887877
 20
-119.695466236208
 30
0.0
 10
46.31625888574778
 20
-119.4421845951633
 30
0.0
 10
47.30991500301948
 20
-118.9542956990305
 30
0.0
 10
47.63507235084973
 20
-118.772739249135
 30
0.0
 10
48.26473168253886
 20
-118.3753324595384
 30
0.0
 10
48.5663375056853
 20
-118.1615057620184
 30
0.0
 10
49.43276026204865
 20
-117.4761184594347
 30
0.0
 10
49.95961420875925
 20
-116.9611443857049
 30
0.0
 10
50.90803797892151
 20
-115.810808027972
 30
0.0
 10
51.31381893031027
 20
-115.1942199282886
 30
0.0
 10
51.82096278561369
 20
-114.2137615696881
 30
0.0
 10
51.97312817611964
 20
-113.8773763818065
 30
0.0
 10
52.24269482111976
 20
-113.1849088780871
 30
0.0
 10
52.35923982673091
 20
-112.8303408895773
 30
0.0
 10
52.45575734260716
 20
-112.4741642318418
 30
0.0
  0
LINE
  5
359
330
1F
100
AcDbEntity
  8
0
  6
Continuous
 62
     7
370
    15
100
AcDbLine
 10
52.4557563702
 20
-112.4741651481
 30
0.0
 11
55.7720470467
 21
-100.2361469334
 31
0.0
  0
LINE
  5
35A
330
1F
100
AcDbEntity
  8
0
  6
Continuous
 62
     7
370
    15
100
AcDbLine
 10
-13.3523312172
 20
-31.1154455309
 30
0.0
 11
-25.5874586066
 21
-34.4309501713
 31
0.0
  0
SPLINE
  5
35B
330
1F
100
AcDbEntity
  8
0
  6
Continuous
 62
     7
370
    15
100
AcDbSpline
210
0.0
220
0.0
230
1.0
 70
     8
 71
     3
 72
    53
 73
    49
 74
     0
 42
0.00000001
 43
0.00000001
 12
1.0
 22
0.0
 32
0.0
 13
1.0
 23
0.0
 33
0.0
 40
0.0
 40
0.0
 40
0.0
 40
0.0
 40
0.0312499999999993
 40
0.0312499999999993
 40
0.0624999999999987
 40
0.0624999999999987
 40
0.1249999999999987
 40
0.1249999999999987
 40
0.1562499999999987
 40
0.1562499999999987
 40
0.1874999999999987
 40
0.1874999999999987
 40
0.2499999999999982
 40
0.2499999999999982
 40
0.3124999999999978
 40
0.3124999999999978
 40
0.3437499999999976
 40
0.3437499999999976
 40
0.3749999999999973
 40
0.3749999999999973
 40
0.4374999999999962
 40
0.4374999999999962
 40
0.4687499999999957
 40
0.4687499999999957
 40
0.4999999999999951
 40
0.5312499999999946
 40
0.5312499999999946
 40
0.562499999999994
 40
0.562499999999994
 40
0.6249999999999941
 40
0.6249999999999941
 40
0.6562499999999943
 40
0.6562499999999943
 40
0.6874999999999946
 40
0.6874999999999946
 40
0.7187499999999948
 40
0.7187499999999948
 40
0.749999999999995
 40
0.749999999999995
 40
0.8124999999999966
 40
0.8124999999999966
 40
0.8749999999999981
 40
0.8749999999999981
 40
0.9374999999999997
 40
0.9374999999999997
 40
0.9687499999999998
 40
0.9687499999999998
 40
1.0
 40
1.0
 40
1.0
 40
1.0
 10
-25.58745769040409
 20
-34.43094919883023
 30
0.0
 10
-25.94224710608042
 20
-34.5270907968731
 30
0.0
 10
-26.29198698119883
 20
-34.6419155962926
 30
0.0
 10
-26.98119413058463
 20
-34.90957348726663
 30
0.0
 10
-27.32250279294512
 20
-35.06349246095121
 30
0.0
 10
-28.30974555038164
 20
-35.57383656317848
 30
0.0
 10
-28.92349005888177
 20
-35.97887413028786
 30
0.0
 10
-29.77823666691327
 20
-36.68253250682208
 30
0.0
 10
-30.05350010220326
 20
-36.93473286040061
 30
0.0
 10
-30.57365446966724
 20
-37.4653558460402
 30
0.0
 10
-30.81762560727325
 20
-37.7424751956224
 30
0.0
 10
-31.50258759460793
 20
-38.60825305284059
 30
0.0
 10
-31.89773132102029
 20
-39.23209874395216
 30
0.0
 10
-32.5559484089977
 20
-40.57017115839732
 30
0.0
 10
-32.80852575156646
 20
-41.26245029719594
 30
0.0
 10
-33.07665826519946
 20
-42.3344946788992
 30
0.0
 10
-33.14742323749525
 20
-42.69749475759534
 30
0.0
 10
-33.25048226580441
 20
-43.435176418479
 30
0.0
 10
-33.28211798620637
 20
-43.80633226180912
 30
0.0
 10
-33.3177753924928
 20
-44.91300051390318
 30
0.0
 10
-33.26403264786536
 20
-45.64743241754022
 30
0.0
 10
-33.06485954260719
 20
-46.74395976546231
 30
0.0
 10
-32.97830492922733
 20
-47.10819998660056
 30
0.0
 10
-32.76937665095477
 20
-47.81756704676707
 30
0.0
 10
-32.52394174052406
 20
-48.51230513502117
 30
0.0
 10
-32.2064610105863
 20
-49.178172952049
 30
0.0
 10
-31.85221369503736
 20
-49.82930762834891
 30
0.0
 10
-31.65564468539509
 20
-50.14871141402369
 30
0.0
 10
-31.02349822401311
 20
-51.0627642267406
 30
0.0
 10
-30.5430299202219
 20
-51.62046861679288
 30
0.0
 10
-29.73421638443116
 20
-52.37991668214993
 30
0.0
 10
-29.44793924751612
 20
-52.62141333391433
 30
0.0
 10
-28.85566828857188
 20
-53.06903370460886
 30
0.0
 10
-28.54973823981491
 20
-53.27551602172849
 30
0.0
 10
-27.91878094369965
 20
-53.65469391700163
 30
0.0
 10
-27.59375277421626
 20
-53.82738786665649
 30
0.0
 10
-26.92443775630225
 20
-54.13870189648621
 30
0.0
 10
-26.57850105621455
 20
-54.27786786414337
 30
0.0
 10
-25.52218746075398
 20
-54.63820916668814
 30
0.0
 10
-24.80394511615536
 20
-54.80016432414698
 30
0.0
 10
-23.3402026173911
 20
-54.97199413375247
 30
0.0
 10
-22.58775270219145
 20
-54.97986288563475
 30
0.0
 10
-21.12099932668608
 20
-54.83875417645252
 30
0.0
 10
-20.3998861107985
 20
-54.69193497520372
 30
0.0
 10
-19.33712047433073
 20
-54.35417039365969
 30
0.0
 10
-18.98814771756727
 20
-54.22229883944471
 30
0.0
 10
-18.31043041585537
 20
-53.9241567954874
 30
0.0
 10
-17.98018022769399
 20
-53.75742731712719
 30
0.0
 10
-17.65857712050649
 20
-53.5729602051135
 30
0.0
  0
LINE
  5
35C
330
1F
100
AcDbEntity
  8
0
  6
Continuous
 62
     7
370
    15
100
AcDbLine
 10
-17.6585805377
 20
-53.5729594892
 30
0.0
 11
-6.6600036582
 21
-47.2643368309
 31
0.0
  0
LINE
  5
35D
330
1F
100
AcDbEntity
  8
0
  6
Continuous
 62
     7
370
    15
100
AcDbLine
 10
-6.6626560649
 20
50.48970949
 30
0.0
 11
-17.6585805377
 21
56.7968122298
 31
0.0
  0
SPLINE
  5
35E
330
1F
100
AcDbEntity
  8
0
  6
Continuous
 62
     7
370
    15
100
AcDbSpline
210
0.0
220
0.0
230
1.0
 70
     8
 71
     3
 72
    54
 73
    50
 74
     0
 42
0.00000001
 43
0.00000001
 12
1.0
 22
0.0
 32
0.0
 13
1.0
 23
0.0
 33
0.0
 40
0.0
 40
0.0
 40
0.0
 40
0.0
 40
0.0624999999999993
 40
0.0624999999999993
 40
0.0937499999999995
 40
0.0937499999999995
 40
0.1249999999999996
 40
0.1249999999999996
 40
0.1562499999999998
 40
0.1562499999999998
 40
0.1874999999999999
 40
0.1874999999999999
 40
0.2500000000000002
 40
0.2500000000000002
 40
0.3125000000000004
 40
0.3125000000000004
 40
0.3750000000000007
 40
0.3750000000000007
 40
0.4062500000000011
 40
0.4062500000000011
 40
0.4375000000000014
 40
0.4375000000000014
 40
0.4687500000000017
 40
0.4687500000000017
 40
0.5000000000000021
 40
0.5000000000000021
 40
0.5625000000000027
 40
0.5625000000000027
 40
0.5937500000000027
 40
0.5937500000000027
 40
0.6250000000000027
 40
0.6250000000000027
 40
0.6562500000000027
 40
0.6562500000000027
 40
0.6875000000000027
 40
0.6875000000000027
 40
0.7500000000000023
 40
0.7500000000000023
 40
0.7812500000000022
 40
0.7812500000000022
 40
0.8125000000000021
 40
0.8125000000000021
 40
0.8750000000000018
 40
0.8750000000000018
 40
0.9375000000000014
 40
0.9375000000000014
 40
0.9687500000000008
 40
0.9687500000000008
 40
1.0
 40
1.0
 40
1.0
 40
1.0
 10
-17.65857712050608
 20
56.79681294577253
 30
0.0
 10
-18.30027750418772
 20
57.16488344605791
 30
0.0
 10
-18.97322039144196
 20
57.46126356755788
 30
0.0
 10
-20.02937843075958
 20
57.79857086795739
 30
0.0
 10
-20.39150721188007
 20
57.8933401706367
 30
0.0
 10
-21.1179300338767
 20
58.04244174219411
 30
0.0
 10
-21.48260830757677
 20
58.09719275525375
 30
0.0
 10
-22.21482795665283
 20
58.16803804919164
 30
0.0
 10
-22.58236945070331
 20
58.18413074606133
 30
0.0
 10
-23.32034246083616
 20
58.17728300694774
 30
0.0
 10
-23.69258860763582
 20
58.15411171527996
 30
0.0
 10
-24.80084830874914
 20
58.02510236676589
 30
0.0
 10
-25.51899653310996
 20
57.86240465808806
 30
0.0
 10
-26.91499250052211
 20
57.38766873890859
 30
0.0
 10
-27.59817651725822
 20
57.07084362087443
 30
0.0
 10
-28.86261557662252
 20
56.31171317515121
 30
0.0
 10
-29.45107035898299
 20
55.86837046021647
 30
0.0
 10
-30.26617971319885
 20
55.10488967385093
 30
0.0
 10
-30.52442281399311
 20
54.83553214995876
 30
0.0
 10
-31.00669022910106
 20
54.27606267735187
 30
0.0
 10
-31.23200732445627
 20
53.98476238548718
 30
0.0
 10
-31.65128035520576
 20
53.37922979028438
 30
0.0
 10
-31.84523775709254
 20
53.06499855904037
 30
0.0
 10
-32.20099542429752
 20
52.41302214781753
 30
0.0
 10
-32.36260759701862
 20
52.07493945211
 30
0.0
 10
-32.7873853038681
 20
51.04948130837743
 30
0.0
 10
-32.99577952669294
 20
50.34324250650366
 30
0.0
 10
-33.19570470899155
 20
49.24983940575125
 30
0.0
 10
-33.24338813576335
 20
48.87778415422616
 30
0.0
 10
-33.29822552561205
 20
48.13844625254183
 30
0.0
 10
-33.30585043566197
 20
47.76965298489703
 30
0.0
 10
-33.28232679690245
 20
47.03378211031148
 30
0.0
 10
-33.25117739034103
 20
46.66670454056968
 30
0.0
 10
-33.14959780402067
 20
45.93428789439501
 30
0.0
 10
-33.07855990306928
 20
45.56677032590171
 30
0.0
 10
-32.80875969477005
 20
44.48561703321769
 30
0.0
 10
-32.55547805372536
 20
43.7943003963487
 30
0.0
 10
-32.06758915759254
 20
42.80064427907701
 30
0.0
 10
-31.8860327076971
 20
42.47548693124676
 30
0.0
 10
-31.48862591810039
 20
41.84582759955761
 30
0.0
 10
-31.27479922058043
 20
41.54422177641118
 30
0.0
 10
-30.5894119179967
 20
40.67779902004781
 30
0.0
 10
-30.07443784426703
 20
40.15094507333723
 30
0.0
 10
-28.92410148653401
 20
39.20252130317495
 30
0.0
 10
-28.30751338685063
 20
38.79674035178619
 30
0.0
 10
-27.3270550282502
 20
38.28959649648277
 30
0.0
 10
-26.99066984036852
 20
38.13743110597682
 30
0.0
 10
-26.29820233664913
 20
37.86786446097672
 30
0.0
 10
-25.94363434813937
 20
37.75131945536555
 30
0.0
 10
-25.58745769040384
 20
37.6548019394893
 30
0.0
  0
LINE
  5
35F
330
1F
100
AcDbEntity
  8
0
  6
Continuous
 62
     7
370
    15
100
AcDbLine
 10
-25.5874586066
 20
37.6548029119
 30
0.0
 11
-13.3494403919
 21
34.3385122353
 31
0.0
  0
LINE
  5
360
330
1F
100
AcDbEntity
  8
0
  6
Continuous
 62
     7
370
    15
100
AcDbLine
 10
55.7712610105
 20
103.4628904993
 30
0.0
 11
52.4557563702
 21
115.6980178887
 31
0.0
  0
SPLINE
  5
361
330
1F
100
AcDbEntity
  8
0
  6
Continuous
 62
     7
370
    15
100
AcDbSpline
210
0.0
220
0.0
230
1.0
 70
     8
 71
     3
 72
    53
 73
    49
 74
     0
 42
0.00000001
 43
0.00000001
 12
1.0
 22
0.0
 32
0.0
 13
1.0
 23
0.0
 33
0.0
 40
0.0
 40
0.0
 40
0.0
 40
0.0
 40
0.0312500000000011
 40
0.0312500000000011
 40
0.0625000000000023
 40
0.0625000000000023
 40
0.1250000000000035
 40
0.1250000000000035
 40
0.156250000000004
 40
0.156250000000004
 40
0.1875000000000044
 40
0.1875000000000044
 40
0.2500000000000046
 40
0.2500000000000046
 40
0.3125000000000047
 40
0.3125000000000047
 40
0.3437500000000046
 40
0.3437500000000046
 40
0.3750000000000046
 40
0.3750000000000046
 40
0.4375000000000044
 40
0.4375000000000044
 40
0.4687500000000045
 40
0.4687500000000045
 40
0.5000000000000046
 40
0.5312500000000046
 40
0.5312500000000046
 40
0.5625000000000046
 40
0.5625000000000046
 40
0.625000000000004
 40
0.625000000000004
 40
0.6562500000000037
 40
0.6562500000000037
 40
0.6875000000000033
 40
0.6875000000000033
 40
0.7187500000000031
 40
0.7187500000000031
 40
0.7500000000000028
 40
0.7500000000000028
 40
0.8125000000000023
 40
0.8125000000000023
 40
0.875000000000002
 40
0.875000000000002
 40
0.9375000000000016
 40
0.9375000000000016
 40
0.9687500000000009
 40
0.9687500000000009
 40
1.0
 40
1.0
 40
1.0
 40
1.0
 10
52.45575734260876
 20
115.6980169725005
 30
0.0
 10
52.35961574456589
 20
116.0528063881769
 30
0.0
 10
52.24479094514641
 20
116.4025462632952
 30
0.0
 10
51.97713305417236
 20
117.0917534126811
 30
0.0
 10
51.82321408048779
 20
117.4330620750416
 30
0.0
 10
51.31286997826054
 20
118.4203048324781
 30
0.0
 10
50.90783241115116
 20
119.0340493409782
 30
0.0
 10
50.20417403461697
 20
119.8887959490097
 30
0.0
 10
49.95197368103842
 20
120.1640593842997
 30
0.0
 10
49.42135069539885
 20
120.6842137517637
 30
0.0
 10
49.14423134581665
 20
120.9281848893697
 30
0.0
 10
48.27845348859847
 20
121.6131468767044
 30
0.0
 10
47.65460779748688
 20
122.0082906031168
 30
0.0
 10
46.31653538304177
 20
122.6665076910942
 30
0.0
 10
45.62425624424314
 20
122.919085033663
 30
0.0
 10
44.55221186253988
 20
123.187217547296
 30
0.0
 10
44.18921178384372
 20
123.2579825195919
 30
0.0
 10
43.45153012296007
 20
123.361041547901
 30
0.0
 10
43.08037427962994
 20
123.3926772683029
 30
0.0
 10
41.97370602753588
 20
123.4283346745894
 30
0.0
 10
41.23927412389887
 20
123.374591929962
 30
0.0
 10
40.14274677597676
 20
123.1754188247038
 30
0.0
 10
39.77850655483853
 20
123.088864211324
 30
0.0
 10
39.06913949467202
 20
122.8799359330514
 30
0.0
 10
38.3744011146651
 20
122.6345017506931
 30
0.0
 10
37.70853358939005
 20
122.3170202926829
 30
0.0
 10
37.05739891309015
 20
121.962772977134
 30
0.0
 10
36.73799512741535
 20
121.7662039674918
 30
0.0
 10
35.82394231469845
 20
121.1340575061098
 30
0.0
 10
35.26623792464615
 20
120.6535892023185
 30
0.0
 10
34.50678985928911
 20
119.8447756665277
 30
0.0
 10
34.26529320752467
 20
119.5584985296128
 30
0.0
 10
33.81767283683016
 20
118.9662275706685
 30
0.0
 10
33.61119051971053
 20
118.6602975219116
 30
0.0
 10
33.23201262443742
 20
118.0293402257963
 30
0.0
 10
33.05931867478253
 20
117.7043120563129
 30
0.0
 10
32.74800464495278
 20
117.0349970383989
 30
0.0
 10
32.60883867729563
 20
116.6890603383112
 30
0.0
 10
32.24849737475085
 20
115.6327467428507
 30
0.0
 10
32.08654221729198
 20
114.914504398252
 30
0.0
 10
31.91471240768647
 20
113.4507618994878
 30
0.0
 10
31.90684365580419
 20
112.6983119842882
 30
0.0
 10
32.04795236498641
 20
111.2315586087827
 30
0.0
 10
32.1947715662352
 20
110.5104453928952
 30
0.0
 10
32.53253614777921
 20
109.4476797564274
 30
0.0
 10
32.66440770199421
 20
109.0987069996639
 30
0.0
 10
32.96254974595151
 20
108.420989697952
 30
0.0
 10
33.12927922431174
 20
108.0907395097906
 30
0.0
 10
33.3137463363254
 20
107.7691364026032
 30
0.0
  0
LINE
  5
362
330
1F
100
AcDbEntity
  8
0
  6
Continuous
 62
     7
370
    15
100
AcDbLine
 10
33.3137470523
 20
107.7691398198
 30
0.0
 11
39.6223697105
 21
96.7705629403
 31
0.0
  0
LINE
  5
363
330
1F
100
AcDbEntity
  8
0
  6
Continuous
 62
     7
370
    15
100
AcDbLine
 10
137.3764160314
 20
96.773215347
 30
0.0
 11
143.6835187713
 21
107.7691398198
 31
0.0
  0
SPLINE
  5
364
330
1F
100
AcDbEntity
  8
0
  6
Continuous
 62
     7
370
    15
100
AcDbSpline
210
0.0
220
0.0
230
1.0
 70
     8
 71
     3
 72
    54
 73
    50
 74
     0
 42
0.00000001
 43
0.00000001
 12
1.0
 22
0.0
 32
0.0
 13
1.0
 23
0.0
 33
0.0
 40
0.0
 40
0.0
 40
0.0
 40
0.0
 40
0.0624999999999996
 40
0.0624999999999996
 40
0.0937499999999988
 40
0.0937499999999988
 40
0.124999999999998
 40
0.124999999999998
 40
0.1562499999999973
 40
0.1562499999999973
 40
0.1874999999999965
 40
0.1874999999999965
 40
0.249999999999995
 40
0.249999999999995
 40
0.3124999999999935
 40
0.3124999999999935
 40
0.3749999999999921
 40
0.3749999999999921
 40
0.406249999999992
 40
0.406249999999992
 40
0.4374999999999918
 40
0.4374999999999918
 40
0.4687499999999917
 40
0.4687499999999917
 40
0.4999999999999916
 40
0.4999999999999916
 40
0.5624999999999919
 40
0.5624999999999919
 40
0.5937499999999923
 40
0.5937499999999923
 40
0.6249999999999928
 40
0.6249999999999928
 40
0.6562499999999932
 40
0.6562499999999932
 40
0.6874999999999937
 40
0.6874999999999937
 40
0.7499999999999946
 40
0.7499999999999946
 40
0.7812499999999949
 40
0.7812499999999949
 40
0.8124999999999953
 40
0.8124999999999953
 40
0.8749999999999966
 40
0.8749999999999966
 40
0.9374999999999978
 40
0.9374999999999978
 40
0.9687499999999989
 40
0.9687499999999989
 40
1.0
 40
1.0
 40
1.0
 40
1.0
 10
143.6835194872107
 20
107.769136402602
 30
0.0
 10
144.0515899874961
 20
108.4108367862837
 30
0.0
 10
144.347970108996
 20
109.0837796735378
 30
0.0
 10
144.6852774093956
 20
110.1399377128554
 30
0.0
 10
144.7800467120749
 20
110.5020664939759
 30
0.0
 10
144.9291482836322
 20
111.2284893159726
 30
0.0
 10
144.9838992966919
 20
111.5931675896726
 30
0.0
 10
145.0547445906298
 20
112.3253872387487
 30
0.0
 10
145.0708372874995
 20
112.6929287327992
 30
0.0
 10
145.0639895483859
 20
113.430901742932
 30
0.0
 10
145.0408182567182
 20
113.8031478897317
 30
0.0
 10
144.9118089082041
 20
114.911407590845
 30
0.0
 10
144.7491111995263
 20
115.6295558152058
 30
0.0
 10
144.2743752803468
 20
117.025551782618
 30
0.0
 10
143.9575501623127
 20
117.7087357993541
 30
0.0
 10
143.1984197165895
 20
118.9731748587184
 30
0.0
 10
142.7550770016547
 20
119.5616296410789
 30
0.0
 10
141.9915962152892
 20
120.3767389952948
 30
0.0
 10
141.722238691397
 20
120.634982096089
 30
0.0
 10
141.1627692187901
 20
121.117249511197
 30
0.0
 10
140.8714689269254
 20
121.3425666065522
 30
0.0
 10
140.2659363317226
 20
121.7618396373017
 30
0.0
 10
139.9517051004786
 20
121.9557970391884
 30
0.0
 10
139.2997286892558
 20
122.3115547063935
 30
0.0
 10
138.9616459935482
 20
122.4731668791145
 30
0.0
 10
137.9361878498157
 20
122.8979445859641
 30
0.0
 10
137.2299490479419
 20
123.1063388087889
 30
0.0
 10
136.1365459471895
 20
123.3062639910874
 30
0.0
 10
135.7644906956644
 20
123.3539474178593
 30
0.0
 10
135.0251527939801
 20
123.4087848077079
 30
0.0
 10
134.6563595263353
 20
123.4164097177579
 30
0.0
 10
133.9204886517497
 20
123.3928860789983
 30
0.0
 10
133.5534110820079
 20
123.361736672437
 30
0.0
 10
132.8209944358332
 20
123.2601570861166
 30
0.0
 10
132.4534768673399
 20
123.1891191851651
 30
0.0
 10
131.372323574656
 20
122.9193189768661
 30
0.0
 10
130.6810069377869
 20
122.6660373358213
 30
0.0
 10
129.6873508205152
 20
122.1781484396885
 30
0.0
 10
129.362193472685
 20
121.996591989793
 30
0.0
 10
128.7325341409958
 20
121.5991852001963
 30
0.0
 10
128.4309283178494
 20
121.3853585026764
 30
0.0
 10
127.564505561486
 20
120.6999712000927
 30
0.0
 10
127.0376516147755
 20
120.184997126363
 30
0.0
 10
126.0892278446131
 20
119.03466076863
 30
0.0
 10
125.6834468932244
 20
118.4180726689466
 30
0.0
 10
125.176303037921
 20
117.4376143103461
 30
0.0
 10
125.024137647415
 20
117.1012291224645
 30
0.0
 10
124.7545710024149
 20
116.4087616187451
 30
0.0
 10
124.6380259968037
 20
116.0541936302353
 30
0.0
 10
124.5415084809275
 20
115.6980169724998
 30
0.0
  0
LINE
  5
365
330
1F
100
AcDbEntity
  8
0
  6
Continuous
 62
     7
370
    15
100
AcDbLine
 10
124.5415094534
 20
115.6980178887
 30
0.0
 11
121.2252187768
 21
103.459999674
 31
0.0
  0
CIRCLE
  5
366
330
1F
100
AcDbEntity
  8
0
  6
Continuous
 62
     8
370
     0
100
AcDbCircle
 10
88.4986329118
 20
1.6119263703
 30
0.0
 40
83.0
  0
INSERT
  5
372
330
1F
100
AcDbEntity
  8
0
  6
Continuous
 62
     7
370
     0
100
AcDbBlockReference
  2
SW_CENTERMARKSYMBOL_0
 10
88.4986329118
 20
1.6119263703
 30
0.0
  0
ENDSEC
  0
SECTION
  2
OBJECTS
  0
DICTIONARY
  5
C
330
0
100
AcDbDictionary
281
     1
  3
ACAD_GROUP
350
D
  3
ACAD_LAYOUT
350
1A
  3
ACAD_MLINESTYLE
350
17
  3
ACAD_PLOTSETTINGS
350
19
  3
ACAD_PLOTSTYLENAME
350
E
  0
DICTIONARY
  5
D
102
{ACAD_REACTORS
330
C
102
}
330
C
100
AcDbDictionary
281
     1
  0
DICTIONARY
  5
1A
102
{ACAD_REACTORS
330
C
102
}
330
C
100
AcDbDictionary
281
     1
  3
Layout1
350
1E
  3
Layout2
350
26
  3
Model
350
22
  0
DICTIONARY
  5
17
102
{ACAD_REACTORS
330
C
102
}
330
C
100
AcDbDictionary
281
     1
  3
Standard
350
18
  0
DICTIONARY
  5
19
102
{ACAD_REACTORS
330
C
102
}
330
C
100
AcDbDictionary
281
     1
  0
ACDBDICTIONARYWDFLT
  5
E
102
{ACAD_REACTORS
330
C
102
}
330
C
100
AcDbDictionary
281
     1
  3
Normal
350
F
100
AcDbDictionaryWithDefault
340
F
  0
LAYOUT
  5
1E
102
{ACAD_REACTORS
330
1A
102
}
330
1A
100
AcDbPlotSettings
  1

  2
none_device
  4

  6

 40
0.0
 41
0.0
 42
0.0
 43
0.0
 44
0.0
 45
0.0
 46
0.0
 47
0.0
 48
0.0
 49
0.0
140
0.0
141
0.0
142
1.0
143
1.0
 70
   688
 72
     0
 73
     0
 74
     5
  7

 75
    16
147
1.0
148
0.0
149
0.0
100
AcDbLayout
  1
Layout1
 70
     1
 71
     1
 10
0.0
 20
0.0
 11
420.0
 21
297.0
 12
0.0
 22
0.0
 32
0.0
 14
1.0000000000E+20
 24
1.0000000000E+20
 34
1.0000000000E+20
 15
-1.0000000000E+20
 25
-1.0000000000E+20
 35
-1.0000000000E+20
146
0.0
 13
0.0
 23
0.0
 33
0.0
 16
1.0
 26
0.0
 36
0.0
 17
0.0
 27
1.0
 37
0.0
 76
     0
330
1B
  0
LAYOUT
  5
26
102
{ACAD_REACTORS
330
1A
102
}
330
1A
100
AcDbPlotSettings
  1

  2
none_device
  4

  6

 40
0.0
 41
0.0
 42
0.0
 43
0.0
 44
0.0
 45
0.0
 46
0.0
 47
0.0
 48
0.0
 49
0.0
140
0.0
141
0.0
142
1.0
143
1.0
 70
   688
 72
     0
 73
     0
 74
     5
  7

 75
    16
147
1.0
148
0.0
149
0.0
100
AcDbLayout
  1
Layout2
 70
     1
 71
     2
 10
0.0
 20
0.0
 11
0.0
 21
0.0
 12
0.0
 22
0.0
 32
0.0
 14
0.0
 24
0.0
 34
0.0
 15
0.0
 25
0.0
 35
0.0
146
0.0
 13
0.0
 23
0.0
 33
0.0
 16
1.0
 26
0.0
 36
0.0
 17
0.0
 27
1.0
 37
0.0
 76
     0
330
23
  0
LAYOUT
  5
22
102
{ACAD_REACTORS
330
1A
102
}
330
1A
100
AcDbPlotSettings
  1

  2
none_device
  4

  6

 40
0.0
 41
0.0
 42
0.0
 43
0.0
 44
0.0
 45
0.0
 46
0.0
 47
0.0
 48
0.0
 49
0.0
140
0.0
141
0.0
142
1.0
143
1.0
 70
  1712
 72
     0
 73
     0
 74
     0
  7

 75
     0
147
1.0
148
0.0
149
0.0
100
AcDbLayout
  1
Model
 70
     1
 71
     0
 10
0.0
 20
0.0
 11
431.8
 21
279.4
 12
0.0
 22
0.0
 32
0.0
 14
0.0
 24
0.0
 34
0.0
 15
431.8
 25
279.4
 35
0.0
146
0.0
 13
0.0
 23
0.0
 33
0.0
 16
1.0
 26
0.0
 36
0.0
 17
0.0
 27
1.0
 37
0.0
 76
     0
330
1F
331
29
  0
MLINESTYLE
  5
18
102
{ACAD_REACTORS
330
17
102
}
330
17
100
AcDbMlineStyle
  2
Standard
 70
     0
  3

 62
   256
 51
90.0
 52
90.0
 71
     2
 49
0.5
 62
   256
  6
BYLAYER
 49
-0.5
 62
   256
  6
BYLAYER
  0
ACDBPLACEHOLDER
  5
F
102
{ACAD_REACTORS
330
E
102
}
330
E
  0
ENDSEC
  0
EOF
