  0
SECTION
  2
HEADER
  9
$ACADVER
  1
AC1009
  9
$DWGCODEPAGE
  3
ansi_1252
  9
$INSBASE
 10
0.0
 20
0.0
 30
0.0
  9
$EXTMIN
 10
0.0
 20
0.0
 30
0.0
  9
$EXTMAX
 10
6000.0
 20
4500.0
 30
0.0
  9
$LIMMIN
 10
0.0
 20
0.0
  9
$LIMMAX
 10
6000.0
 20
4500.0
  9
$ORTHOMODE
 70
     0
  9
$REGENMODE
 70
     1
  9
$FILLMODE
 70
     1
  9
$QTEXTMODE
 70
     0
  9
$MIRRTEXT
 70
     1
  9
$DRAGMODE
 70
     2
  9
$LTSCALE
 40
1.0
  9
$OSMODE
 70
    37
  9
$ATTMODE
 70
     1
  9
$TEXTSIZE
 40
3.5
  9
$TRACEWID
 40
1.0
  9
$TEXTSTYLE
  7
STANDARD
  9
$CLAYER
  8
0
  9
$CELTYPE
  6
BYLAYER
  9
$CECOLOR
 62
   256
  9
$DIMSCALE
 40
1.0
  9
$DIMASZ
 40
3.302
  9
$DIMEXO
 40
1.0
  9
$DIMDLI
 40
3.75
  9
$DIMRND
 40
0.0
  9
$DIMDLE
 40
0.0
  9
$DIMEXE
 40
1.0
  9
$DIMTP
 40
0.0
  9
$DIMTM
 40
0.0
  9
$DIMTXT
 40
3.5
  9
$DIMCEN
 40
2.5
  9
$DIMTSZ
 40
0.0
  9
$DIMTOL
 70
     0
  9
$DIMLIM
 70
     0
  9
$DIMTIH
 70
     1
  9
$DIMTOH
 70
     1
  9
$DIMSE1
 70
     0
  9
$DIMSE2
 70
     0
  9
$DIMTAD
 70
     1
  9
$DIMZIN
 70
     0
  9
$DIMBLK
  1

  9
$DIMASO
 70
     1
  9
$DIMSHO
 70
     1
  9
$DIMPOST
  1

  9
$DIMAPOST
  1

  9
$DIMALT
 70
     0
  9
$DIMALTD
 70
     3
  9
$DIMALTF
 40
0.0393700787
  9
$DIMLFAC
 40
1.0
  9
$DIMTOFL
 70
     1
  9
$DIMTVP
 40
0.0
  9
$DIMTIX
 70
     0
  9
$DIMSOXD
 70
     0
  9
$DIMSAH
 70
     0
  9
$DIMBLK1
  1

  9
$DIMBLK2
  1

  9
$DIMSTYLE
  2
ISO-25
  9
$DIMCLRD
 70
     0
  9
$DIMCLRE
 70
     0
  9
$DIMCLRT
 70
     0
  9
$DIMTFAC
 40
1.0
  9
$DIMGAP
 40
1.524
  9
$LUNITS
 70
     2
  9
$LUPREC
 70
     2
  9
$SKETCHINC
 40
1.0
  9
$FILLETRAD
 40
10.0
  9
$AUNITS
 70
     0
  9
$AUPREC
 70
     2
  9
$MENU
  1
.
  9
$ELEVATION
 40
0.0
  9
$PELEVATION
 40
0.0
  9
$THICKNESS
 40
0.0
  9
$LIMCHECK
 70
     0
  9
$CHAMFERA
 40
10.0
  9
$CHAMFERB
 40
10.0
  9
$SKPOLY
 70
     0
  9
$TDCREATE
 40
2458222.330684236
  9
$TDUPDATE
 40
2458222.330684965
  9
$TDINDWG
 40
0.0000000116
  9
$TDUSRTIMER
 40
0.0000000116
  9
$USRTIMER
 70
     1
  9
$ANGBASE
 50
0.0
  9
$ANGDIR
 70
     0
  9
$PDMODE
 70
     0
  9
$PDSIZE
 40
-1.0
  9
$PLINEWID
 40
0.0
  9
$COORDS
 70
     1
  9
$SPLFRAME
 70
     0
  9
$SPLINETYPE
 70
     6
  9
$SPLINESEGS
 70
     8
  9
$ATTDIA
 70
     0
  9
$ATTREQ
 70
     1
  9
$HANDLING
 70
     1
  9
$HANDSEED
  5
3AF
  9
$SURFTAB1
 70
     6
  9
$SURFTAB2
 70
     6
  9
$SURFTYPE
 70
     6
  9
$SURFU
 70
     6
  9
$SURFV
 70
     6
  9
$UCSNAME
  2

  9
$UCSORG
 10
0.0
 20
0.0
 30
0.0
  9
$UCSXDIR
 10
1.0
 20
0.0
 30
0.0
  9
$UCSYDIR
 10
0.0
 20
1.0
 30
0.0
  9
$PUCSNAME
  2

  9
$PUCSORG
 10
0.0
 20
0.0
 30
0.0
  9
$PUCSXDIR
 10
1.0
 20
0.0
 30
0.0
  9
$PUCSYDIR
 10
0.0
 20
1.0
 30
0.0
  9
$USERI1
 70
     0
  9
$USERI2
 70
     0
  9
$USERI3
 70
     0
  9
$USERI4
 70
     0
  9
$USERI5
 70
     0
  9
$USERR1
 40
0.0
  9
$USERR2
 40
0.0
  9
$USERR3
 40
0.0
  9
$USERR4
 40
0.0
  9
$USERR5
 40
0.0
  9
$WORLDVIEW
 70
     1
  9
$SHADEDGE
 70
     3
  9
$SHADEDIF
 70
    70
  9
$TILEMODE
 70
     1
  9
$MAXACTVP
 70
    64
  9
$PLIMCHECK
 70
     0
  9
$PEXTMIN
 10
1.0000000000E+20
 20
1.0000000000E+20
 30
1.0000000000E+20
  9
$PEXTMAX
 10
-1.0000000000E+20
 20
-1.0000000000E+20
 30
-1.0000000000E+20
  9
$PLIMMIN
 10
0.0
 20
0.0
  9
$PLIMMAX
 10
420.0
 20
297.0
  9
$UNITMODE
 70
     0
  9
$VISRETAIN
 70
     1
  9
$PLINEGEN
 70
     0
  9
$PSLTSCALE
 70
     1
  0
ENDSEC
  0
SECTION
  2
TABLES
  0
TABLE
  2
VPORT
 70
     1
  0
VPORT
  2
*ACTIVE
 70
     0
 10
0.0
 20
0.0
 11
1.0
 21
1.0
 12
3000.0
 22
2250.0
 13
0.0
 23
0.0
 14
10.0
 24
10.0
 15
10.0
 25
10.0
 16
0.0
 26
0.0
 36
1.0
 17
0.0
 27
0.0
 37
0.0
 40
4500.0
 41
1.3333333333
 42
50.0
 43
0.0
 44
0.0
 50
0.0
 51
0.0
 71
     0
 72
  2000
 73
     1
 74
     3
 75
     0
 76
     0
 77
     0
 78
     0
  0
ENDTAB
  0
TABLE
  2
LTYPE
 70
     6
  0
LTYPE
  2
CONTINUOUS
 70
     0
  3
Solid line
 72
    65
 73
     0
 40
0.0
  0
LTYPE
  2
HIDDEN
 70
     0
  3
Hidden __ __ __ __ __ __ __ __ __ __ __ __ __ __
 72
    65
 73
     2
 40
1.905
 49
1.27
 49
-0.635
  0
LTYPE
  2
PHANTOM
 70
     0
  3
Phantom ______  __  __  ______  __  __  ______
 72
    65
 73
     6
 40
12.7
 49
6.35
 49
-1.27
 49
1.27
 49
-1.27
 49
1.27
 49
-1.27
  0
LTYPE
  2
CENTER
 70
     0
  3
Center ____ _ ____ _ ____ _ ____ _ ____ _ ____
 72
    65
 73
     4
 40
10.16
 49
6.35
 49
-1.27
 49
1.27
 49
-1.27
  0
LTYPE
  2
CENTERX2
 70
     0
  3
Center (2x) ________  __  ________  __  _____
 72
    65
 73
     4
 40
20.32
 49
12.7
 49
-2.54
 49
2.54
 49
-2.54
  0
LTYPE
  2
DOT2
 70
     0
  3
Dot (.5x) ........................................
 72
    65
 73
     2
 40
0.635
 49
0.0
 49
-0.635
  0
ENDTAB
  0
TABLE
  2
LAYER
 70
     3
  0
LAYER
  2
0
 70
     0
 62
     7
  6
CONTINUOUS
  0
LAYER
  2
FORMAT
 70
     0
 62
     7
  6
CONTINUOUS
  0
LAYER
  2
PROTOTYPE
 70
     0
 62
    -7
  6
CONTINUOUS
  0
ENDTAB
  0
TABLE
  2
STYLE
 70
     1
  0
STYLE
  2
STANDARD
 70
     0
 40
0.0
 41
1.0
 50
0.0
 71
     0
 42
3.5
  3
txt
  4

  0
ENDTAB
  0
TABLE
  2
VIEW
 70
     0
  0
ENDTAB
  0
TABLE
  2
UCS
 70
     0
  0
ENDTAB
  0
TABLE
  2
APPID
 70
     1
  0
APPID
  2
ACAD
 70
     0
  0
ENDTAB
  0
TABLE
  2
DIMSTYLE
 70
     1
  0
DIMSTYLE
  2
ISO-25
 70
     0
  3

  4

  5

  6

  7

 40
1.0
 41
2.5
 42
0.625
 43
3.75
 44
1.25
 45
0.0
 46
0.0
 47
0.0
 48
0.0
140
2.5
141
2.5
142
0.0
143
0.0393700787
144
1.0
145
0.0
146
1.0
147
0.625
 71
     0
 72
     0
 73
     0
 74
     0
 75
     0
 76
     0
 77
     1
 78
     8
170
     0
171
     3
172
     1
173
     0
174
     0
175
     0
176
     0
177
     0
178
     0
  0
ENDTAB
  0
ENDSEC
  0
SECTION
  2
BLOCKS
  0
BLOCK
  8
0
  2
$MODEL_SPACE
 70
     0
 10
0.0
 20
0.0
 30
0.0
  3
$MODEL_SPACE
  1

  0
ENDBLK
  5
21
  8
0
  0
BLOCK
 67
     1
  8
0
  2
$PAPER_SPACE
 70
     0
 10
0.0
 20
0.0
 30
0.0
  3
$PAPER_SPACE
  1

  0
ENDBLK
  5
1D
 67
     1
  8
0
  0
BLOCK
  8
0
  2
SW_CENTERMARKSYMBOL_0
 70
     0
 10
0.0
 20
0.0
 30
0.0
  3
SW_CENTERMARKSYMBOL_0
  1

  0
LINE
  5
E8
  8
FORMAT
 62
     0
 10
0.0
 20
0.0
 30
0.0
 11
0.0
 21
2.5
 31
0.0
  0
LINE
  5
E9
  8
FORMAT
 62
     0
 10
0.0
 20
0.0
 30
0.0
 11
-2.5
 21
0.0
 31
0.0
  0
LINE
  5
EA
  8
FORMAT
 62
     0
 10
0.0
 20
0.0
 30
0.0
 11
0.0
 21
-2.5
 31
0.0
  0
LINE
  5
EB
  8
FORMAT
 62
     0
 10
0.0
 20
0.0
 30
0.0
 11
2.5
 21
0.0
 31
0.0
  0
LINE
  5
EC
  8
FORMAT
 62
     0
 10
0.0
 20
5.0
 30
0.0
 11
0.0
 21
1105.6957544753
 31
0.0
  0
LINE
  5
ED
  8
FORMAT
 62
     0
 10
-5.0
 20
0.0
 30
0.0
 11
-1567.4615731083
 21
0.0
 31
0.0
  0
LINE
  5
EE
  8
FORMAT
 62
     0
 10
0.0
 20
-5.0
 30
0.0
 11
0.0
 21
-1110.9968195759
 31
0.0
  0
LINE
  5
EF
  8
FORMAT
 62
     0
 10
5.0
 20
0.0
 30
0.0
 11
1307.0104234066
 21
0.0
 31
0.0
  0
ENDBLK
  5
E7
  8
0
  0
BLOCK
  8
0
  2
SW_CENTERMARKSYMBOL_1
 70
     0
 10
0.0
 20
0.0
 30
0.0
  3
SW_CENTERMARKSYMBOL_1
  1

  0
LINE
  5
2E8
  8
FORMAT
 62
     0
 10
0.0
 20
0.0
 30
0.0
 11
0.0
 21
2.5
 31
0.0
  0
LINE
  5
2E9
  8
FORMAT
 62
     0
 10
0.0
 20
0.0
 30
0.0
 11
-2.5
 21
0.0
 31
0.0
  0
LINE
  5
2EA
  8
FORMAT
 62
     0
 10
0.0
 20
0.0
 30
0.0
 11
0.0
 21
-2.5
 31
0.0
  0
LINE
  5
2EB
  8
FORMAT
 62
     0
 10
0.0
 20
0.0
 30
0.0
 11
2.5
 21
0.0
 31
0.0
  0
LINE
  5
2EC
  8
FORMAT
 62
     0
 10
0.0
 20
5.0
 30
0.0
 11
0.0
 21
1082.151295051
 31
0.0
  0
LINE
  5
2ED
  8
FORMAT
 62
     0
 10
-5.0
 20
0.0
 30
0.0
 11
-494.9639774787
 21
0.0
 31
0.0
  0
LINE
  5
2EE
  8
FORMAT
 62
     0
 10
0.0
 20
-5.0
 30
0.0
 11
0.0
 21
-1117.4101460026
 31
0.0
  0
LINE
  5
2EF
  8
FORMAT
 62
     0
 10
5.0
 20
0.0
 30
0.0
 11
555.2273353738
 21
0.0
 31
0.0
  0
ENDBLK
  5
2E7
  8
0
  0
ENDSEC
  0
SECTION
  2
ENTITIES
  0
ARC
  5
46
  8
0
  6
CONTINUOUS
 62
     7
 10
487.6832558144
 20
3685.7817806408
 30
0.0
 40
12.5
 50
90.0
 51
270.0
  0
ARC
  5
47
  8
0
  6
CONTINUOUS
 62
     7
 10
1162.6832558144
 20
3685.7817806408
 30
0.0
 40
12.5
 50
270.0
 51
90.0
  0
LINE
  5
48
  8
0
  6
CONTINUOUS
 62
     7
 10
487.6832338799
 20
3673.2817634747
 30
0.0
 11
1162.6832458008
 21
3673.2817634747
 31
0.0
  0
LINE
  5
49
  8
0
  6
CONTINUOUS
 62
     7
 10
1162.6832458008
 20
3698.2817992375
 30
0.0
 11
487.6832338799
 21
3698.2817992375
 31
0.0
  0
LINE
  5
4A
  8
0
  6
CONTINUOUS
 62
     7
 10
827.2601934898
 20
3603.336845319
 30
0.0
 11
799.2276522148
 21
3673.2817634747
 31
0.0
  0
LINE
  5
4B
  8
0
  6
CONTINUOUS
 62
     7
 10
781.9904657829
 20
3673.2817634747
 30
0.0
 11
812.6148554314
 21
3596.8699201748
 31
0.0
  0
LINE
  5
4C
  8
0
  6
CONTINUOUS
 62
     7
 10
703.4450146187
 20
3345.7817777798
 30
0.0
 11
770.1832624901
 21
3289.7817835018
 31
0.0
  0
LINE
  5
4D
  8
0
  6
CONTINUOUS
 62
     7
 10
880.1832767952
 20
3289.7817835018
 30
0.0
 11
946.9214054573
 21
3345.7817777798
 31
0.0
  0
LINE
  5
4E
  8
0
  6
CONTINUOUS
 62
     7
 10
946.9214054573
 20
3345.7817777798
 30
0.0
 11
946.9214054573
 21
3400.7817849323
 31
0.0
  0
LINE
  5
4F
  8
0
  6
CONTINUOUS
 62
     7
 10
703.4450146187
 20
3400.7817849323
 30
0.0
 11
703.4450146187
 21
3345.7817777798
 31
0.0
  0
LINE
  5
50
  8
0
  6
CONTINUOUS
 62
     7
 10
869.9088665474
 20
3591.9487222836
 30
0.0
 11
1143.8426944244
 21
3673.2817634747
 31
0.0
  0
LINE
  5
51
  8
0
  6
CONTINUOUS
 62
     7
 10
1087.6287790764
 20
3673.2817634747
 30
0.0
 11
869.8241087425
 21
3608.6138829395
 31
0.0
  0
LINE
  5
52
  8
0
  6
CONTINUOUS
 62
     7
 10
870.1832863319
 20
3608.7205752537
 30
0.0
 11
870.1832863319
 21
3615.2817949459
 31
0.0
  0
LINE
  5
53
  8
0
  6
CONTINUOUS
 62
     7
 10
870.1832863319
 20
3541.9417664215
 30
0.0
 11
870.1832863319
 21
3592.030201833
 31
0.0
  0
LINE
  5
54
  8
0
  6
CONTINUOUS
 62
     7
 10
780.1832529533
 20
3594.0527066395
 30
0.0
 11
780.1832529533
 21
3541.9417664215
 31
0.0
  0
LINE
  5
55
  8
0
  6
CONTINUOUS
 62
     7
 10
780.1832529533
 20
3615.2817949459
 30
0.0
 11
780.1832529533
 21
3606.3225611851
 31
0.0
  0
LINE
  5
56
  8
0
  6
CONTINUOUS
 62
     7
 10
855.1833006371
 20
3400.7817849323
 30
0.0
 11
855.1833006371
 21
3419.7817787335
 31
0.0
  0
LINE
  5
57
  8
0
  6
CONTINUOUS
 62
     7
 10
795.1832386482
 20
3419.7817787335
 30
0.0
 11
795.1832386482
 21
3400.7817849323
 31
0.0
  0
LINE
  5
58
  8
0
  6
CONTINUOUS
 62
     7
 10
835.1832005013
 20
3419.7817787335
 30
0.0
 11
835.1832005013
 21
3541.9417664215
 31
0.0
  0
LINE
  5
59
  8
0
  6
CONTINUOUS
 62
     7
 10
815.1832195747
 20
3541.9417664215
 30
0.0
 11
815.1832195747
 21
3419.7817787335
 31
0.0
  0
LINE
  5
5A
  8
0
  6
CONTINUOUS
 62
     7
 10
780.1832529533
 20
3608.7205752537
 30
0.0
 11
562.7377602089
 21
3673.2817634747
 31
0.0
  0
LINE
  5
5B
  8
0
  6
CONTINUOUS
 62
     7
 10
506.5237852562
 20
3673.2817634747
 30
0.0
 11
780.1832529533
 21
3592.030201833
 31
0.0
  0
LINE
  5
5C
  8
0
  6
CONTINUOUS
 62
     7
 10
930.1832291115
 20
3305.7817861244
 30
0.0
 11
899.251279496
 21
3305.7817861244
 31
0.0
  0
LINE
  5
5D
  8
0
  6
CONTINUOUS
 62
     7
 10
889.1832205284
 20
2835.7817873165
 30
0.0
 11
930.1832291115
 21
2835.7817873165
 31
0.0
  0
LINE
  5
5E
  8
0
  6
CONTINUOUS
 62
     7
 10
845.1308580864
 20
3615.2817949459
 30
0.0
 11
868.3760735024
 21
3673.2817634747
 31
0.0
  0
LINE
  5
5F
  8
0
  6
CONTINUOUS
 62
     7
 10
851.1388870705
 20
3673.2817634747
 30
0.0
 11
827.8936716545
 21
3615.2817949459
 31
0.0
  0
LINE
  5
60
  8
0
  6
CONTINUOUS
 62
     7
 10
3327.1833034981
 20
2863.2817759916
 30
0.0
 11
3367.1832653511
 21
2863.2817759916
 31
0.0
  0
LINE
  5
61
  8
0
  6
CONTINUOUS
 62
     7
 10
3367.1832653511
 20
3278.2817825482
 30
0.0
 11
3327.1833034981
 21
3278.2817825482
 31
0.0
  0
LINE
  5
62
  8
0
  6
CONTINUOUS
 62
     7
 10
3327.1833034981
 20
3278.2817825482
 30
0.0
 11
3282.1832272041
 21
3278.2817825482
 31
0.0
  0
LINE
  5
63
  8
0
  6
CONTINUOUS
 62
     7
 10
3282.1832272041
 20
2863.2817759916
 30
0.0
 11
3327.1833034981
 21
2863.2817759916
 31
0.0
  0
LINE
  5
64
  8
0
  6
CONTINUOUS
 62
     7
 10
930.1832291115
 20
2863.2817759916
 30
0.0
 11
972.1832844246
 21
2863.2817759916
 31
0.0
  0
LINE
  5
65
  8
0
  6
CONTINUOUS
 62
     7
 10
972.1832844246
 20
3278.2817825482
 30
0.0
 11
930.1832291115
 21
3278.2817825482
 31
0.0
  0
LINE
  5
66
  8
0
  6
CONTINUOUS
 62
     7
 10
759.6833082665
 20
2815.7817765877
 30
0.0
 11
889.1832205284
 21
2815.7817765877
 31
0.0
  0
LINE
  5
67
  8
0
  6
CONTINUOUS
 62
     7
 10
759.6833082665
 20
3195.7817867205
 30
0.0
 11
747.6832243431
 21
3195.7817867205
 31
0.0
  0
LINE
  5
68
  8
0
  6
CONTINUOUS
 62
     7
 10
747.6832243431
 20
2945.7817792699
 30
0.0
 11
759.6833082665
 21
2945.7817792699
 31
0.0
  0
LINE
  5
69
  8
0
  6
CONTINUOUS
 62
     7
 10
747.6832243431
 20
3190.7817840383
 30
0.0
 11
735.6832596291
 21
3190.7817840383
 31
0.0
  0
LINE
  5
6A
  8
0
  6
CONTINUOUS
 62
     7
 10
735.6832596291
 20
2950.7817819521
 30
0.0
 11
747.6832243431
 21
2950.7817819521
 31
0.0
  0
ARC
  5
6B
  8
0
  6
CONTINUOUS
 62
     7
 10
819.9882776626
 20
3599.9060820155
 30
0.0
 40
7.941877060778488
 50
202.3518886834
 51
25.2554840913
  0
CIRCLE
  5
6C
  8
0
  6
CONTINUOUS
 62
     7
 10
2127.1832558144
 20
3067.7817806408
 30
0.0
 40
972.9999999999998
  0
CIRCLE
  5
6D
  8
0
  6
CONTINUOUS
 62
     7
 10
2127.1832558144
 20
3067.7817806408
 30
0.0
 40
880.0
  0
CIRCLE
  5
6E
  8
0
  6
CONTINUOUS
 62
     7
 10
2127.1832558144
 20
3067.7817806408
 30
0.0
 40
975.0
  0
LINE
  5
6F
  8
0
  6
CONTINUOUS
 62
     7
 10
2132.1832557026
 20
4125.2817854092
 30
0.0
 11
2527.1832617748
 21
4125.2817854092
 31
0.0
  0
LINE
  5
70
  8
0
  6
CONTINUOUS
 62
     7
 10
2527.1832617748
 20
4099.0462049648
 30
0.0
 11
2527.1832617748
 21
4125.2817854092
 31
0.0
  0
ARC
  5
71
  8
0
  6
CONTINUOUS
 62
     7
 10
2127.1832558144
 20
3067.7817806408
 30
0.0
 40
1057.5
 50
294.9595314087
 51
65.0404685913
  0
LINE
  5
72
  8
0
  6
CONTINUOUS
 62
     7
 10
1727.1832498539
 20
2036.5173563168
 30
0.0
 11
1727.1832498539
 21
2010.2817758724
 31
0.0
  0
ARC
  5
73
  8
0
  6
CONTINUOUS
 62
     7
 10
1647.1832558144
 20
4099.0461744798
 30
0.0
 40
80.00000000000068
 50
294.9595314087
 51
0.0
  0
LINE
  5
74
  8
0
  6
CONTINUOUS
 62
     7
 10
1727.1832498539
 20
4099.0462049648
 30
0.0
 11
1727.1832498539
 21
4125.2817854092
 31
0.0
  0
LINE
  5
75
  8
0
  6
CONTINUOUS
 62
     7
 10
1727.1832498539
 20
4125.2817854092
 30
0.0
 11
2122.1832559261
 21
4125.2817854092
 31
0.0
  0
LINE
  5
76
  8
0
  6
CONTINUOUS
 62
     7
 10
2127.1832558144
 20
4120.2817901776
 30
0.0
 11
2122.1832559261
 21
4125.2817854092
 31
0.0
  0
LINE
  5
77
  8
0
  6
CONTINUOUS
 62
     7
 10
2132.1832557026
 20
4125.2817854092
 30
0.0
 11
2127.1832558144
 21
4120.2817901776
 31
0.0
  0
CIRCLE
  5
78
  8
0
  6
CONTINUOUS
 62
     7
 10
2199.2358308456
 20
4075.2084163972
 30
0.0
 40
25.0
  0
CIRCLE
  5
79
  8
0
  6
CONTINUOUS
 62
     7
 10
2611.2247324016
 20
3954.2375601037
 30
0.0
 40
25.00000000000013
  0
CIRCLE
  5
7A
  8
0
  6
CONTINUOUS
 62
     7
 10
2732.4536989908
 20
3876.3284339744
 30
0.0
 40
25.00000000000005
  0
CIRCLE
  5
7B
  8
0
  6
CONTINUOUS
 62
     7
 10
3013.6390352773
 20
3551.8232572281
 30
0.0
 40
24.99999999999981
  0
CIRCLE
  5
7C
  8
0
  6
CONTINUOUS
 62
     7
 10
3073.5024780641
 20
3420.7406020359
 30
0.0
 40
24.99999999999971
  0
CIRCLE
  5
7D
  8
0
  6
CONTINUOUS
 62
     7
 10
3114.1015904452
 20
3282.4727230893
 30
0.0
 40
25.00000000000011
  0
CIRCLE
  5
7E
  8
0
  6
CONTINUOUS
 62
     7
 10
3134.6098915707
 20
3139.834355672
 30
0.0
 40
24.99999999999974
  0
CIRCLE
  5
7F
  8
0
  6
CONTINUOUS
 62
     7
 10
3134.6098915707
 20
2995.7292056096
 30
0.0
 40
25.0
  0
CIRCLE
  5
80
  8
0
  6
CONTINUOUS
 62
     7
 10
3073.5024780641
 20
2714.8229592457
 30
0.0
 40
25.00000000000036
  0
CIRCLE
  5
81
  8
0
  6
CONTINUOUS
 62
     7
 10
3013.6390352773
 20
2583.7403040536
 30
0.0
 40
25.00000000000013
  0
CIRCLE
  5
82
  8
0
  6
CONTINUOUS
 62
     7
 10
2935.729909148
 20
2462.5113374643
 30
0.0
 40
24.99999999999967
  0
CIRCLE
  5
83
  8
0
  6
CONTINUOUS
 62
     7
 10
2841.3611048128
 20
2353.6039316424
 30
0.0
 40
25.00000000000004
  0
CIRCLE
  5
84
  8
0
  6
CONTINUOUS
 62
     7
 10
2611.2247324016
 20
2181.3260011779
 30
0.0
 40
25.00000000000005
  0
CIRCLE
  5
85
  8
0
  6
CONTINUOUS
 62
     7
 10
2480.1420772095
 20
2121.462558391
 30
0.0
 40
25.00000000000013
  0
CIRCLE
  5
86
  8
0
  6
CONTINUOUS
 62
     7
 10
2341.8741982629
 20
2080.8634460099
 30
0.0
 40
25.00000000000024
  0
CIRCLE
  5
87
  8
0
  6
CONTINUOUS
 62
     7
 10
2199.2358308456
 20
2060.3551448845
 30
0.0
 40
24.99999999999929
  0
CIRCLE
  5
88
  8
0
  6
CONTINUOUS
 62
     7
 10
2055.1306807831
 20
2060.3551448845
 30
0.0
 40
25.00000000000045
  0
CIRCLE
  5
89
  8
0
  6
CONTINUOUS
 62
     7
 10
1912.4923133659
 20
2080.8634460099
 30
0.0
 40
25.00000000000004
  0
CIRCLE
  5
8A
  8
0
  6
CONTINUOUS
 62
     7
 10
1774.2244344193
 20
2121.462558391
 30
0.0
 40
25.00000000000002
  0
CIRCLE
  5
8B
  8
0
  6
CONTINUOUS
 62
     7
 10
1643.1417792271
 20
2181.3260011779
 30
0.0
 40
24.99999999999992
  0
CIRCLE
  5
8C
  8
0
  6
CONTINUOUS
 62
     7
 10
1521.9128126379
 20
2259.2351273072
 30
0.0
 40
25.00000000000025
  0
CIRCLE
  5
8D
  8
0
  6
CONTINUOUS
 62
     7
 10
1413.005406816
 20
2353.6039316424
 30
0.0
 40
24.99999999999974
  0
CIRCLE
  5
8E
  8
0
  6
CONTINUOUS
 62
     7
 10
1318.6366024808
 20
2462.5113374643
 30
0.0
 40
24.99999999999959
  0
CIRCLE
  5
8F
  8
0
  6
CONTINUOUS
 62
     7
 10
1240.7274763514
 20
2583.7403040536
 30
0.0
 40
24.99999999999969
  0
CIRCLE
  5
90
  8
0
  6
CONTINUOUS
 62
     7
 10
1180.8640335646
 20
2714.8229592457
 30
0.0
 40
24.99999999999994
  0
CIRCLE
  5
91
  8
0
  6
CONTINUOUS
 62
     7
 10
1140.2649211835
 20
2853.0908381923
 30
0.0
 40
24.99999999999967
  0
CIRCLE
  5
92
  8
0
  6
CONTINUOUS
 62
     7
 10
1119.756620058
 20
2995.7292056096
 30
0.0
 40
25.00000000000016
  0
CIRCLE
  5
93
  8
0
  6
CONTINUOUS
 62
     7
 10
1119.756620058
 20
3139.834355672
 30
0.0
 40
25.0
  0
CIRCLE
  5
94
  8
0
  6
CONTINUOUS
 62
     7
 10
1140.2649211835
 20
3282.4727230893
 30
0.0
 40
25.00000000000022
  0
CIRCLE
  5
95
  8
0
  6
CONTINUOUS
 62
     7
 10
1180.8640335646
 20
3420.7406020359
 30
0.0
 40
25.00000000000024
  0
CIRCLE
  5
96
  8
0
  6
CONTINUOUS
 62
     7
 10
1240.7274763514
 20
3551.8232572281
 30
0.0
 40
25.00000000000022
  0
CIRCLE
  5
97
  8
0
  6
CONTINUOUS
 62
     7
 10
1318.6366024808
 20
3673.0522238173
 30
0.0
 40
25.00000000000005
  0
CIRCLE
  5
98
  8
0
  6
CONTINUOUS
 62
     7
 10
1413.005406816
 20
3781.9596296392
 30
0.0
 40
25.00000000000038
  0
CIRCLE
  5
99
  8
0
  6
CONTINUOUS
 62
     7
 10
1521.9128126379
 20
3876.3284339744
 30
0.0
 40
25.00000000000008
  0
CIRCLE
  5
9A
  8
0
  6
CONTINUOUS
 62
     7
 10
1643.1417792271
 20
3954.2375601037
 30
0.0
 40
25.00000000000044
  0
CIRCLE
  5
9B
  8
0
  6
CONTINUOUS
 62
     7
 10
1774.2244344193
 20
4014.1010028906
 30
0.0
 40
24.99999999999994
  0
CIRCLE
  5
9C
  8
0
  6
CONTINUOUS
 62
     7
 10
1912.4923133659
 20
4054.7001152717
 30
0.0
 40
25.00000000000024
  0
CIRCLE
  5
9D
  8
0
  6
CONTINUOUS
 62
     7
 10
2055.1306807832
 20
4075.2084163972
 30
0.0
 40
25.00000000000019
  0
LINE
  5
9E
  8
0
  6
CONTINUOUS
 62
     7
 10
1727.1832498539
 20
2010.2817758724
 30
0.0
 11
2527.1832617748
 21
2010.2817758724
 31
0.0
  0
CIRCLE
  5
9F
  8
0
  6
CONTINUOUS
 62
     7
 10
2732.4536989908
 20
2259.2351273072
 30
0.0
 40
25.00000000000008
  0
ARC
  5
A0
  8
0
  6
CONTINUOUS
 62
     7
 10
2607.1832558144
 20
4099.0461744798
 30
0.0
 40
80.00000000000077
 50
180.0
 51
245.0404685913
  0
ARC
  5
A1
  8
0
  6
CONTINUOUS
 62
     7
 10
1647.1832558144
 20
2036.5173868019
 30
0.0
 40
80.00000000000026
 50
0.0
 51
65.0404685913
  0
ARC
  5
A2
  8
0
  6
CONTINUOUS
 62
     7
 10
2607.1832558144
 20
2036.5173868019
 30
0.0
 40
80.00000000000036
 50
114.9595314087
 51
180.0
  0
CIRCLE
  5
A3
  8
0
  6
CONTINUOUS
 62
     7
 10
3114.1015904452
 20
2853.0908381923
 30
0.0
 40
25.00000000000019
  0
CIRCLE
  5
A4
  8
0
  6
CONTINUOUS
 62
     7
 10
2341.8741982629
 20
4054.7001152717
 30
0.0
 40
24.99999999999981
  0
CIRCLE
  5
A5
  8
0
  6
CONTINUOUS
 62
     7
 10
2935.729909148
 20
3673.0522238173
 30
0.0
 40
25.00000000000038
  0
CIRCLE
  5
A6
  8
0
  6
CONTINUOUS
 62
     7
 10
2841.3611048128
 20
3781.9596296392
 30
0.0
 40
24.99999999999969
  0
ARC
  5
A7
  8
0
  6
CONTINUOUS
 62
     7
 10
2127.1832558144
 20
3067.7817806408
 30
0.0
 40
1057.5
 50
114.9595314087
 51
245.0404685913
  0
LINE
  5
A8
  8
0
  6
CONTINUOUS
 62
     7
 10
2527.1832617748
 20
2036.5173563168
 30
0.0
 11
2527.1832617748
 21
2010.2817758724
 31
0.0
  0
CIRCLE
  5
A9
  8
0
  6
CONTINUOUS
 62
     7
 10
2480.1420772095
 20
4014.1010028906
 30
0.0
 40
24.99999999999993
  0
LINE
  5
AA
  8
0
  6
CONTINUOUS
 62
     7
 10
703.4450146187
 20
3345.7817777798
 30
0.0
 11
946.9214054573
 21
3345.7817777798
 31
0.0
  0
LINE
  5
AB
  8
0
  6
CONTINUOUS
 62
     7
 10
703.4450146187
 20
3400.7817849323
 30
0.0
 11
946.9214054573
 21
3400.7817849323
 31
0.0
  0
LINE
  5
AC
  8
0
  6
CONTINUOUS
 62
     7
 10
922.6832958687
 20
2992.7817776606
 30
0.0
 11
922.6832958687
 21
3148.7817808792
 31
0.0
  0
LINE
  5
AD
  8
0
  6
CONTINUOUS
 62
     7
 10
889.1832205284
 20
2921.8405976698
 30
0.0
 11
922.6832958687
 21
2992.7817776606
 31
0.0
  0
LINE
  5
AE
  8
0
  6
CONTINUOUS
 62
     7
 10
889.1832205284
 20
2904.2817845747
 30
0.0
 11
889.1832205284
 21
2921.8405976698
 31
0.0
  0
LINE
  5
AF
  8
0
  6
CONTINUOUS
 62
     7
 10
759.6833082665
 20
2904.2817845747
 30
0.0
 11
889.1832205284
 21
2904.2817845747
 31
0.0
  0
LINE
  5
B0
  8
0
  6
CONTINUOUS
 62
     7
 10
759.6833082665
 20
2904.2817845747
 30
0.0
 11
759.6833082665
 21
3237.2817739651
 31
0.0
  0
LINE
  5
B1
  8
0
  6
CONTINUOUS
 62
     7
 10
759.6833082665
 20
3237.2817739651
 30
0.0
 11
889.1832205284
 21
3237.2817739651
 31
0.0
  0
LINE
  5
B2
  8
0
  6
CONTINUOUS
 62
     7
 10
889.1832205284
 20
3219.72296087
 30
0.0
 11
889.1832205284
 21
3237.2817739651
 31
0.0
  0
LINE
  5
B3
  8
0
  6
CONTINUOUS
 62
     7
 10
922.6832958687
 20
3148.7817808792
 30
0.0
 11
889.1832205284
 21
3219.72296087
 31
0.0
  0
LINE
  5
B4
  8
0
  6
CONTINUOUS
 62
     7
 10
759.6833082665
 20
2899.2817744419
 30
0.0
 11
889.1832205284
 21
2899.2817744419
 31
0.0
  0
LINE
  5
B5
  8
0
  6
CONTINUOUS
 62
     7
 10
759.6833082665
 20
2899.2817744419
 30
0.0
 11
759.6833082665
 21
2904.2817845747
 31
0.0
  0
LINE
  5
B6
  8
0
  6
CONTINUOUS
 62
     7
 10
889.1832205284
 20
2899.2817744419
 30
0.0
 11
889.1832205284
 21
2904.2817845747
 31
0.0
  0
LINE
  5
B7
  8
0
  6
CONTINUOUS
 62
     7
 10
759.6833082665
 20
3242.2817840979
 30
0.0
 11
889.1832205284
 21
3242.2817840979
 31
0.0
  0
LINE
  5
B8
  8
0
  6
CONTINUOUS
 62
     7
 10
889.1832205284
 20
3237.2817739651
 30
0.0
 11
889.1832205284
 21
3242.2817840979
 31
0.0
  0
LINE
  5
B9
  8
0
  6
CONTINUOUS
 62
     7
 10
759.6833082665
 20
3237.2817739651
 30
0.0
 11
759.6833082665
 21
3242.2817840979
 31
0.0
  0
LINE
  5
BA
  8
0
  6
CONTINUOUS
 62
     7
 10
780.1832529533
 20
3289.7817835018
 30
0.0
 11
780.1832529533
 21
3242.2817840979
 31
0.0
  0
LINE
  5
BB
  8
0
  6
CONTINUOUS
 62
     7
 10
825.183210038
 20
3289.7817835018
 30
0.0
 11
780.1832529533
 21
3289.7817835018
 31
0.0
  0
LINE
  5
BC
  8
0
  6
CONTINUOUS
 62
     7
 10
870.1832863319
 20
3289.7817835018
 30
0.0
 11
825.183210038
 21
3289.7817835018
 31
0.0
  0
LINE
  5
BD
  8
0
  6
CONTINUOUS
 62
     7
 10
870.1832863319
 20
3242.2817840979
 30
0.0
 11
870.1832863319
 21
3289.7817835018
 31
0.0
  0
LINE
  5
BE
  8
0
  6
CONTINUOUS
 62
     7
 10
770.1832624901
 20
3242.2817840979
 30
0.0
 11
770.1832624901
 21
3289.7817835018
 31
0.0
  0
LINE
  5
BF
  8
0
  6
CONTINUOUS
 62
     7
 10
770.1832624901
 20
3289.7817835018
 30
0.0
 11
780.1832529533
 21
3289.7817835018
 31
0.0
  0
LINE
  5
C0
  8
0
  6
CONTINUOUS
 62
     7
 10
880.1832767952
 20
3289.7817835018
 30
0.0
 11
880.1832767952
 21
3242.2817840979
 31
0.0
  0
LINE
  5
C1
  8
0
  6
CONTINUOUS
 62
     7
 10
870.1832863319
 20
3289.7817835018
 30
0.0
 11
880.1832767952
 21
3289.7817835018
 31
0.0
  0
POLYLINE
  5
C2
  8
0
  6
CONTINUOUS
 62
     7
 66
     1
 10
0.0
 20
0.0
 30
0.0
  0
VERTEX
  5
2F1
  8
0
  6
CONTINUOUS
 62
     7
 10
869.8829981316
 20
3592.0386060879
 30
0.0
  0
VERTEX
  5
2F2
  8
0
  6
CONTINUOUS
 62
     7
 10
869.6506592262
 20
3592.1014889881
 30
0.0
  0
VERTEX
  5
2F3
  8
0
  6
CONTINUOUS
 62
     7
 10
869.200167321
 20
3593.0576666996
 30
0.0
  0
VERTEX
  5
2F4
  8
0
  6
CONTINUOUS
 62
     7
 10
868.7315556038
 20
3594.7781547711
 30
0.0
  0
VERTEX
  5
2F5
  8
0
  6
CONTINUOUS
 62
     7
 10
868.36975541
 20
3597.0713242695
 30
0.0
  0
VERTEX
  5
2F6
  8
0
  6
CONTINUOUS
 62
     7
 10
868.2132336128
 20
3599.707458894
 30
0.0
  0
VERTEX
  5
2F7
  8
0
  6
CONTINUOUS
 62
     7
 10
868.3088394631
 20
3602.4707302258
 30
0.0
  0
VERTEX
  5
2F8
  8
0
  6
CONTINUOUS
 62
     7
 10
868.6497780312
 20
3605.1081165478
 30
0.0
  0
VERTEX
  5
2F9
  8
0
  6
CONTINUOUS
 62
     7
 10
869.1472383965
 20
3607.2274789021
 30
0.0
  0
VERTEX
  5
2FA
  8
0
  6
CONTINUOUS
 62
     7
 10
869.6278902519
 20
3608.4108695194
 30
0.0
  0
VERTEX
  5
2FB
  8
0
  6
CONTINUOUS
 62
     7
 10
869.8313805092
 20
3608.5900410816
 30
0.0
  0
SEQEND
  5
3AE
  8
0
  6
CONTINUOUS
 62
     7
  0
LINE
  5
C3
  8
0
  6
CONTINUOUS
 62
     7
 10
780.1832529533
 20
3615.2817949459
 30
0.0
 11
805.2356811989
 21
3615.2817949459
 31
0.0
  0
LINE
  5
C4
  8
0
  6
CONTINUOUS
 62
     7
 10
822.4728676308
 20
3615.2817949459
 30
0.0
 11
870.1832863319
 21
3615.2817949459
 31
0.0
  0
ARC
  5
C5
  8
0
  6
CONTINUOUS
 62
     7
 10
613.6090319836
 20
3600.223239584
 30
0.0
 40
166.6940706089211
 50
357.8785910889
 51
2.0969156852
  0
LINE
  5
C6
  8
0
  6
CONTINUOUS
 62
     7
 10
819.8659988869
 20
3541.9417664215
 30
0.0
 11
780.1832529533
 21
3541.9417664215
 31
0.0
  0
LINE
  5
C7
  8
0
  6
CONTINUOUS
 62
     7
 10
870.1832863319
 20
3541.9417664215
 30
0.0
 11
819.8659988869
 21
3541.9417664215
 31
0.0
  0
LINE
  5
C8
  8
0
  6
CONTINUOUS
 62
     7
 10
795.1832386482
 20
3419.7817787335
 30
0.0
 11
855.1833006371
 21
3419.7817787335
 31
0.0
  0
LINE
  5
C9
  8
0
  6
CONTINUOUS
 62
     7
 10
930.1832291115
 20
2835.7817873165
 30
0.0
 11
930.1832291115
 21
3305.7817861244
 31
0.0
  0
LINE
  5
CA
  8
0
  6
CONTINUOUS
 62
     7
 10
3367.1832653511
 20
3278.2817825482
 30
0.0
 11
3367.1832653511
 21
2863.2817759916
 31
0.0
  0
LINE
  5
CB
  8
0
  6
CONTINUOUS
 62
     7
 10
3282.1832272041
 20
2863.2817759916
 30
0.0
 11
3282.1832272041
 21
3052.7817809761
 31
0.0
  0
LINE
  5
CC
  8
0
  6
CONTINUOUS
 62
     7
 10
3282.1832272041
 20
3082.7817803055
 30
0.0
 11
3282.1832272041
 21
3278.2817825482
 31
0.0
  0
LINE
  5
CD
  8
0
  6
CONTINUOUS
 62
     7
 10
3184.5769258965
 20
3082.7817803055
 30
0.0
 11
3282.1832272041
 21
3082.7817803055
 31
0.0
  0
LINE
  5
CE
  8
0
  6
CONTINUOUS
 62
     7
 10
3184.5769258965
 20
3052.7817809761
 30
0.0
 11
3282.1832272041
 21
3052.7817809761
 31
0.0
  0
LINE
  5
CF
  8
0
  6
CONTINUOUS
 62
     7
 10
972.1832844246
 20
3082.7817803055
 30
0.0
 11
972.1832844246
 21
3278.2817825482
 31
0.0
  0
LINE
  5
D0
  8
0
  6
CONTINUOUS
 62
     7
 10
972.1832844246
 20
2863.2817759916
 30
0.0
 11
972.1832844246
 21
3052.7817809761
 31
0.0
  0
LINE
  5
D1
  8
0
  6
CONTINUOUS
 62
     7
 10
1069.7895857323
 20
3082.7817803055
 30
0.0
 11
972.1832844246
 21
3082.7817803055
 31
0.0
  0
LINE
  5
D2
  8
0
  6
CONTINUOUS
 62
     7
 10
1069.7895857323
 20
3052.7817809761
 30
0.0
 11
972.1832844246
 21
3052.7817809761
 31
0.0
  0
LINE
  5
D3
  8
0
  6
CONTINUOUS
 62
     7
 10
759.6833082665
 20
2899.2817744419
 30
0.0
 11
759.6833082665
 21
2815.7817765877
 31
0.0
  0
LINE
  5
D4
  8
0
  6
CONTINUOUS
 62
     7
 10
889.1832205284
 20
2899.2817744419
 30
0.0
 11
889.1832205284
 21
2815.7817765877
 31
0.0
  0
LINE
  5
D5
  8
0
  6
CONTINUOUS
 62
     7
 10
889.1832205284
 20
3242.2817840979
 30
0.0
 11
889.1832205284
 21
3297.3336770937
 31
0.0
  0
LINE
  5
D6
  8
0
  6
CONTINUOUS
 62
     7
 10
759.6833082665
 20
3242.2817840979
 30
0.0
 11
759.6833082665
 21
3298.5923334763
 31
0.0
  0
LINE
  5
D7
  8
0
  6
CONTINUOUS
 62
     7
 10
1076.8516632546
 20
2944.860179703
 30
0.0
 11
972.1832844246
 21
2944.860179703
 31
0.0
  0
LINE
  5
D8
  8
0
  6
CONTINUOUS
 62
     7
 10
3177.5148483742
 20
2944.860179703
 30
0.0
 11
3282.1832272041
 21
2944.860179703
 31
0.0
  0
LINE
  5
D9
  8
0
  6
CONTINUOUS
 62
     7
 10
3176.7953011025
 20
3196.7033788368
 30
0.0
 11
3282.1832272041
 21
3196.7033788368
 31
0.0
  0
LINE
  5
DA
  8
0
  6
CONTINUOUS
 62
     7
 10
1077.5712105263
 20
3196.7033788368
 30
0.0
 11
972.1832844246
 21
3196.7033788368
 31
0.0
  0
LINE
  5
DB
  8
0
  6
CONTINUOUS
 62
     7
 10
747.6832243431
 20
2945.7817792699
 30
0.0
 11
747.6832243431
 21
3195.7817867205
 31
0.0
  0
LINE
  5
DC
  8
0
  6
CONTINUOUS
 62
     7
 10
735.6832596291
 20
2950.7817819521
 30
0.0
 11
735.6832596291
 21
3190.7817840383
 31
0.0
  0
LINE
  5
DD
  8
0
  6
CONTINUOUS
 62
     7
 10
1086.4383551109
 20
2880.2817806408
 30
0.0
 11
972.1832844246
 21
2880.2817806408
 31
0.0
  0
LINE
  5
DE
  8
0
  6
CONTINUOUS
 62
     7
 10
3167.9281565178
 20
2880.2817806408
 30
0.0
 11
3282.1832272041
 21
2880.2817806408
 31
0.0
  0
LINE
  5
DF
  8
0
  6
CONTINUOUS
 62
     7
 10
1153.5292836655
 20
3261.281777899
 30
0.0
 11
1127.0005079735
 21
3261.281777899
 31
0.0
  0
LINE
  5
E0
  8
0
  6
CONTINUOUS
 62
     7
 10
1087.5371071327
 20
3261.281777899
 30
0.0
 11
972.1832844246
 21
3261.281777899
 31
0.0
  0
LINE
  5
E1
  8
0
  6
CONTINUOUS
 62
     7
 10
3100.8372279633
 20
3261.281777899
 30
0.0
 11
3127.3660036553
 21
3261.281777899
 31
0.0
  0
LINE
  5
E2
  8
0
  6
CONTINUOUS
 62
     7
 10
3166.829404496
 20
3261.281777899
 30
0.0
 11
3282.1832272041
 21
3261.281777899
 31
0.0
  0
LINE
  5
E3
  8
0
  6
CONTINUOUS
 62
     7
 10
3327.1833034981
 20
3070.7817806669
 30
0.0
 11
3327.1833034981
 21
3278.2817825482
 31
0.0
  0
LINE
  5
E4
  8
0
  6
CONTINUOUS
 62
     7
 10
3327.1833034981
 20
2863.2817759916
 30
0.0
 11
3327.1833034981
 21
3070.7817806669
 31
0.0
  0
INSERT
  5
F0
  8
FORMAT
  2
SW_CENTERMARKSYMBOL_0
 10
2127.1832558144
 20
3067.7817806408
 30
0.0
  0
LINE
  5
F1
  8
0
  6
CONTINUOUS
 62
     7
 10
1152.1832319725
 20
1466.8889156697
 30
0.0
 11
1152.1832319725
 21
1463.8889244912
 31
0.0
  0
LINE
  5
F2
  8
0
  6
CONTINUOUS
 62
     7
 10
3102.1832796562
 20
1463.8889244912
 30
0.0
 11
3102.1832796562
 21
1466.8889156697
 31
0.0
  0
ARC
  5
F3
  8
0
  6
CONTINUOUS
 62
     7
 10
1154.1832558144
 20
1466.8889173386
 30
0.0
 40
2.000000000000227
 50
90.0
 51
180.0
  0
ARC
  5
F4
  8
0
  6
CONTINUOUS
 62
     7
 10
3100.1832558144
 20
1466.8889173386
 30
0.0
 40
2.0
 50
0.0
 51
90.0
  0
ARC
  5
F5
  8
0
  6
CONTINUOUS
 62
     7
 10
1154.1832558144
 20
600.8889173386
 30
0.0
 40
2.000000000000227
 50
180.0
 51
270.0
  0
ARC
  5
F6
  8
0
  6
CONTINUOUS
 62
     7
 10
3100.1832558144
 20
600.8889173386
 30
0.0
 40
2.0
 50
270.0
 51
0.0
  0
LINE
  5
F7
  8
0
  6
CONTINUOUS
 62
     7
 10
1152.1832319725
 20
603.8889101861
 30
0.0
 11
1152.1832319725
 21
600.8889190076
 31
0.0
  0
LINE
  5
F8
  8
0
  6
CONTINUOUS
 62
     7
 10
3102.1832796562
 20
600.8889190076
 30
0.0
 11
3102.1832796562
 21
603.8889101861
 31
0.0
  0
LINE
  5
F9
  8
0
  6
CONTINUOUS
 62
     7
 10
3184.6832605827
 20
1241.3889131663
 30
0.0
 11
3184.6832605827
 21
1463.8889244912
 31
0.0
  0
LINE
  5
FA
  8
0
  6
CONTINUOUS
 62
     7
 10
1069.683251046
 20
1463.8889244912
 30
0.0
 11
1069.683251046
 21
1241.3889131663
 31
0.0
  0
LINE
  5
FB
  8
0
  6
CONTINUOUS
 62
     7
 10
3184.6832605827
 20
603.8889101861
 30
0.0
 11
3184.6832605827
 21
826.388921511
 31
0.0
  0
LINE
  5
FC
  8
0
  6
CONTINUOUS
 62
     7
 10
1069.683251046
 20
826.388921511
 30
0.0
 11
1069.683251046
 21
752.8511396764
 31
0.0
  0
LINE
  5
FD
  8
0
  6
CONTINUOUS
 62
     7
 10
1069.683251046
 20
736.7382458566
 30
0.0
 11
1069.683251046
 21
603.8889101861
 31
0.0
  0
LINE
  5
FE
  8
0
  6
CONTINUOUS
 62
     7
 10
2222.640913986
 20
1075.604785156
 30
0.0
 11
2222.3372283209
 21
1075.604785156
 31
0.0
  0
LINE
  5
FF
  8
0
  6
CONTINUOUS
 62
     7
 10
2264.0843364227
 20
1091.1246760903
 30
0.0
 11
2263.6488201845
 21
1091.1246760903
 31
0.0
  0
LINE
  5
100
  8
0
  6
CONTINUOUS
 62
     7
 10
2264.1128274429
 20
1022.8453426776
 30
0.0
 11
2263.6771919954
 21
1022.8453436089
 31
0.0
  0
LINE
  5
101
  8
0
  6
CONTINUOUS
 62
     7
 10
2263.6773559082
 20
1044.9322899027
 30
0.0
 11
2264.1129913557
 21
1044.932290834
 31
0.0
  0
LINE
  5
102
  8
0
  6
CONTINUOUS
 62
     7
 10
2263.6773559082
 20
969.7001165865
 30
0.0
 11
2264.1129913557
 21
969.7001165865
 31
0.0
  0
ARC
  5
103
  8
0
  6
CONTINUOUS
 62
     7
 10
825.1832558144
 20
773.8889173386
 30
0.0
 40
325.0
 50
270.0
 51
351.902592682
  0
ARC
  5
104
  8
0
  6
CONTINUOUS
 62
     7
 10
825.1832558144
 20
773.8889173386
 30
0.0
 40
325.0000000000001
 50
354.5197242133
 51
81.9133173524
  0
ARC
  5
105
  8
0
  6
CONTINUOUS
 62
     7
 10
825.1832558144
 20
773.8889173386
 30
0.0
 40
325.0
 50
84.5186356818
 51
171.9028642359
  0
ARC
  5
106
  8
0
  6
CONTINUOUS
 62
     7
 10
825.1832558144
 20
773.8889173386
 30
0.0
 40
324.9999999999999
 50
174.5243686733
 51
261.9062279488
  0
ARC
  5
107
  8
0
  6
CONTINUOUS
 62
     7
 10
825.1832558144
 20
773.8889173386
 30
0.0
 40
325.0
 50
264.5213651884
 51
270.0
  0
CIRCLE
  5
108
  8
0
  6
CONTINUOUS
 62
     7
 10
825.1832558144
 20
773.8889173386
 30
0.0
 40
350.0000000000001
  0
LINE
  5
109
  8
0
  6
CONTINUOUS
 62
     7
 10
782.1434113014
 20
787.0668730853
 30
0.0
 11
503.5031410683
 21
820.2236256717
 31
0.0
  0
LINE
  5
10A
  8
0
  6
CONTINUOUS
 62
     7
 10
501.6126009453
 20
804.3357095836
 30
0.0
 11
780.2482220162
 21
771.1795083401
 31
0.0
  0
LINE
  5
10B
  8
0
  6
CONTINUOUS
 62
     7
 10
868.2180019844
 20
760.7115618108
 30
0.0
 11
1146.863398217
 21
727.5542131779
 31
0.0
  0
LINE
  5
10C
  8
0
  6
CONTINUOUS
 62
     7
 10
1148.75393834
 20
743.4421292661
 30
0.0
 11
870.1123568047
 21
776.599030864
 31
0.0
  0
LINE
  5
10D
  8
0
  6
CONTINUOUS
 62
     7
 10
812.0059343804
 20
730.8541945336
 30
0.0
 11
778.8485857475
 21
452.208798301
 31
0.0
  0
LINE
  5
10E
  8
0
  6
CONTINUOUS
 62
     7
 10
794.736442231
 20
450.3181985734
 30
0.0
 11
827.8933140267
 21
728.9597801087
 31
0.0
  0
LINE
  5
10F
  8
0
  6
CONTINUOUS
 62
     7
 10
838.3606049049
 20
816.9236294148
 30
0.0
 11
871.5179535378
 21
1095.5690293727
 31
0.0
  0
LINE
  5
110
  8
0
  6
CONTINUOUS
 62
     7
 10
855.6300970543
 20
1097.4596104739
 30
0.0
 11
822.4731060494
 21
818.8180438397
 31
0.0
  0
LINE
  5
111
  8
0
  6
CONTINUOUS
 62
     7
 10
930.1832291115
 20
1268.8889167426
 30
0.0
 11
889.1832205284
 21
1268.8889167426
 31
0.0
  0
LINE
  5
112
  8
0
  6
CONTINUOUS
 62
     7
 10
3327.1833034981
 20
1241.3889131663
 30
0.0
 11
3184.6621605385
 21
1241.3889131663
 31
0.0
  0
LINE
  5
113
  8
0
  6
CONTINUOUS
 62
     7
 10
3184.6616837013
 20
826.388921511
 30
0.0
 11
3327.1833034981
 21
826.388921511
 31
0.0
  0
LINE
  5
114
  8
0
  6
CONTINUOUS
 62
     7
 10
935.0191923607
 20
826.388921511
 30
0.0
 11
1069.7043510902
 21
826.388921511
 31
0.0
  0
LINE
  5
115
  8
0
  6
CONTINUOUS
 62
     7
 10
1069.7048279274
 20
1241.3889131663
 30
0.0
 11
930.1832291115
 21
1241.3889131663
 31
0.0
  0
LINE
  5
116
  8
0
  6
CONTINUOUS
 62
     7
 10
3327.1833034981
 20
826.388921511
 30
0.0
 11
3367.1832653511
 21
826.388921511
 31
0.0
  0
LINE
  5
117
  8
0
  6
CONTINUOUS
 62
     7
 10
3367.1832653511
 20
1241.3889131663
 30
0.0
 11
3327.1833034981
 21
1241.3889131663
 31
0.0
  0
LINE
  5
118
  8
0
  6
CONTINUOUS
 62
     7
 10
759.6833082665
 20
1158.8889173386
 30
0.0
 11
747.6832243431
 21
1158.8889173386
 31
0.0
  0
LINE
  5
119
  8
0
  6
CONTINUOUS
 62
     7
 10
747.6832243431
 20
908.8889173386
 30
0.0
 11
759.6833082665
 21
908.8889173386
 31
0.0
  0
LINE
  5
11A
  8
0
  6
CONTINUOUS
 62
     7
 10
747.6832243431
 20
1153.8889146564
 30
0.0
 11
735.6832596291
 21
1153.8889146564
 31
0.0
  0
LINE
  5
11B
  8
0
  6
CONTINUOUS
 62
     7
 10
735.6832596291
 20
913.8889200208
 30
0.0
 11
747.6832243431
 21
913.8889200208
 31
0.0
  0
LINE
  5
11C
  8
0
  6
CONTINUOUS
 62
     7
 10
889.1832205284
 20
1209.7571752188
 30
0.0
 11
759.6833082665
 21
1209.7571752188
 31
0.0
  0
LINE
  5
11D
  8
0
  6
CONTINUOUS
 62
     7
 10
2127.1832558144
 20
1416.8889037488
 30
0.0
 11
2122.1832559261
 21
1416.8889037488
 31
0.0
  0
LINE
  5
11E
  8
0
  6
CONTINUOUS
 62
     7
 10
2122.1832559261
 20
1463.8889244912
 30
0.0
 11
2122.1832559261
 21
1416.8889037488
 31
0.0
  0
LINE
  5
11F
  8
0
  6
CONTINUOUS
 62
     7
 10
2127.1832558144
 20
1416.8889037488
 30
0.0
 11
2127.1832558144
 21
1463.8889244912
 31
0.0
  0
LINE
  5
120
  8
0
  6
CONTINUOUS
 62
     7
 10
2127.1832558144
 20
1463.8889244912
 30
0.0
 11
2122.1832559261
 21
1463.8889244912
 31
0.0
  0
LINE
  5
121
  8
0
  6
CONTINUOUS
 62
     7
 10
1727.1832498539
 20
1416.8889037488
 30
0.0
 11
2122.1832559261
 21
1416.8889037488
 31
0.0
  0
LINE
  5
122
  8
0
  6
CONTINUOUS
 62
     7
 10
1727.1832498539
 20
1463.8889244912
 30
0.0
 11
1727.1832498539
 21
1416.8889037488
 31
0.0
  0
LINE
  5
123
  8
0
  6
CONTINUOUS
 62
     7
 10
2122.1832559261
 20
1463.8889244912
 30
0.0
 11
1727.1832498539
 21
1463.8889244912
 31
0.0
  0
LINE
  5
124
  8
0
  6
CONTINUOUS
 62
     7
 10
2132.1832557026
 20
1416.8889037488
 30
0.0
 11
2527.1832617748
 21
1416.8889037488
 31
0.0
  0
LINE
  5
125
  8
0
  6
CONTINUOUS
 62
     7
 10
2132.1832557026
 20
1416.8889037488
 30
0.0
 11
2132.1832557026
 21
1463.8889244912
 31
0.0
  0
LINE
  5
126
  8
0
  6
CONTINUOUS
 62
     7
 10
2527.1832617748
 20
1463.8889244912
 30
0.0
 11
2132.1832557026
 21
1463.8889244912
 31
0.0
  0
LINE
  5
127
  8
0
  6
CONTINUOUS
 62
     7
 10
2527.1832617748
 20
1416.8889037488
 30
0.0
 11
2527.1832617748
 21
1463.8889244912
 31
0.0
  0
LINE
  5
128
  8
0
  6
CONTINUOUS
 62
     7
 10
2132.1832557026
 20
1416.8889037488
 30
0.0
 11
2127.1832558144
 21
1416.8889037488
 31
0.0
  0
LINE
  5
129
  8
0
  6
CONTINUOUS
 62
     7
 10
2132.1832557026
 20
1463.8889244912
 30
0.0
 11
2127.1832558144
 21
1463.8889244912
 31
0.0
  0
LINE
  5
12A
  8
0
  6
CONTINUOUS
 62
     7
 10
2127.1832558144
 20
650.8889309285
 30
0.0
 11
2132.1832557026
 21
650.8889309285
 31
0.0
  0
LINE
  5
12B
  8
0
  6
CONTINUOUS
 62
     7
 10
2132.1832557026
 20
603.8889101861
 30
0.0
 11
2132.1832557026
 21
650.8889309285
 31
0.0
  0
LINE
  5
12C
  8
0
  6
CONTINUOUS
 62
     7
 10
2132.1832557026
 20
603.8889101861
 30
0.0
 11
2127.1832558144
 21
603.8889101861
 31
0.0
  0
LINE
  5
12D
  8
0
  6
CONTINUOUS
 62
     7
 10
2127.1832558144
 20
603.8889101861
 30
0.0
 11
2127.1832558144
 21
650.8889309285
 31
0.0
  0
LINE
  5
12E
  8
0
  6
CONTINUOUS
 62
     7
 10
1727.1832498539
 20
603.8889101861
 30
0.0
 11
2122.1832559261
 21
603.8889101861
 31
0.0
  0
LINE
  5
12F
  8
0
  6
CONTINUOUS
 62
     7
 10
2122.1832559261
 20
603.8889101861
 30
0.0
 11
2122.1832559261
 21
650.8889309285
 31
0.0
  0
LINE
  5
130
  8
0
  6
CONTINUOUS
 62
     7
 10
2122.1832559261
 20
650.8889309285
 30
0.0
 11
1727.1832498539
 21
650.8889309285
 31
0.0
  0
LINE
  5
131
  8
0
  6
CONTINUOUS
 62
     7
 10
1727.1832498539
 20
650.8889309285
 30
0.0
 11
1727.1832498539
 21
603.8889101861
 31
0.0
  0
LINE
  5
132
  8
0
  6
CONTINUOUS
 62
     7
 10
2127.1832558144
 20
603.8889101861
 30
0.0
 11
2122.1832559261
 21
603.8889101861
 31
0.0
  0
LINE
  5
133
  8
0
  6
CONTINUOUS
 62
     7
 10
2122.1832559261
 20
650.8889309285
 30
0.0
 11
2127.1832558144
 21
650.8889309285
 31
0.0
  0
LINE
  5
134
  8
0
  6
CONTINUOUS
 62
     7
 10
2132.1832557026
 20
603.8889101861
 30
0.0
 11
2527.1832617748
 21
603.8889101861
 31
0.0
  0
LINE
  5
135
  8
0
  6
CONTINUOUS
 62
     7
 10
2527.1832617748
 20
650.8889309285
 30
0.0
 11
2132.1832557026
 21
650.8889309285
 31
0.0
  0
LINE
  5
136
  8
0
  6
CONTINUOUS
 62
     7
 10
2527.1832617748
 20
603.8889101861
 30
0.0
 11
2527.1832617748
 21
650.8889309285
 31
0.0
  0
LINE
  5
137
  8
0
  6
CONTINUOUS
 62
     7
 10
2112.1832561496
 20
1408.8889173386
 30
0.0
 11
2120.1832555983
 21
1408.8889173386
 31
0.0
  0
ARC
  5
138
  8
0
  6
CONTINUOUS
 62
     7
 10
2104.1832558144
 20
1408.8889173386
 30
0.0
 40
8.0
 50
0.0
 51
90.0
  0
LINE
  5
139
  8
0
  6
CONTINUOUS
 62
     7
 10
2120.1832555983
 20
1408.8889173386
 30
0.0
 11
2120.1832555983
 21
1416.8889037488
 31
0.0
  0
LINE
  5
13A
  8
0
  6
CONTINUOUS
 62
     7
 10
2134.1832560304
 20
1408.8889173386
 30
0.0
 11
2142.1832554791
 21
1408.8889173386
 31
0.0
  0
LINE
  5
13B
  8
0
  6
CONTINUOUS
 62
     7
 10
2134.1832560304
 20
1408.8889173386
 30
0.0
 11
2134.1832560304
 21
1416.8889037488
 31
0.0
  0
ARC
  5
13C
  8
0
  6
CONTINUOUS
 62
     7
 10
2150.1832558144
 20
1408.8889173386
 30
0.0
 40
8.0
 50
90.0
 51
180.0
  0
LINE
  5
13D
  8
0
  6
CONTINUOUS
 62
     7
 10
2134.1832560304
 20
1408.8889173386
 30
0.0
 11
2120.1832555983
 21
1408.8889173386
 31
0.0
  0
LINE
  5
13E
  8
0
  6
CONTINUOUS
 62
     7
 10
2134.1832560304
 20
650.8889309285
 30
0.0
 11
2134.1832560304
 21
658.8889173386
 31
0.0
  0
LINE
  5
13F
  8
0
  6
CONTINUOUS
 62
     7
 10
2142.1832554791
 20
658.8889173386
 30
0.0
 11
2134.1832560304
 21
658.8889173386
 31
0.0
  0
ARC
  5
140
  8
0
  6
CONTINUOUS
 62
     7
 10
2150.1832558144
 20
658.8889173386
 30
0.0
 40
8.0
 50
180.0
 51
270.0
  0
ARC
  5
141
  8
0
  6
CONTINUOUS
 62
     7
 10
2104.1832558144
 20
658.8889173386
 30
0.0
 40
8.0
 50
270.0
 51
0.0
  0
LINE
  5
142
  8
0
  6
CONTINUOUS
 62
     7
 10
2120.1832555983
 20
658.8889173386
 30
0.0
 11
2112.1832561496
 21
658.8889173386
 31
0.0
  0
LINE
  5
143
  8
0
  6
CONTINUOUS
 62
     7
 10
2120.1832555983
 20
650.8889309285
 30
0.0
 11
2120.1832555983
 21
658.8889173386
 31
0.0
  0
LINE
  5
144
  8
0
  6
CONTINUOUS
 62
     7
 10
2120.1832555983
 20
658.8889173386
 30
0.0
 11
2134.1832560304
 21
658.8889173386
 31
0.0
  0
LINE
  5
145
  8
0
  6
CONTINUOUS
 62
     7
 10
2134.1832560304
 20
658.8889173386
 30
0.0
 11
2134.1832560304
 21
1408.8889173386
 31
0.0
  0
LINE
  5
146
  8
0
  6
CONTINUOUS
 62
     7
 10
2142.1832554791
 20
1408.8889173386
 30
0.0
 11
2142.1832554791
 21
658.8889173386
 31
0.0
  0
LINE
  5
147
  8
0
  6
CONTINUOUS
 62
     7
 10
2120.1832555983
 20
1408.8889173386
 30
0.0
 11
2120.1832555983
 21
658.8889173386
 31
0.0
  0
LINE
  5
148
  8
0
  6
CONTINUOUS
 62
     7
 10
2112.1832561496
 20
658.8889173386
 30
0.0
 11
2112.1832561496
 21
1408.8889173386
 31
0.0
  0
LINE
  5
149
  8
0
  6
CONTINUOUS
 62
     7
 10
1680.9414896
 20
1416.8889037488
 30
0.0
 11
1680.9414896
 21
1463.8889244912
 31
0.0
  0
LINE
  5
14A
  8
0
  6
CONTINUOUS
 62
     7
 10
1727.1832498539
 20
1416.8889037488
 30
0.0
 11
1680.9414896
 21
1416.8889037488
 31
0.0
  0
LINE
  5
14B
  8
0
  6
CONTINUOUS
 62
     7
 10
1680.9414896
 20
1463.8889244912
 30
0.0
 11
1727.1832498539
 21
1463.8889244912
 31
0.0
  0
LINE
  5
14C
  8
0
  6
CONTINUOUS
 62
     7
 10
2573.4250220287
 20
1463.8889244912
 30
0.0
 11
2573.4250220287
 21
1416.8889037488
 31
0.0
  0
LINE
  5
14D
  8
0
  6
CONTINUOUS
 62
     7
 10
2573.4250220287
 20
1416.8889037488
 30
0.0
 11
2527.1832617748
 21
1416.8889037488
 31
0.0
  0
LINE
  5
14E
  8
0
  6
CONTINUOUS
 62
     7
 10
2527.1832617748
 20
1463.8889244912
 30
0.0
 11
2573.4250220287
 21
1463.8889244912
 31
0.0
  0
LINE
  5
14F
  8
0
  6
CONTINUOUS
 62
     7
 10
1680.9414896
 20
603.8889101861
 30
0.0
 11
1680.9414896
 21
650.8889309285
 31
0.0
  0
LINE
  5
150
  8
0
  6
CONTINUOUS
 62
     7
 10
1727.1832498539
 20
603.8889101861
 30
0.0
 11
1680.9414896
 21
603.8889101861
 31
0.0
  0
LINE
  5
151
  8
0
  6
CONTINUOUS
 62
     7
 10
1680.9414896
 20
650.8889309285
 30
0.0
 11
1727.1832498539
 21
650.8889309285
 31
0.0
  0
LINE
  5
152
  8
0
  6
CONTINUOUS
 62
     7
 10
2573.4250220287
 20
650.8889309285
 30
0.0
 11
2573.4250220287
 21
603.8889101861
 31
0.0
  0
LINE
  5
153
  8
0
  6
CONTINUOUS
 62
     7
 10
2573.4250220287
 20
603.8889101861
 30
0.0
 11
2527.1832617748
 21
603.8889101861
 31
0.0
  0
LINE
  5
154
  8
0
  6
CONTINUOUS
 62
     7
 10
2527.1832617748
 20
650.8889309285
 30
0.0
 11
2573.4250220287
 21
650.8889309285
 31
0.0
  0
LINE
  5
155
  8
0
  6
CONTINUOUS
 62
     7
 10
1154.183265828
 20
1468.8889197228
 30
0.0
 11
3100.1832458008
 21
1468.8889197228
 31
0.0
  0
LINE
  5
156
  8
0
  6
CONTINUOUS
 62
     7
 10
1154.183265828
 20
598.8889149545
 30
0.0
 11
3100.1832458008
 21
598.8889149545
 31
0.0
  0
LINE
  5
157
  8
0
  6
CONTINUOUS
 62
     7
 10
3184.5769258965
 20
1241.0416416047
 30
0.0
 11
3184.6621605385
 21
1241.3031122802
 31
0.0
  0
LINE
  5
158
  8
0
  6
CONTINUOUS
 62
     7
 10
3184.5769258965
 20
1241.0416416047
 30
0.0
 11
3184.5769258965
 21
1416.8889037488
 31
0.0
  0
LINE
  5
159
  8
0
  6
CONTINUOUS
 62
     7
 10
2573.4250220287
 20
1416.8889037488
 30
0.0
 11
3184.5769258965
 21
1416.8889037488
 31
0.0
  0
LINE
  5
15A
  8
0
  6
CONTINUOUS
 62
     7
 10
2573.4250220287
 20
1463.8889244912
 30
0.0
 11
3184.6832605827
 21
1463.8889244912
 31
0.0
  0
LINE
  5
15B
  8
0
  6
CONTINUOUS
 62
     7
 10
1069.7895857323
 20
1241.0416416047
 30
0.0
 11
1069.7895857323
 21
1416.8889037488
 31
0.0
  0
LINE
  5
15C
  8
0
  6
CONTINUOUS
 62
     7
 10
1069.7048279274
 20
1241.3007429955
 30
0.0
 11
1069.7895857323
 21
1241.0416416047
 31
0.0
  0
LINE
  5
15D
  8
0
  6
CONTINUOUS
 62
     7
 10
1069.7895857323
 20
1416.8889037488
 30
0.0
 11
1680.9414896
 21
1416.8889037488
 31
0.0
  0
LINE
  5
15E
  8
0
  6
CONTINUOUS
 62
     7
 10
1069.683251046
 20
1463.8889244912
 30
0.0
 11
1680.9414896
 21
1463.8889244912
 31
0.0
  0
LINE
  5
15F
  8
0
  6
CONTINUOUS
 62
     7
 10
3184.5769258965
 20
826.7361930726
 30
0.0
 11
3184.5769258965
 21
650.8889309285
 31
0.0
  0
LINE
  5
160
  8
0
  6
CONTINUOUS
 62
     7
 10
3184.6616837013
 20
826.4770916817
 30
0.0
 11
3184.5769258965
 21
826.7361930726
 31
0.0
  0
LINE
  5
161
  8
0
  6
CONTINUOUS
 62
     7
 10
2573.4250220287
 20
603.8889101861
 30
0.0
 11
3184.6832605827
 21
603.8889101861
 31
0.0
  0
LINE
  5
162
  8
0
  6
CONTINUOUS
 62
     7
 10
2573.4250220287
 20
650.8889309285
 30
0.0
 11
3184.5769258965
 21
650.8889309285
 31
0.0
  0
LINE
  5
163
  8
0
  6
CONTINUOUS
 62
     7
 10
1069.7895857323
 20
826.7361930726
 30
0.0
 11
1069.7043510902
 21
826.4747223971
 31
0.0
  0
LINE
  5
164
  8
0
  6
CONTINUOUS
 62
     7
 10
1069.7895857323
 20
826.7361930726
 30
0.0
 11
1069.7895857323
 21
752.8384736893
 31
0.0
  0
LINE
  5
165
  8
0
  6
CONTINUOUS
 62
     7
 10
1069.7895857323
 20
736.7255798695
 30
0.0
 11
1069.7895857323
 21
650.8889309285
 31
0.0
  0
LINE
  5
166
  8
0
  6
CONTINUOUS
 62
     7
 10
1069.683251046
 20
603.8889101861
 30
0.0
 11
1102.1760078896
 21
603.8889101861
 31
0.0
  0
LINE
  5
167
  8
0
  6
CONTINUOUS
 62
     7
 10
1131.1244341362
 20
603.8889101861
 30
0.0
 11
1680.9414896
 21
603.8889101861
 31
0.0
  0
LINE
  5
168
  8
0
  6
CONTINUOUS
 62
     7
 10
1069.7895857323
 20
650.8889309285
 30
0.0
 11
1126.0088058937
 21
650.8889309285
 31
0.0
  0
LINE
  5
169
  8
0
  6
CONTINUOUS
 62
     7
 10
1152.8583737839
 20
650.8889309285
 30
0.0
 11
1680.9414896
 21
650.8889309285
 31
0.0
  0
ARC
  5
16A
  8
0
  6
CONTINUOUS
 62
     7
 10
2442.3111865513
 20
1405.6076483211
 30
0.0
 40
292.3456765792206
 50
177.7884781614
 51
180.7288402494
  0
LINE
  5
16B
  8
0
  6
CONTINUOUS
 62
     7
 10
2142.1832554791
 20
1401.8889180539
 30
0.0
 11
2149.9891626466
 21
1401.8889180539
 31
0.0
  0
ARC
  5
16C
  8
0
  6
CONTINUOUS
 62
     7
 10
3082.0645239735
 20
1401.8879470765
 30
0.0
 40
15.00095670146145
 50
89.9964235449
 51
179.9962913763
  0
LINE
  5
16D
  8
0
  6
CONTINUOUS
 62
     7
 10
2149.9891626466
 20
1401.8889180539
 30
0.0
 11
3067.0635673035
 21
1401.8889180539
 31
0.0
  0
LINE
  5
16E
  8
0
  6
CONTINUOUS
 62
     7
 10
1187.3029443253
 20
665.8889166234
 30
0.0
 11
2104.3773489822
 21
665.8889166234
 31
0.0
  0
ARC
  5
16F
  8
0
  6
CONTINUOUS
 62
     7
 10
1812.7921321234
 20
662.1606523973
 30
0.0
 40
291.6090510335802
 50
357.7847635594
 51
0.7325548514
  0
ARC
  5
170
  8
0
  6
CONTINUOUS
 62
     7
 10
1172.3020716174
 20
665.8898036278
 30
0.0
 40
15.00087273404342
 50
269.9961028315
 51
359.9966120897
  0
LINE
  5
171
  8
0
  6
CONTINUOUS
 62
     7
 10
2104.3773489822
 20
665.8889166234
 30
0.0
 11
2112.1832561496
 21
665.8889166234
 31
0.0
  0
ARC
  5
172
  8
0
  6
CONTINUOUS
 62
     7
 10
1814.2494665954
 20
1405.6360395466
 30
0.0
 40
290.1520791890269
 50
359.2600424726
 51
2.2226391166
  0
LINE
  5
173
  8
0
  6
CONTINUOUS
 62
     7
 10
1187.3029443253
 20
1401.8889180539
 30
0.0
 11
2104.3773489822
 21
1401.8889180539
 31
0.0
  0
ARC
  5
174
  8
0
  6
CONTINUOUS
 62
     7
 10
1172.3019998375
 20
1401.8879592604
 30
0.0
 40
15.00094451836563
 50
0.0036620908
 51
90.0036229881
  0
LINE
  5
175
  8
0
  6
CONTINUOUS
 62
     7
 10
2112.1832561496
 20
1401.8889180539
 30
0.0
 11
2104.3773489822
 21
1401.8889180539
 31
0.0
  0
ARC
  5
176
  8
0
  6
CONTINUOUS
 62
     7
 10
2440.1170450334
 20
662.1417951307
 30
0.0
 40
290.1520791890271
 50
179.2600424726
 51
182.2226391166
  0
LINE
  5
177
  8
0
  6
CONTINUOUS
 62
     7
 10
2149.9891626466
 20
665.8889166234
 30
0.0
 11
3067.0635673035
 21
665.8889166234
 31
0.0
  0
ARC
  5
178
  8
0
  6
CONTINUOUS
 62
     7
 10
3082.0643683489
 20
665.8897319563
 30
0.0
 40
15.00080106754186
 50
180.003114176
 51
270.0041709029
  0
LINE
  5
179
  8
0
  6
CONTINUOUS
 62
     7
 10
2149.9891626466
 20
665.8889166234
 30
0.0
 11
2142.1832554791
 21
665.8889166234
 31
0.0
  0
LINE
  5
17A
  8
0
  6
CONTINUOUS
 62
     7
 10
2149.9891626466
 20
1401.8889180539
 30
0.0
 11
2149.9891626466
 21
665.8889166234
 31
0.0
  0
LINE
  5
17B
  8
0
  6
CONTINUOUS
 62
     7
 10
2104.3773489822
 20
665.8889166234
 30
0.0
 11
2104.3773489822
 21
1401.8889180539
 31
0.0
  0
ARC
  5
17C
  8
0
  6
CONTINUOUS
 62
     7
 10
2205.2990578494
 20
1097.4524916538
 30
0.0
 40
0.6239235010672352
 50
90.0981618729
 51
180.098885824
  0
ARC
  5
17D
  8
0
  6
CONTINUOUS
 62
     7
 10
2205.5473699891
 20
1097.4514940997
 30
0.0
 40
0.6249201442171123
 50
90.0070778434
 51
180.0072673631
  0
LINE
  5
17E
  8
0
  6
CONTINUOUS
 62
     7
 10
2204.9224498499
 20
1097.4514148352
 30
0.0
 11
2204.6751352776
 21
1097.4514148352
 31
0.0
  0
LINE
  5
17F
  8
0
  6
CONTINUOUS
 62
     7
 10
2204.9224498499
 20
973.7014173684
 30
0.0
 11
2204.9224498499
 21
1016.408806589
 31
0.0
  0
ARC
  5
180
  8
0
  6
CONTINUOUS
 62
     7
 10
2205.5471756128
 20
1016.4090266639
 30
0.0
 40
0.6247258016468583
 50
112.4922661094
 51
180.0201838293
  0
POLYLINE
  5
181
  8
0
  6
CONTINUOUS
 62
     7
 66
     1
 10
0.0
 20
0.0
 30
0.0
  0
VERTEX
  5
2FC
  8
0
  6
CONTINUOUS
 62
     7
 10
2205.3081813086
 20
1016.9862303106
 30
0.0
  0
VERTEX
  5
2FD
  8
0
  6
CONTINUOUS
 62
     7
 10
2224.9908345569
 20
1025.1488619638
 30
0.0
  0
VERTEX
  5
2FE
  8
0
  6
CONTINUOUS
 62
     7
 10
2244.6305054057
 20
1033.3114926276
 30
0.0
  0
SEQEND
  5
3AD
  8
0
  6
CONTINUOUS
 62
     7
  0
ARC
  5
182
  8
0
  6
CONTINUOUS
 62
     7
 10
2244.3887433972
 20
1033.8889173386
 30
0.0
 40
0.6259937425856879
 50
292.7185779761
 51
67.2814220239
  0
POLYLINE
  5
183
  8
0
  6
CONTINUOUS
 62
     7
 66
     1
 10
0.0
 20
0.0
 30
0.0
  0
VERTEX
  5
2FF
  8
0
  6
CONTINUOUS
 62
     7
 10
2244.6305054057
 20
1034.4663420497
 30
0.0
  0
VERTEX
  5
300
  8
0
  6
CONTINUOUS
 62
     7
 10
2224.9908345569
 20
1042.6289727134
 30
0.0
  0
VERTEX
  5
301
  8
0
  6
CONTINUOUS
 62
     7
 10
2205.3081813086
 20
1050.7916043667
 30
0.0
  0
SEQEND
  5
3AC
  8
0
  6
CONTINUOUS
 62
     7
  0
ARC
  5
184
  8
0
  6
CONTINUOUS
 62
     7
 10
2205.5471747794
 20
1051.3688074567
 30
0.0
 40
0.6247249685018605
 50
179.9797650877
 51
247.5077849736
  0
LINE
  5
185
  8
0
  6
CONTINUOUS
 62
     7
 10
2204.9224498499
 20
1051.3690280882
 30
0.0
 11
2204.9224498499
 21
1097.4514148352
 31
0.0
  0
LINE
  5
186
  8
0
  6
CONTINUOUS
 62
     7
 10
2205.5472927917
 20
1098.0764142392
 30
0.0
 11
2216.7882817615
 21
1098.0764142392
 31
0.0
  0
ARC
  5
187
  8
0
  6
CONTINUOUS
 62
     7
 10
2216.7878578259
 20
1097.4518551557
 30
0.0
 40
0.6245592274155477
 50
359.9596059069
 51
89.961109017
  0
LINE
  5
188
  8
0
  6
CONTINUOUS
 62
     7
 10
2217.4124168981
 20
1097.4514148352
 30
0.0
 11
2217.4124168981
 21
1059.7212611852
 31
0.0
  0
ARC
  5
189
  8
0
  6
CONTINUOUS
 62
     7
 10
2218.0371552975
 20
1059.7208581627
 30
0.0
 40
0.6247385293874701
 50
179.9630381568
 51
247.4611021475
  0
POLYLINE
  5
18A
  8
0
  6
CONTINUOUS
 62
     7
 66
     1
 10
0.0
 20
0.0
 30
0.0
  0
VERTEX
  5
302
  8
0
  6
CONTINUOUS
 62
     7
 10
2217.7976864207
 20
1059.1438374636
 30
0.0
  0
VERTEX
  5
303
  8
0
  6
CONTINUOUS
 62
     7
 10
2241.0975741971
 20
1049.4660780919
 30
0.0
  0
VERTEX
  5
304
  8
0
  6
CONTINUOUS
 62
     7
 10
2264.3270912397
 20
1039.7883191859
 30
0.0
  0
SEQEND
  5
3AB
  8
0
  6
CONTINUOUS
 62
     7
  0
ARC
  5
18B
  8
0
  6
CONTINUOUS
 62
     7
 10
2264.0853113723
 20
1039.2122923475
 30
0.0
 40
0.6247114716649859
 50
359.8717985142
 51
67.2303970656
  0
LINE
  5
18C
  8
0
  6
CONTINUOUS
 62
     7
 10
2264.7100212801
 20
1039.210894533
 30
0.0
 11
2264.7100212801
 21
1028.5669401442
 31
0.0
  0
ARC
  5
18D
  8
0
  6
CONTINUOUS
 62
     7
 10
2264.0853164487
 20
1028.5655389632
 30
0.0
 40
0.6247064027750481
 50
292.7692931266
 51
0.1285112935
  0
POLYLINE
  5
18E
  8
0
  6
CONTINUOUS
 62
     7
 66
     1
 10
0.0
 20
0.0
 30
0.0
  0
VERTEX
  5
305
  8
0
  6
CONTINUOUS
 62
     7
 10
2264.3270912397
 20
1027.9895154914
 30
0.0
  0
VERTEX
  5
306
  8
0
  6
CONTINUOUS
 62
     7
 10
2241.0975741971
 20
1018.3117565853
 30
0.0
  0
VERTEX
  5
307
  8
0
  6
CONTINUOUS
 62
     7
 10
2217.7976864207
 20
1008.6339972136
 30
0.0
  0
SEQEND
  5
3AA
  8
0
  6
CONTINUOUS
 62
     7
  0
ARC
  5
18F
  8
0
  6
CONTINUOUS
 62
     7
 10
2218.0371538706
 20
1008.0569774666
 30
0.0
 40
0.6247371030928007
 50
112.5388104525
 51
180.0370492432
  0
LINE
  5
190
  8
0
  6
CONTINUOUS
 62
     7
 10
2217.4124168981
 20
1008.0565734921
 30
0.0
 11
2217.4124168981
 21
973.7014173684
 31
0.0
  0
ARC
  5
191
  8
0
  6
CONTINUOUS
 62
     7
 10
2216.7878519623
 20
973.7009829034
 30
0.0
 40
0.6245650868381784
 50
270.0394285209
 51
0.0398565552
  0
LINE
  5
192
  8
0
  6
CONTINUOUS
 62
     7
 10
2205.5472927917
 20
973.0764179645
 30
0.0
 11
2216.7882817615
 21
973.0764179645
 31
0.0
  0
ARC
  5
193
  8
0
  6
CONTINUOUS
 62
     7
 10
2205.5473758516
 20
973.701343965
 30
0.0
 40
0.6249260060357783
 50
179.9932700717
 51
269.9923847218
  0
LINE
  5
194
  8
0
  6
CONTINUOUS
 62
     7
 10
2204.6751352776
 20
1051.3690280882
 30
0.0
 11
2204.6751352776
 21
1097.4514148352
 31
0.0
  0
LINE
  5
195
  8
0
  6
CONTINUOUS
 62
     7
 10
2204.9224498499
 20
1051.3690280882
 30
0.0
 11
2204.6751352776
 21
1051.3690280882
 31
0.0
  0
ARC
  5
196
  8
0
  6
CONTINUOUS
 62
     7
 10
2205.3017148176
 20
1051.3695322977
 30
0.0
 40
0.6265797429212984
 50
180.0461059898
 51
247.2725887096
  0
LINE
  5
197
  8
0
  6
CONTINUOUS
 62
     7
 10
2205.3081813086
 20
1050.7916043667
 30
0.0
 11
2205.0596373904
 21
1050.7916043667
 31
0.0
  0
ARC
  5
198
  8
0
  6
CONTINUOUS
 62
     7
 10
2205.3017248825
 20
1016.4082956774
 30
0.0
 40
0.6265898131859742
 50
112.728023394
 51
179.9532819065
  0
LINE
  5
199
  8
0
  6
CONTINUOUS
 62
     7
 10
2205.3081813086
 20
1016.9862303106
 30
0.0
 11
2205.0596373904
 21
1016.9862303106
 31
0.0
  0
LINE
  5
19A
  8
0
  6
CONTINUOUS
 62
     7
 10
2204.9224498499
 20
1016.408806589
 30
0.0
 11
2204.6751352776
 21
1016.408806589
 31
0.0
  0
LINE
  5
19B
  8
0
  6
CONTINUOUS
 62
     7
 10
2204.9224498499
 20
973.7014173684
 30
0.0
 11
2204.6751352776
 21
973.7014173684
 31
0.0
  0
LINE
  5
19C
  8
0
  6
CONTINUOUS
 62
     7
 10
2204.6751352776
 20
973.7014173684
 30
0.0
 11
2204.6751352776
 21
1016.408806589
 31
0.0
  0
ARC
  5
19D
  8
0
  6
CONTINUOUS
 62
     7
 10
2205.2990637159
 20
973.7003463963
 30
0.0
 40
0.6239293575133517
 50
179.901651981
 51
269.9013003221
  0
POLYLINE
  5
19E
  8
0
  6
CONTINUOUS
 62
     7
 66
     1
 10
0.0
 20
0.0
 30
0.0
  0
VERTEX
  5
308
  8
0
  6
CONTINUOUS
 62
     7
 10
2244.2568662394
 20
1034.4663420497
 30
0.0
  0
VERTEX
  5
309
  8
0
  6
CONTINUOUS
 62
     7
 10
2224.6796759594
 20
1042.6289727134
 30
0.0
  0
VERTEX
  5
30A
  8
0
  6
CONTINUOUS
 62
     7
 10
2205.0596373904
 20
1050.7916043667
 30
0.0
  0
SEQEND
  5
3A9
  8
0
  6
CONTINUOUS
 62
     7
  0
LINE
  5
19F
  8
0
  6
CONTINUOUS
 62
     7
 10
2244.6305054057
 20
1034.4663420497
 30
0.0
 11
2244.2568662394
 21
1034.4663420497
 31
0.0
  0
POLYLINE
  5
1A0
  8
0
  6
CONTINUOUS
 62
     7
 66
     1
 10
0.0
 20
0.0
 30
0.0
  0
VERTEX
  5
30B
  8
0
  6
CONTINUOUS
 62
     7
 10
2205.0596373904
 20
1016.9862303106
 30
0.0
  0
VERTEX
  5
30C
  8
0
  6
CONTINUOUS
 62
     7
 10
2224.6796759594
 20
1025.1488619638
 30
0.0
  0
VERTEX
  5
30D
  8
0
  6
CONTINUOUS
 62
     7
 10
2244.2568662394
 20
1033.3114926276
 30
0.0
  0
SEQEND
  5
3A8
  8
0
  6
CONTINUOUS
 62
     7
  0
LINE
  5
1A1
  8
0
  6
CONTINUOUS
 62
     7
 10
2244.6305054057
 20
1033.3114926276
 30
0.0
 11
2244.2568662394
 21
1033.3114926276
 31
0.0
  0
LINE
  5
1A2
  8
0
  6
CONTINUOUS
 62
     7
 10
1187.3029443253
 20
665.8889166234
 30
0.0
 11
1187.3029443253
 21
906.9548807261
 31
0.0
  0
POLYLINE
  5
1A3
  8
0
  6
CONTINUOUS
 62
     7
 66
     1
 10
0.0
 20
0.0
 30
0.0
  0
VERTEX
  5
30E
  8
0
  6
CONTINUOUS
 62
     7
 10
1187.3029443253
 20
906.9548807261
 30
0.0
  0
VERTEX
  5
30F
  8
0
  6
CONTINUOUS
 62
     7
 10
1187.5336143005
 20
908.4150753138
 30
0.0
  0
VERTEX
  5
310
  8
0
  6
CONTINUOUS
 62
     7
 10
1187.8787251938
 20
910.7664710996
 30
0.0
  0
VERTEX
  5
311
  8
0
  6
CONTINUOUS
 62
     7
 10
1188.32653489
 20
913.9786697147
 30
0.0
  0
VERTEX
  5
312
  8
0
  6
CONTINUOUS
 62
     7
 10
1188.8651820648
 20
918.0212653396
 30
0.0
  0
VERTEX
  5
313
  8
0
  6
CONTINUOUS
 62
     7
 10
1189.4841166962
 20
922.8871873734
 30
0.0
  0
VERTEX
  5
314
  8
0
  6
CONTINUOUS
 62
     7
 10
1190.1667090881
 20
928.5497403858
 30
0.0
  0
VERTEX
  5
315
  8
0
  6
CONTINUOUS
 62
     7
 10
1190.8916207779
 20
934.9458030579
 30
0.0
  0
VERTEX
  5
316
  8
0
  6
CONTINUOUS
 62
     7
 10
1191.6376325119
 20
942.0122391699
 30
0.0
  0
VERTEX
  5
317
  8
0
  6
CONTINUOUS
 62
     7
 10
1192.3913332451
 20
949.779134166
 30
0.0
  0
VERTEX
  5
318
  8
0
  6
CONTINUOUS
 62
     7
 10
1193.1301328171
 20
958.1727272985
 30
0.0
  0
VERTEX
  5
319
  8
0
  6
CONTINUOUS
 62
     7
 10
1193.8316198814
 20
967.1025163648
 30
0.0
  0
VERTEX
  5
31A
  8
0
  6
CONTINUOUS
 62
     7
 10
1194.4733830917
 20
976.4780140636
 30
0.0
  0
VERTEX
  5
31B
  8
0
  6
CONTINUOUS
 62
     7
 10
1195.1512667168
 20
988.4957074342
 30
0.0
  0
VERTEX
  5
31C
  8
0
  6
CONTINUOUS
 62
     7
 10
1195.690688752
 20
1001.0325870631
 30
0.0
  0
VERTEX
  5
31D
  8
0
  6
CONTINUOUS
 62
     7
 10
1196.0660788048
 20
1013.8889177857
 30
0.0
  0
SEQEND
  5
3A7
  8
0
  6
CONTINUOUS
 62
     7
  0
LINE
  5
1A4
  8
0
  6
CONTINUOUS
 62
     7
 10
1207.3149057854
 20
1013.8889177857
 30
0.0
 11
1207.3149057854
 21
1053.8889168916
 31
0.0
  0
POLYLINE
  5
1A5
  8
0
  6
CONTINUOUS
 62
     7
 66
     1
 10
0.0
 20
0.0
 30
0.0
  0
VERTEX
  5
31E
  8
0
  6
CONTINUOUS
 62
     7
 10
1196.0660788048
 20
1053.8889168916
 30
0.0
  0
VERTEX
  5
31F
  8
0
  6
CONTINUOUS
 62
     7
 10
1195.7730027664
 20
1064.3836594341
 30
0.0
  0
VERTEX
  5
320
  8
0
  6
CONTINUOUS
 62
     7
 10
1195.3673931587
 20
1074.6962054787
 30
0.0
  0
VERTEX
  5
321
  8
0
  6
CONTINUOUS
 62
     7
 10
1194.8636147011
 20
1084.7190394221
 30
0.0
  0
VERTEX
  5
322
  8
0
  6
CONTINUOUS
 62
     7
 10
1194.2759129036
 20
1094.3446531115
 30
0.0
  0
VERTEX
  5
323
  8
0
  6
CONTINUOUS
 62
     7
 10
1193.6171623695
 20
1103.5315952418
 30
0.0
  0
VERTEX
  5
324
  8
0
  6
CONTINUOUS
 62
     7
 10
1192.9051848877
 20
1112.2566647051
 30
0.0
  0
VERTEX
  5
325
  8
0
  6
CONTINUOUS
 62
     7
 10
1192.1622725952
 20
1120.432455015
 30
0.0
  0
VERTEX
  5
326
  8
0
  6
CONTINUOUS
 62
     7
 10
1191.4108368385
 20
1127.9715708611
 30
0.0
  0
VERTEX
  5
327
  8
0
  6
CONTINUOUS
 62
     7
 10
1190.6651231278
 20
1134.8770669816
 30
0.0
  0
VERTEX
  5
328
  8
0
  6
CONTINUOUS
 62
     7
 10
1189.9468871582
 20
1141.0881913421
 30
0.0
  0
VERTEX
  5
329
  8
0
  6
CONTINUOUS
 62
     7
 10
1189.2775269974
 20
1146.5428731559
 30
0.0
  0
VERTEX
  5
32A
  8
0
  6
CONTINUOUS
 62
     7
 10
1188.6782022942
 20
1151.1790490864
 30
0.0
  0
VERTEX
  5
32B
  8
0
  6
CONTINUOUS
 62
     7
 10
1188.0663606155
 20
1155.6811965225
 30
0.0
  0
VERTEX
  5
32C
  8
0
  6
CONTINUOUS
 62
     7
 10
1187.6010867584
 20
1158.9135042546
 30
0.0
  0
VERTEX
  5
32D
  8
0
  6
CONTINUOUS
 62
     7
 10
1187.3029443253
 20
1160.8229539511
 30
0.0
  0
SEQEND
  5
3A6
  8
0
  6
CONTINUOUS
 62
     7
  0
LINE
  5
1A6
  8
0
  6
CONTINUOUS
 62
     7
 10
1187.3029443253
 20
1160.8229539511
 30
0.0
 11
1187.3029443253
 21
1401.8889180539
 31
0.0
  0
POLYLINE
  5
1A7
  8
0
  6
CONTINUOUS
 62
     7
 66
     1
 10
0.0
 20
0.0
 30
0.0
  0
VERTEX
  5
32E
  8
0
  6
CONTINUOUS
 62
     7
 10
3058.300432824
 20
1053.8889168916
 30
0.0
  0
VERTEX
  5
32F
  8
0
  6
CONTINUOUS
 62
     7
 10
3058.5935088623
 20
1064.3836594341
 30
0.0
  0
VERTEX
  5
330
  8
0
  6
CONTINUOUS
 62
     7
 10
3058.99911847
 20
1074.6962054787
 30
0.0
  0
VERTEX
  5
331
  8
0
  6
CONTINUOUS
 62
     7
 10
3059.5028969277
 20
1084.7190394221
 30
0.0
  0
VERTEX
  5
332
  8
0
  6
CONTINUOUS
 62
     7
 10
3060.0905987251
 20
1094.3446531115
 30
0.0
  0
VERTEX
  5
333
  8
0
  6
CONTINUOUS
 62
     7
 10
3060.7493492592
 20
1103.5315952418
 30
0.0
  0
VERTEX
  5
334
  8
0
  6
CONTINUOUS
 62
     7
 10
3061.461326741
 20
1112.2566647051
 30
0.0
  0
VERTEX
  5
335
  8
0
  6
CONTINUOUS
 62
     7
 10
3062.2042390335
 20
1120.432455015
 30
0.0
  0
VERTEX
  5
336
  8
0
  6
CONTINUOUS
 62
     7
 10
3062.9556747902
 20
1127.9715708611
 30
0.0
  0
VERTEX
  5
337
  8
0
  6
CONTINUOUS
 62
     7
 10
3063.701388501
 20
1134.8770669816
 30
0.0
  0
VERTEX
  5
338
  8
0
  6
CONTINUOUS
 62
     7
 10
3064.4196244705
 20
1141.0881913421
 30
0.0
  0
VERTEX
  5
339
  8
0
  6
CONTINUOUS
 62
     7
 10
3065.0889846314
 20
1146.5428731559
 30
0.0
  0
VERTEX
  5
33A
  8
0
  6
CONTINUOUS
 62
     7
 10
3065.6883093346
 20
1151.1790490864
 30
0.0
  0
VERTEX
  5
33B
  8
0
  6
CONTINUOUS
 62
     7
 10
3066.3001510132
 20
1155.6811965225
 30
0.0
  0
VERTEX
  5
33C
  8
0
  6
CONTINUOUS
 62
     7
 10
3066.7654248703
 20
1158.9135042546
 30
0.0
  0
VERTEX
  5
33D
  8
0
  6
CONTINUOUS
 62
     7
 10
3067.0635673035
 20
1160.8229539511
 30
0.0
  0
SEQEND
  5
3A5
  8
0
  6
CONTINUOUS
 62
     7
  0
LINE
  5
1A8
  8
0
  6
CONTINUOUS
 62
     7
 10
3047.0516058434
 20
1013.8889177857
 30
0.0
 11
3047.0516058434
 21
1053.8889168916
 31
0.0
  0
POLYLINE
  5
1A9
  8
0
  6
CONTINUOUS
 62
     7
 66
     1
 10
0.0
 20
0.0
 30
0.0
  0
VERTEX
  5
33E
  8
0
  6
CONTINUOUS
 62
     7
 10
3067.0635673035
 20
906.9548807261
 30
0.0
  0
VERTEX
  5
33F
  8
0
  6
CONTINUOUS
 62
     7
 10
3066.8328973282
 20
908.4150753138
 30
0.0
  0
VERTEX
  5
340
  8
0
  6
CONTINUOUS
 62
     7
 10
3066.4877864349
 20
910.7664710996
 30
0.0
  0
VERTEX
  5
341
  8
0
  6
CONTINUOUS
 62
     7
 10
3066.0399767387
 20
913.9786697147
 30
0.0
  0
VERTEX
  5
342
  8
0
  6
CONTINUOUS
 62
     7
 10
3065.5013295639
 20
918.0212653396
 30
0.0
  0
VERTEX
  5
343
  8
0
  6
CONTINUOUS
 62
     7
 10
3064.8823949326
 20
922.8871873734
 30
0.0
  0
VERTEX
  5
344
  8
0
  6
CONTINUOUS
 62
     7
 10
3064.1998025406
 20
928.5497403858
 30
0.0
  0
VERTEX
  5
345
  8
0
  6
CONTINUOUS
 62
     7
 10
3063.4748908508
 20
934.9458030579
 30
0.0
  0
VERTEX
  5
346
  8
0
  6
CONTINUOUS
 62
     7
 10
3062.7288791168
 20
942.0122391699
 30
0.0
  0
VERTEX
  5
347
  8
0
  6
CONTINUOUS
 62
     7
 10
3061.9751783836
 20
949.779134166
 30
0.0
  0
VERTEX
  5
348
  8
0
  6
CONTINUOUS
 62
     7
 10
3061.2363788117
 20
958.1727272985
 30
0.0
  0
VERTEX
  5
349
  8
0
  6
CONTINUOUS
 62
     7
 10
3060.5348917473
 20
967.1025163648
 30
0.0
  0
VERTEX
  5
34A
  8
0
  6
CONTINUOUS
 62
     7
 10
3059.893128537
 20
976.4780140636
 30
0.0
  0
VERTEX
  5
34B
  8
0
  6
CONTINUOUS
 62
     7
 10
3059.215244912
 20
988.4957074342
 30
0.0
  0
VERTEX
  5
34C
  8
0
  6
CONTINUOUS
 62
     7
 10
3058.6758228767
 20
1001.0325870631
 30
0.0
  0
VERTEX
  5
34D
  8
0
  6
CONTINUOUS
 62
     7
 10
3058.300432824
 20
1013.8889177857
 30
0.0
  0
SEQEND
  5
3A4
  8
0
  6
CONTINUOUS
 62
     7
  0
LINE
  5
1AA
  8
0
  6
CONTINUOUS
 62
     7
 10
3067.0635673035
 20
665.8889166234
 30
0.0
 11
3067.0635673035
 21
906.9548807261
 31
0.0
  0
LINE
  5
1AB
  8
0
  6
CONTINUOUS
 62
     7
 10
3067.0635673035
 20
1160.8229539511
 30
0.0
 11
3067.0635673035
 21
1401.8889180539
 31
0.0
  0
ARC
  5
1AC
  8
0
  6
CONTINUOUS
 62
     7
 10
2244.01333356
 20
1033.8889173386
 30
0.0
 40
0.6266797131618622
 50
292.8679057829
 51
67.1320942171
  0
ARC
  5
1AD
  8
0
  6
CONTINUOUS
 62
     7
 10
2222.3390582804
 20
1097.4530047156
 30
0.0
 40
0.6234115742699436
 50
90.146958394
 51
180.1461210132
  0
LINE
  5
1AE
  8
0
  6
CONTINUOUS
 62
     7
 10
2221.7156487334
 20
1085.566364151
 30
0.0
 11
2221.7156487334
 21
1097.4514148352
 31
0.0
  0
ARC
  5
1AF
  8
0
  6
CONTINUOUS
 62
     7
 10
2222.3395855347
 20
1085.5653803916
 30
0.0
 40
0.623937576813379
 50
179.9096619767
 51
271.9404510053
  0
ARC
  5
1B0
  8
0
  6
CONTINUOUS
 62
     7
 10
2222.835511242
 20
1071.243646245
 30
0.0
 40
13.70638051038179
 50
357.5318163942
 51
91.9851633865
  0
ARC
  5
1B1
  8
0
  6
CONTINUOUS
 62
     7
 10
2235.9363381001
 20
1070.6555523606
 30
0.0
 40
0.5928420551440897
 50
284.5823251073
 51
359.7906620808
  0
ARC
  5
1B2
  8
0
  6
CONTINUOUS
 62
     7
 10
2222.3191339085
 20
1074.9969839277
 30
0.0
 40
0.6037190632049764
 50
88.2428823927
 51
181.594917704
  0
LINE
  5
1B3
  8
0
  6
CONTINUOUS
 62
     7
 10
2221.7156487334
 20
1062.8032664923
 30
0.0
 11
2221.7156487334
 21
1074.9801806329
 31
0.0
  0
ARC
  5
1B4
  8
0
  6
CONTINUOUS
 62
     7
 10
2222.3422362579
 20
1062.803507028
 30
0.0
 40
0.6265875706294642
 50
180.0219948255
 51
247.208558803
  0
POLYLINE
  5
1B5
  8
0
  6
CONTINUOUS
 62
     7
 66
     1
 10
0.0
 20
0.0
 30
0.0
  0
VERTEX
  5
34E
  8
0
  6
CONTINUOUS
 62
     7
 10
2263.4175094593
 20
1044.9790441585
 30
0.0
  0
VERTEX
  5
34F
  8
0
  6
CONTINUOUS
 62
     7
 10
2242.786859237
 20
1053.6024420677
 30
0.0
  0
VERTEX
  5
350
  8
0
  6
CONTINUOUS
 62
     7
 10
2222.0995100964
 20
1062.2258427707
 30
0.0
  0
SEQEND
  5
3A3
  8
0
  6
CONTINUOUS
 62
     7
  0
POLYLINE
  5
1B6
  8
0
  6
CONTINUOUS
 62
     7
 66
     1
 10
0.0
 20
0.0
 30
0.0
  0
VERTEX
  5
351
  8
0
  6
CONTINUOUS
 62
     7
 10
2263.677430414
 20
1044.9356985433
 30
0.0
  0
VERTEX
  5
352
  8
0
  6
CONTINUOUS
 62
     7
 10
2263.5639729727
 20
1044.938258749
 30
0.0
  0
VERTEX
  5
353
  8
0
  6
CONTINUOUS
 62
     7
 10
2263.4175094593
 20
1044.9790441585
 30
0.0
  0
SEQEND
  5
3A2
  8
0
  6
CONTINUOUS
 62
     7
  0
ARC
  5
1B7
  8
0
  6
CONTINUOUS
 62
     7
 10
2263.6216543119
 20
1090.6113323367
 30
0.0
 40
0.5123313003811615
 50
87.1157082459
 51
125.8101321091
  0
LINE
  5
1B8
  8
0
  6
CONTINUOUS
 62
     7
 10
2246.7650147904
 20
1080.3798175571
 30
0.0
 11
2263.3218887079
 21
1091.0268127141
 31
0.0
  0
ARC
  5
1B9
  8
0
  6
CONTINUOUS
 62
     7
 10
2222.3390641491
 20
973.6998333269
 30
0.0
 40
0.6234174281175464
 50
179.8544169799
 51
269.8525036129
  0
LINE
  5
1BA
  8
0
  6
CONTINUOUS
 62
     7
 10
2263.4175094593
 20
969.7468689797
 30
0.0
 11
2235.0020753968
 21
981.6178604183
 31
0.0
  0
POLYLINE
  5
1BB
  8
0
  6
CONTINUOUS
 62
     7
 66
     1
 10
0.0
 20
0.0
 30
0.0
  0
VERTEX
  5
354
  8
0
  6
CONTINUOUS
 62
     7
 10
2263.677430414
 20
969.7035289524
 30
0.0
  0
VERTEX
  5
355
  8
0
  6
CONTINUOUS
 62
     7
 10
2263.5639729727
 20
969.7060845015
 30
0.0
  0
VERTEX
  5
356
  8
0
  6
CONTINUOUS
 62
     7
 10
2263.4175094593
 20
969.7468689797
 30
0.0
  0
SEQEND
  5
3A1
  8
0
  6
CONTINUOUS
 62
     7
  0
POLYLINE
  5
1BC
  8
0
  6
CONTINUOUS
 62
     7
 66
     1
 10
0.0
 20
0.0
 30
0.0
  0
VERTEX
  5
357
  8
0
  6
CONTINUOUS
 62
     7
 10
2263.4175094593
 20
1022.7987905187
 30
0.0
  0
VERTEX
  5
358
  8
0
  6
CONTINUOUS
 62
     7
 10
2263.5637047518
 20
1022.8393179519
 30
0.0
  0
VERTEX
  5
359
  8
0
  6
CONTINUOUS
 62
     7
 10
2263.6772814024
 20
1022.8419144792
 30
0.0
  0
SEQEND
  5
3A0
  8
0
  6
CONTINUOUS
 62
     7
  0
POLYLINE
  5
1BD
  8
0
  6
CONTINUOUS
 62
     7
 66
     1
 10
0.0
 20
0.0
 30
0.0
  0
VERTEX
  5
35A
  8
0
  6
CONTINUOUS
 62
     7
 10
2222.0995100964
 20
1005.5519919066
 30
0.0
  0
VERTEX
  5
35B
  8
0
  6
CONTINUOUS
 62
     7
 10
2242.786859237
 20
1014.1753926096
 30
0.0
  0
VERTEX
  5
35C
  8
0
  6
CONTINUOUS
 62
     7
 10
2263.4175094593
 20
1022.7987905187
 30
0.0
  0
SEQEND
  5
39F
  8
0
  6
CONTINUOUS
 62
     7
  0
ARC
  5
1BE
  8
0
  6
CONTINUOUS
 62
     7
 10
2222.3422457678
 20
1004.9743213272
 30
0.0
 40
0.6265970829469287
 50
112.7920189434
 51
179.9774274281
  0
LINE
  5
1BF
  8
0
  6
CONTINUOUS
 62
     7
 10
2221.7156487334
 20
973.7014173684
 30
0.0
 11
2221.7156487334
 21
1004.974568185
 31
0.0
  0
ARC
  5
1C0
  8
0
  6
CONTINUOUS
 62
     7
 10
2223.1314862229
 20
1071.2737381409
 30
0.0
 40
24.9430022879564
 50
22.1305331998
 51
62.0636777929
  0
ARC
  5
1C1
  8
0
  6
CONTINUOUS
 62
     7
 10
2246.8123751288
 20
1080.9028466582
 30
0.0
 40
0.6207278480666835
 50
202.0102346284
 51
302.5836456337
  0
LINE
  5
1C2
  8
0
  6
CONTINUOUS
 62
     7
 10
2247.1466558803
 20
1080.3798175571
 30
0.0
 11
2263.756376766
 21
1091.0268127141
 31
0.0
  0
ARC
  5
1C3
  8
0
  6
CONTINUOUS
 62
     7
 10
2264.0897047362
 20
1090.5036485557
 30
0.0
 40
0.6203291644749493
 50
359.6345180406
 51
122.502776563
  0
LINE
  5
1C4
  8
0
  6
CONTINUOUS
 62
     7
 10
2264.7100212801
 20
1090.4996915875
 30
0.0
 11
2264.7100212801
 21
1078.3227793095
 31
0.0
  0
ARC
  5
1C5
  8
0
  6
CONTINUOUS
 62
     7
 10
2264.084407278
 20
1078.3217248118
 30
0.0
 40
0.6256148907992966
 50
302.7675390875
 51
0.0965742689
  0
LINE
  5
1C6
  8
0
  6
CONTINUOUS
 62
     7
 10
2264.4230100144
 20
1077.7956619082
 30
0.0
 11
2246.9717535008
 21
1066.6088163076
 31
0.0
  0
ARC
  5
1C7
  8
0
  6
CONTINUOUS
 62
     7
 10
2247.3100739367
 20
1066.0818111605
 30
0.0
 40
0.6262548542683496
 50
122.6991642486
 51
247.2516244314
  0
LINE
  5
1C8
  8
0
  6
CONTINUOUS
 62
     7
 10
2247.0679106939
 20
1065.5042714594
 30
0.0
 11
2264.3270912397
 21
1058.3108048109
 31
0.0
  0
ARC
  5
1C9
  8
0
  6
CONTINUOUS
 62
     7
 10
2264.0853140578
 20
1057.7347797557
 30
0.0
 40
0.6247087880738956
 50
359.8717198325
 51
67.2305608772
  0
LINE
  5
1CA
  8
0
  6
CONTINUOUS
 62
     7
 10
2264.7100212801
 20
1057.7333810894
 30
0.0
 11
2264.7100212801
 21
1045.5564688114
 31
0.0
  0
ARC
  5
1CB
  8
0
  6
CONTINUOUS
 62
     7
 10
2264.0891658785
 20
1045.5529485625
 30
0.0
 40
0.6208653814061491
 50
247.5723550955
 51
0.3248634791
  0
POLYLINE
  5
1CC
  8
0
  6
CONTINUOUS
 62
     7
 66
     1
 10
0.0
 20
0.0
 30
0.0
  0
VERTEX
  5
35D
  8
0
  6
CONTINUOUS
 62
     7
 10
2263.8522955406
 20
1044.9790441585
 30
0.0
  0
VERTEX
  5
35E
  8
0
  6
CONTINUOUS
 62
     7
 10
2243.1558045376
 20
1053.6024420677
 30
0.0
  0
VERTEX
  5
35F
  8
0
  6
CONTINUOUS
 62
     7
 10
2222.4024283517
 20
1062.2258427707
 30
0.0
  0
SEQEND
  5
39E
  8
0
  6
CONTINUOUS
 62
     7
  0
ARC
  5
1CD
  8
0
  6
CONTINUOUS
 62
     7
 10
2222.642107804
 20
1062.8028024053
 30
0.0
 40
0.6247628828171601
 50
179.957439486
 51
247.4411191122
  0
LINE
  5
1CE
  8
0
  6
CONTINUOUS
 62
     7
 10
2222.0173450935
 20
1062.8032664923
 30
0.0
 11
2222.0173450935
 21
1074.9801806329
 31
0.0
  0
ARC
  5
1CF
  8
0
  6
CONTINUOUS
 62
     7
 10
2222.6412781643
 20
1074.9810817063
 30
0.0
 40
0.623933721380097
 50
67.5199381078
 51
180.0827455222
  0
LINE
  5
1D0
  8
0
  6
CONTINUOUS
 62
     7
 10
2222.8798466552
 20
1075.5576043544
 30
0.0
 11
2236.0175522793
 21
1070.1008699057
 31
0.0
  0
ARC
  5
1D1
  8
0
  6
CONTINUOUS
 62
     7
 10
2236.2556575771
 20
1070.6764926052
 30
0.0
 40
0.6229250556949936
 50
247.5276542075
 51
357.8742298886
  0
ARC
  5
1D2
  8
0
  6
CONTINUOUS
 62
     7
 10
2223.1620487646
 20
1071.2228977638
 30
0.0
 40
13.72792353302918
 50
357.6223666889
 51
92.0772027364
  0
ARC
  5
1D3
  8
0
  6
CONTINUOUS
 62
     7
 10
2222.6415402979
 20
1085.5655751817
 30
0.0
 40
0.6241957030159947
 50
179.9275794057
 51
272.1047881083
  0
LINE
  5
1D4
  8
0
  6
CONTINUOUS
 62
     7
 10
2222.0173450935
 20
1085.566364151
 30
0.0
 11
2222.0173450935
 21
1097.4514148352
 31
0.0
  0
ARC
  5
1D5
  8
0
  6
CONTINUOUS
 62
     7
 10
2222.6417474218
 20
1097.4520119161
 30
0.0
 40
0.6244026137616613
 50
90.0552830293
 51
180.0547887162
  0
LINE
  5
1D6
  8
0
  6
CONTINUOUS
 62
     7
 10
2222.641144954
 20
1098.0764142392
 30
0.0
 11
2233.8619726527
 21
1098.0764142392
 31
0.0
  0
ARC
  5
1D7
  8
0
  6
CONTINUOUS
 62
     7
 10
2233.8609587318
 20
1097.4524572276
 30
0.0
 40
0.623957835363476
 50
359.9042808518
 51
89.9068952857
  0
LINE
  5
1D8
  8
0
  6
CONTINUOUS
 62
     7
 10
2234.4849156964
 20
1097.4514148352
 30
0.0
 11
2234.4849156964
 21
1093.862820339
 31
0.0
  0
ARC
  5
1D9
  8
0
  6
CONTINUOUS
 62
     7
 10
2235.1093074641
 20
1093.8618649195
 30
0.0
 40
0.6243924986518629
 50
179.9123283389
 51
242.0893234386
  0
LINE
  5
1DA
  8
0
  6
CONTINUOUS
 62
     7
 10
2222.0173450935
 20
1097.4514148352
 30
0.0
 11
2221.7156487334
 21
1097.4514148352
 31
0.0
  0
LINE
  5
1DB
  8
0
  6
CONTINUOUS
 62
     7
 10
2222.0173450935
 20
1085.566364151
 30
0.0
 11
2221.7156487334
 21
1085.566364151
 31
0.0
  0
LINE
  5
1DC
  8
0
  6
CONTINUOUS
 62
     7
 10
2222.6644652713
 20
1084.941800606
 30
0.0
 11
2222.5141572583
 21
1084.941800606
 31
0.0
  0
LINE
  5
1DD
  8
0
  6
CONTINUOUS
 62
     7
 10
2222.0173450935
 20
1062.8032664923
 30
0.0
 11
2221.7156487334
 21
1062.8032664923
 31
0.0
  0
LINE
  5
1DE
  8
0
  6
CONTINUOUS
 62
     7
 10
2222.4024283517
 20
1062.2258427707
 30
0.0
 11
2222.0995100964
 21
1062.2258427707
 31
0.0
  0
LINE
  5
1DF
  8
0
  6
CONTINUOUS
 62
     7
 10
2222.0173450935
 20
1074.9801806329
 30
0.0
 11
2221.7156487334
 21
1074.9801806329
 31
0.0
  0
LINE
  5
1E0
  8
0
  6
CONTINUOUS
 62
     7
 10
2222.0173450935
 20
973.7014173684
 30
0.0
 11
2222.0173450935
 21
1004.974568185
 31
0.0
  0
ARC
  5
1E1
  8
0
  6
CONTINUOUS
 62
     7
 10
2222.6421009577
 20
1004.9750368378
 30
0.0
 40
0.6247560398991155
 50
112.5584616955
 51
180.0429797062
  0
POLYLINE
  5
1E2
  8
0
  6
CONTINUOUS
 62
     7
 66
     1
 10
0.0
 20
0.0
 30
0.0
  0
VERTEX
  5
360
  8
0
  6
CONTINUOUS
 62
     7
 10
2222.4024283517
 20
1005.5519919066
 30
0.0
  0
VERTEX
  5
361
  8
0
  6
CONTINUOUS
 62
     7
 10
2243.1558045376
 20
1014.1753926096
 30
0.0
  0
VERTEX
  5
362
  8
0
  6
CONTINUOUS
 62
     7
 10
2263.8522955406
 20
1022.7987905187
 30
0.0
  0
SEQEND
  5
39D
  8
0
  6
CONTINUOUS
 62
     7
  0
ARC
  5
1E3
  8
0
  6
CONTINUOUS
 62
     7
 10
2264.0891658785
 20
1022.2248861148
 30
0.0
 40
0.6208653814060456
 50
359.6751365209
 51
112.4276449045
  0
LINE
  5
1E4
  8
0
  6
CONTINUOUS
 62
     7
 10
2264.7100212801
 20
1022.2213658659
 30
0.0
 11
2264.7100212801
 21
1010.0444535879
 31
0.0
  0
ARC
  5
1E5
  8
0
  6
CONTINUOUS
 62
     7
 10
2264.0853181479
 20
1010.0430522091
 30
0.0
 40
0.624704704051342
 50
292.7691895079
 51
0.1285297824
  0
LINE
  5
1E6
  8
0
  6
CONTINUOUS
 62
     7
 10
2264.3270912397
 20
1009.4670298664
 30
0.0
 11
2256.4035328854
 21
1006.1622857271
 31
0.0
  0
ARC
  5
1E7
  8
0
  6
CONTINUOUS
 62
     7
 10
2256.6448654013
 20
1005.586023725
 30
0.0
 40
0.6247553746809748
 50
112.7234270652
 51
180.1065403642
  0
LINE
  5
1E8
  8
0
  6
CONTINUOUS
 62
     7
 10
2256.0201111067
 20
1005.5848620055
 30
0.0
 11
2256.0201111067
 21
986.9607984243
 31
0.0
  0
ARC
  5
1E9
  8
0
  6
CONTINUOUS
 62
     7
 10
2256.6448662054
 20
986.9596372387
 30
0.0
 40
0.6247561778062215
 50
179.8935087412
 51
247.2765238295
  0
LINE
  5
1EA
  8
0
  6
CONTINUOUS
 62
     7
 10
2256.4035328854
 20
986.3833747027
 30
0.0
 11
2264.3270912397
 21
983.0786324261
 31
0.0
  0
ARC
  5
1EB
  8
0
  6
CONTINUOUS
 62
     7
 10
2264.0853152575
 20
982.5026081665
 30
0.0
 40
0.6247075901814899
 50
359.8716466179
 51
67.2306340918
  0
LINE
  5
1EC
  8
0
  6
CONTINUOUS
 62
     7
 10
2264.7100212801
 20
982.5012087045
 30
0.0
 11
2264.7100212801
 21
970.3242964266
 31
0.0
  0
ARC
  5
1ED
  8
0
  6
CONTINUOUS
 62
     7
 10
2264.0891634517
 20
970.3207770055
 30
0.0
 40
0.6208678034712587
 50
247.5726896266
 51
0.3247858091
  0
LINE
  5
1EE
  8
0
  6
CONTINUOUS
 62
     7
 10
2263.8522955406
 20
969.7468689797
 30
0.0
 11
2235.3461730111
 21
981.6178604183
 31
0.0
  0
ARC
  5
1EF
  8
0
  6
CONTINUOUS
 62
     7
 10
2235.1080473197
 20
981.0420204276
 30
0.0
 40
0.6231336452823667
 50
67.5335583495
 51
180.1459632826
  0
LINE
  5
1F0
  8
0
  6
CONTINUOUS
 62
     7
 10
2234.4849156964
 20
981.0404329715
 30
0.0
 11
2234.4849156964
 21
973.7014173684
 31
0.0
  0
ARC
  5
1F1
  8
0
  6
CONTINUOUS
 62
     7
 10
2233.8609528659
 20
973.7003808226
 30
0.0
 40
0.6239636914765421
 50
270.0936424768
 51
0.0951813857
  0
LINE
  5
1F2
  8
0
  6
CONTINUOUS
 62
     7
 10
2222.641144954
 20
973.0764179645
 30
0.0
 11
2233.8619726527
 21
973.0764179645
 31
0.0
  0
ARC
  5
1F3
  8
0
  6
CONTINUOUS
 62
     7
 10
2222.6417532863
 20
973.7008261408
 30
0.0
 40
0.624408472691362
 50
179.9457488926
 51
269.944179362
  0
ARC
  5
1F4
  8
0
  6
CONTINUOUS
 62
     7
 10
2234.2694609943
 20
996.2728302149
 30
0.0
 40
0.6256968834659917
 50
112.6533566248
 51
247.3466433752
  0
LINE
  5
1F5
  8
0
  6
CONTINUOUS
 62
     7
 10
2243.6597767103
 20
991.6904865918
 30
0.0
 11
2234.0284707773
 21
995.6954046307
 31
0.0
  0
ARC
  5
1F6
  8
0
  6
CONTINUOUS
 62
     7
 10
2243.89703941
 20
992.2665196555
 30
0.0
 40
0.6229828882204869
 50
247.6136896022
 51
0.1278990141
  0
LINE
  5
1F7
  8
0
  6
CONTINUOUS
 62
     7
 10
2244.520020746
 20
1000.2777501164
 30
0.0
 11
2244.520020746
 21
992.2679103134
 31
0.0
  0
ARC
  5
1F8
  8
0
  6
CONTINUOUS
 62
     7
 10
2243.8970440181
 20
1000.2791476395
 30
0.0
 40
0.6229782954838003
 50
359.8714686485
 51
112.3869427351
  0
LINE
  5
1F9
  8
0
  6
CONTINUOUS
 62
     7
 10
2234.0284707773
 20
996.8502557991
 30
0.0
 11
2243.6597767103
 21
1000.8551738379
 31
0.0
  0
LINE
  5
1FA
  8
0
  6
CONTINUOUS
 62
     7
 10
2222.0173450935
 20
973.7014173684
 30
0.0
 11
2221.7156487334
 21
973.7014173684
 31
0.0
  0
LINE
  5
1FB
  8
0
  6
CONTINUOUS
 62
     7
 10
2222.0173450935
 20
1004.974568185
 30
0.0
 11
2221.7156487334
 21
1004.974568185
 31
0.0
  0
LINE
  5
1FC
  8
0
  6
CONTINUOUS
 62
     7
 10
2222.4024283517
 20
1005.5519919066
 30
0.0
 11
2222.0995100964
 21
1005.5519919066
 31
0.0
  0
LINE
  5
1FD
  8
0
  6
CONTINUOUS
 62
     7
 10
2263.8522955406
 20
1044.9790441585
 30
0.0
 11
2263.4175094593
 21
1044.9790441585
 31
0.0
  0
LINE
  5
1FE
  8
0
  6
CONTINUOUS
 62
     7
 10
2263.8522955406
 20
1022.7987905187
 30
0.0
 11
2263.4175094593
 21
1022.7987905187
 31
0.0
  0
LINE
  5
1FF
  8
0
  6
CONTINUOUS
 62
     7
 10
2236.8781539429
 20
1070.6533863364
 30
0.0
 11
2236.5291761983
 21
1070.6533863364
 31
0.0
  0
LINE
  5
200
  8
0
  6
CONTINUOUS
 62
     7
 10
2235.3461730111
 20
981.6178604183
 30
0.0
 11
2235.0020753968
 21
981.6178604183
 31
0.0
  0
LINE
  5
201
  8
0
  6
CONTINUOUS
 62
     7
 10
2263.8522955406
 20
969.7468689797
 30
0.0
 11
2263.4175094593
 21
969.7468689797
 31
0.0
  0
LINE
  5
202
  8
0
  6
CONTINUOUS
 62
     7
 10
2244.520020746
 20
1000.2777501164
 30
0.0
 11
2244.1467392076
 21
1000.2777501164
 31
0.0
  0
ARC
  5
203
  8
0
  6
CONTINUOUS
 62
     7
 10
2243.5540241056
 20
1000.2999601646
 30
0.0
 40
0.5931310802104082
 50
357.8540332107
 51
74.1738219333
  0
ARC
  5
204
  8
0
  6
CONTINUOUS
 62
     7
 10
2243.5530841654
 20
992.246259512
 30
0.0
 40
0.5940497170181467
 50
285.9065108565
 51
2.0886708697
  0
LINE
  5
205
  8
0
  6
CONTINUOUS
 62
     7
 10
2244.520020746
 20
992.2679103134
 30
0.0
 11
2244.1467392076
 21
992.2679103134
 31
0.0
  0
LINE
  5
206
  8
0
  6
CONTINUOUS
 62
     7
 10
2244.1467392076
 20
1000.2777501164
 30
0.0
 11
2244.1467392076
 21
992.2679103134
 31
0.0
  0
LINE
  5
207
  8
0
  6
CONTINUOUS
 62
     7
 10
2247.1466558803
 20
1080.3798175571
 30
0.0
 11
2246.7650147904
 21
1080.3798175571
 31
0.0
  0
LINE
  5
208
  8
0
  6
CONTINUOUS
 62
     7
 10
2263.756376766
 20
1091.0268127141
 30
0.0
 11
2263.3218887079
 21
1091.0268127141
 31
0.0
  0
POLYLINE
  5
209
  8
0
  6
CONTINUOUS
 62
     7
 66
     1
 10
0.0
 20
0.0
 30
0.0
  0
VERTEX
  5
363
  8
0
  6
CONTINUOUS
 62
     7
 10
501.6426416863
 20
804.9040547726
 30
0.0
  0
VERTEX
  5
364
  8
0
  6
CONTINUOUS
 62
     7
 10
501.6701790321
 20
804.9879185078
 30
0.0
  0
VERTEX
  5
365
  8
0
  6
CONTINUOUS
 62
     7
 10
501.5528770912
 20
806.2034807322
 30
0.0
  0
VERTEX
  5
366
  8
0
  6
CONTINUOUS
 62
     7
 10
501.1996599663
 20
808.2472196935
 30
0.0
  0
VERTEX
  5
367
  8
0
  6
CONTINUOUS
 62
     7
 10
500.9623142708
 20
810.4689977286
 30
0.0
  0
VERTEX
  5
368
  8
0
  6
CONTINUOUS
 62
     7
 10
501.0310980309
 20
812.4276361583
 30
0.0
  0
VERTEX
  5
369
  8
0
  6
CONTINUOUS
 62
     7
 10
501.4153095711
 20
814.3557421086
 30
0.0
  0
VERTEX
  5
36A
  8
0
  6
CONTINUOUS
 62
     7
 10
502.1699043739
 20
816.4847902177
 30
0.0
  0
VERTEX
  5
36B
  8
0
  6
CONTINUOUS
 62
     7
 10
503.0652853478
 20
818.5635916112
 30
0.0
  0
VERTEX
  5
36C
  8
0
  6
CONTINUOUS
 62
     7
 10
503.3419701088
 20
819.3251601575
 30
0.0
  0
VERTEX
  5
36D
  8
0
  6
CONTINUOUS
 62
     7
 10
503.4020515907
 20
819.6698538182
 30
0.0
  0
SEQEND
  5
39C
  8
0
  6
CONTINUOUS
 62
     7
  0
POLYLINE
  5
20A
  8
0
  6
CONTINUOUS
 62
     7
 66
     1
 10
0.0
 20
0.0
 30
0.0
  0
VERTEX
  5
36E
  8
0
  6
CONTINUOUS
 62
     7
 10
856.2332960594
 20
1097.4477789519
 30
0.0
  0
VERTEX
  5
36F
  8
0
  6
CONTINUOUS
 62
     7
 10
856.6574427116
 20
1097.4127761243
 30
0.0
  0
VERTEX
  5
370
  8
0
  6
CONTINUOUS
 62
     7
 10
858.1588837135
 20
1097.6327694176
 30
0.0
  0
VERTEX
  5
371
  8
0
  6
CONTINUOUS
 62
     7
 10
860.5595203865
 20
1098.0138219116
 30
0.0
  0
VERTEX
  5
372
  8
0
  6
CONTINUOUS
 62
     7
 10
862.6180263985
 20
1098.1175861476
 30
0.0
  0
VERTEX
  5
373
  8
0
  6
CONTINUOUS
 62
     7
 10
864.794907235
 20
1097.8664792297
 30
0.0
  0
VERTEX
  5
374
  8
0
  6
CONTINUOUS
 62
     7
 10
866.567310952
 20
1097.367871475
 30
0.0
  0
VERTEX
  5
375
  8
0
  6
CONTINUOUS
 62
     7
 10
868.771967553
 20
1096.4751131056
 30
0.0
  0
VERTEX
  5
376
  8
0
  6
CONTINUOUS
 62
     7
 10
870.4437586296
 20
1095.7857928393
 30
0.0
  0
VERTEX
  5
377
  8
0
  6
CONTINUOUS
 62
     7
 10
870.9111782539
 20
1095.7125685332
 30
0.0
  0
SEQEND
  5
39B
  8
0
  6
CONTINUOUS
 62
     7
  0
POLYLINE
  5
20B
  8
0
  6
CONTINUOUS
 62
     7
 66
     1
 10
0.0
 20
0.0
 30
0.0
  0
VERTEX
  5
378
  8
0
  6
CONTINUOUS
 62
     7
 10
1148.7388583649
 20
742.8450695393
 30
0.0
  0
VERTEX
  5
379
  8
0
  6
CONTINUOUS
 62
     7
 10
1148.6965390671
 20
742.6131478665
 30
0.0
  0
VERTEX
  5
37A
  8
0
  6
CONTINUOUS
 62
     7
 10
1148.866531514
 20
741.2578574536
 30
0.0
  0
VERTEX
  5
37B
  8
0
  6
CONTINUOUS
 62
     7
 10
1149.241206311
 20
739.0354088662
 30
0.0
  0
VERTEX
  5
37C
  8
0
  6
CONTINUOUS
 62
     7
 10
1149.414715432
 20
736.9008771298
 30
0.0
  0
VERTEX
  5
37D
  8
0
  6
CONTINUOUS
 62
     7
 10
1149.2841216553
 20
734.964501035
 30
0.0
  0
VERTEX
  5
37E
  8
0
  6
CONTINUOUS
 62
     7
 10
1148.8577100266
 20
733.1026605485
 30
0.0
  0
VERTEX
  5
37F
  8
0
  6
CONTINUOUS
 62
     7
 10
1148.047027253
 20
730.9383264897
 30
0.0
  0
VERTEX
  5
380
  8
0
  6
CONTINUOUS
 62
     7
 10
1147.2955318916
 20
729.2003146527
 30
0.0
  0
VERTEX
  5
381
  8
0
  6
CONTINUOUS
 62
     7
 10
1147.0206948746
 20
728.4394911645
 30
0.0
  0
VERTEX
  5
382
  8
0
  6
CONTINUOUS
 62
     7
 10
1146.9651433457
 20
728.1084171651
 30
0.0
  0
SEQEND
  5
39A
  8
0
  6
CONTINUOUS
 62
     7
  0
POLYLINE
  5
20C
  8
0
  6
CONTINUOUS
 62
     7
 66
     1
 10
0.0
 20
0.0
 30
0.0
  0
VERTEX
  5
383
  8
0
  6
CONTINUOUS
 62
     7
 10
794.1505285729
 20
450.3394178269
 30
0.0
  0
VERTEX
  5
384
  8
0
  6
CONTINUOUS
 62
     7
 10
793.9988943565
 20
450.3770283578
 30
0.0
  0
VERTEX
  5
385
  8
0
  6
CONTINUOUS
 62
     7
 10
792.7144142616
 20
450.2332023499
 30
0.0
  0
VERTEX
  5
386
  8
0
  6
CONTINUOUS
 62
     7
 10
790.5818792809
 20
449.8676470635
 30
0.0
  0
VERTEX
  5
387
  8
0
  6
CONTINUOUS
 62
     7
 10
788.4042831886
 20
449.661355388
 30
0.0
  0
VERTEX
  5
388
  8
0
  6
CONTINUOUS
 62
     7
 10
786.4572378624
 20
449.7600606797
 30
0.0
  0
VERTEX
  5
389
  8
0
  6
CONTINUOUS
 62
     7
 10
784.5625254143
 20
450.1650146363
 30
0.0
  0
VERTEX
  5
38A
  8
0
  6
CONTINUOUS
 62
     7
 10
782.4158045281
 20
450.9473852036
 30
0.0
  0
VERTEX
  5
38B
  8
0
  6
CONTINUOUS
 62
     7
 10
780.6706997383
 20
451.7038277505
 30
0.0
  0
VERTEX
  5
38C
  8
0
  6
CONTINUOUS
 62
     7
 10
779.4193598259
 20
452.0946554063
 30
0.0
  0
SEQEND
  5
399
  8
0
  6
CONTINUOUS
 62
     7
  0
CIRCLE
  5
20D
  8
0
  6
CONTINUOUS
 62
     7
 10
825.1832558144
 20
773.8889173386
 30
0.0
 40
44.99999999999994
  0
ARC
  5
20E
  8
0
  6
CONTINUOUS
 62
     7
 10
825.1832558144
 20
773.8889173386
 30
0.0
 40
121.7382011852761
 50
90.0
 51
169.4461135709
  0
ARC
  5
20F
  8
0
  6
CONTINUOUS
 62
     7
 10
825.1832558144
 20
773.8889173386
 30
0.0
 40
121.7382011852761
 50
176.9819039538
 51
259.4461135709
  0
ARC
  5
210
  8
0
  6
CONTINUOUS
 62
     7
 10
825.1832558144
 20
773.8889173386
 30
0.0
 40
121.738201185276
 50
266.9819039538
 51
349.4461135709
  0
ARC
  5
211
  8
0
  6
CONTINUOUS
 62
     7
 10
825.1832558144
 20
773.8889173386
 30
0.0
 40
121.7382011852761
 50
356.9819039538
 51
79.4461135709
  0
LINE
  5
212
  8
0
  6
CONTINUOUS
 62
     7
 10
831.5929743279
 20
895.458262336
 30
0.0
 11
825.183210038
 21
895.6271222947
 31
0.0
  0
LINE
  5
213
  8
0
  6
CONTINUOUS
 62
     7
 10
759.6833082665
 20
1171.0020116685
 30
0.0
 11
889.1832205284
 21
1171.0020116685
 31
0.0
  0
LINE
  5
214
  8
0
  6
CONTINUOUS
 62
     7
 10
889.1832205284
 20
877.4465880511
 30
0.0
 11
889.1832205284
 21
1092.5250723181
 31
0.0
  0
LINE
  5
215
  8
0
  6
CONTINUOUS
 62
     7
 10
889.1832205284
 20
1117.9877407072
 30
0.0
 11
889.1832205284
 21
1171.0020116685
 31
0.0
  0
LINE
  5
216
  8
0
  6
CONTINUOUS
 62
     7
 10
759.6833082665
 20
876.5044174311
 30
0.0
 11
759.6833082665
 21
1092.2201126037
 31
0.0
  0
LINE
  5
217
  8
0
  6
CONTINUOUS
 62
     7
 10
759.6833082665
 20
1117.7053637026
 30
0.0
 11
759.6833082665
 21
1171.0020116685
 31
0.0
  0
LINE
  5
218
  8
0
  6
CONTINUOUS
 62
     7
 10
930.1832291115
 20
1033.8889173386
 30
0.0
 11
930.1832291115
 21
1081.4600474356
 31
0.0
  0
LINE
  5
219
  8
0
  6
CONTINUOUS
 62
     7
 10
930.1832291115
 20
1107.7676377414
 30
0.0
 11
930.1832291115
 21
1268.8889167426
 31
0.0
  0
LINE
  5
21A
  8
0
  6
CONTINUOUS
 62
     7
 10
930.1832291115
 20
835.4940227387
 30
0.0
 11
930.1832291115
 21
1033.8889173386
 31
0.0
  0
LINE
  5
21B
  8
0
  6
CONTINUOUS
 62
     7
 10
889.1832205284
 20
1171.0020116685
 30
0.0
 11
889.1832205284
 21
1268.8889167426
 31
0.0
  0
LINE
  5
21C
  8
0
  6
CONTINUOUS
 62
     7
 10
3184.5769258965
 20
826.7361930726
 30
0.0
 11
3282.1832272041
 21
826.7361930726
 31
0.0
  0
LINE
  5
21D
  8
0
  6
CONTINUOUS
 62
     7
 10
3282.1832272041
 20
826.7361930726
 30
0.0
 11
3282.1832272041
 21
1241.0416416047
 31
0.0
  0
LINE
  5
21E
  8
0
  6
CONTINUOUS
 62
     7
 10
3184.5769258965
 20
1241.0416416047
 30
0.0
 11
3282.1832272041
 21
1241.0416416047
 31
0.0
  0
LINE
  5
21F
  8
0
  6
CONTINUOUS
 62
     7
 10
1069.7895857323
 20
826.7361930726
 30
0.0
 11
972.1832844246
 21
826.7361930726
 31
0.0
  0
LINE
  5
220
  8
0
  6
CONTINUOUS
 62
     7
 10
1069.7895857323
 20
1241.0416416047
 30
0.0
 11
972.1832844246
 21
1241.0416416047
 31
0.0
  0
LINE
  5
221
  8
0
  6
CONTINUOUS
 62
     7
 10
972.1832844246
 20
826.7361930726
 30
0.0
 11
972.1832844246
 21
1063.7440531669
 31
0.0
  0
LINE
  5
222
  8
0
  6
CONTINUOUS
 62
     7
 10
972.1832844246
 20
1091.5223545549
 30
0.0
 11
972.1832844246
 21
1241.0416416047
 31
0.0
  0
LINE
  5
223
  8
0
  6
CONTINUOUS
 62
     7
 10
3367.1832653511
 20
1181.4725808022
 30
0.0
 11
3367.1832653511
 21
826.388921511
 31
0.0
  0
LINE
  5
224
  8
0
  6
CONTINUOUS
 62
     7
 10
3367.1832653511
 20
1241.3889131663
 30
0.0
 11
3367.1832653511
 21
1181.4725808022
 31
0.0
  0
LINE
  5
225
  8
0
  6
CONTINUOUS
 62
     7
 10
1207.3149057854
 20
1013.8889177857
 30
0.0
 11
1079.937991761
 21
1013.8889177857
 31
0.0
  0
LINE
  5
226
  8
0
  6
CONTINUOUS
 62
     7
 10
1044.3293425072
 20
1013.8889177857
 30
0.0
 11
972.1832844246
 21
1013.8889177857
 31
0.0
  0
LINE
  5
227
  8
0
  6
CONTINUOUS
 62
     7
 10
1207.3149057854
 20
1053.8889168916
 30
0.0
 11
1035.183248185
 21
1053.8889168916
 31
0.0
  0
LINE
  5
228
  8
0
  6
CONTINUOUS
 62
     7
 10
990.1832911003
 20
1053.8889168916
 30
0.0
 11
972.1832844246
 21
1053.8889168916
 31
0.0
  0
LINE
  5
229
  8
0
  6
CONTINUOUS
 62
     7
 10
3047.0516058434
 20
1013.8889177857
 30
0.0
 11
3282.1832272041
 21
1013.8889177857
 31
0.0
  0
LINE
  5
22A
  8
0
  6
CONTINUOUS
 62
     7
 10
3047.0516058434
 20
1053.8889168916
 30
0.0
 11
3282.1832272041
 21
1053.8889168916
 31
0.0
  0
LINE
  5
22B
  8
0
  6
CONTINUOUS
 62
     7
 10
922.6832958687
 20
700.9921482919
 30
0.0
 11
922.6832958687
 21
698.888908994
 31
0.0
  0
LINE
  5
22C
  8
0
  6
CONTINUOUS
 62
     7
 10
922.6832958687
 20
698.888908994
 30
0.0
 11
921.0748049248
 21
698.888908994
 31
0.0
  0
LINE
  5
22D
  8
0
  6
CONTINUOUS
 62
     7
 10
1187.3029443253
 20
1160.8229539511
 30
0.0
 11
972.1832844246
 21
1160.8229539511
 31
0.0
  0
LINE
  5
22E
  8
0
  6
CONTINUOUS
 62
     7
 10
3067.0635673035
 20
1160.8229539511
 30
0.0
 11
3282.1832272041
 21
1160.8229539511
 31
0.0
  0
LINE
  5
22F
  8
0
  6
CONTINUOUS
 62
     7
 10
1187.3029443253
 20
906.9548807261
 30
0.0
 11
1148.9014002312
 21
906.9548807261
 31
0.0
  0
LINE
  5
230
  8
0
  6
CONTINUOUS
 62
     7
 10
1121.6936680306
 20
906.9548807261
 30
0.0
 11
972.1832844246
 21
906.9548807261
 31
0.0
  0
LINE
  5
231
  8
0
  6
CONTINUOUS
 62
     7
 10
3067.0635673035
 20
906.9548807261
 30
0.0
 11
3282.1832272041
 21
906.9548807261
 31
0.0
  0
LINE
  5
232
  8
0
  6
CONTINUOUS
 62
     7
 10
747.6832243431
 20
1033.8889173386
 30
0.0
 11
747.6832243431
 21
1089.5132980464
 31
0.0
  0
LINE
  5
233
  8
0
  6
CONTINUOUS
 62
     7
 10
747.6832243431
 20
1115.200724375
 30
0.0
 11
747.6832243431
 21
1158.8889173386
 31
0.0
  0
LINE
  5
234
  8
0
  6
CONTINUOUS
 62
     7
 10
747.6832243431
 20
908.8889173386
 30
0.0
 11
747.6832243431
 21
1033.8889173386
 31
0.0
  0
LINE
  5
235
  8
0
  6
CONTINUOUS
 62
     7
 10
735.6832596291
 20
1033.8889173386
 30
0.0
 11
735.6832596291
 21
1086.3225086747
 31
0.0
  0
LINE
  5
236
  8
0
  6
CONTINUOUS
 62
     7
 10
735.6832596291
 20
1112.2522539614
 30
0.0
 11
735.6832596291
 21
1153.8889146564
 31
0.0
  0
LINE
  5
237
  8
0
  6
CONTINUOUS
 62
     7
 10
735.6832596291
 20
913.8889200208
 30
0.0
 11
735.6832596291
 21
1033.8889173386
 31
0.0
  0
LINE
  5
238
  8
0
  6
CONTINUOUS
 62
     7
 10
759.6833082665
 20
1171.0020116685
 30
0.0
 11
759.6833082665
 21
1209.7571752188
 31
0.0
  0
LINE
  5
239
  8
0
  6
CONTINUOUS
 62
     7
 10
1152.1832319725
 20
1466.8889156697
 30
0.0
 11
3102.1832796562
 21
1466.8889156697
 31
0.0
  0
LINE
  5
23A
  8
0
  6
CONTINUOUS
 62
     7
 10
1152.1832319725
 20
600.8889190076
 30
0.0
 11
3102.1832796562
 21
600.8889190076
 31
0.0
  0
LINE
  5
23B
  8
0
  6
CONTINUOUS
 62
     7
 10
3327.1833034981
 20
826.388921511
 30
0.0
 11
3327.1833034981
 21
1241.3889131663
 31
0.0
  0
ARC
  5
23C
  8
0
  6
CONTINUOUS
 62
     7
 10
4774.8868678376
 20
3685.7817806408
 30
0.0
 40
12.5
 50
90.0
 51
270.0
  0
ARC
  5
23D
  8
0
  6
CONTINUOUS
 62
     7
 10
5449.8868678376
 20
3685.7817806408
 30
0.0
 40
12.50000000000045
 50
270.0
 51
90.0
  0
LINE
  5
23E
  8
0
  6
CONTINUOUS
 62
     7
 10
4774.8868672416
 20
3673.2817634747
 30
0.0
 11
5449.8868940637
 21
3673.2817634747
 31
0.0
  0
LINE
  5
23F
  8
0
  6
CONTINUOUS
 62
     7
 10
5449.8868940637
 20
3698.2817992375
 30
0.0
 11
4774.8868672416
 21
3698.2817992375
 31
0.0
  0
LINE
  5
240
  8
0
  6
CONTINUOUS
 62
     7
 10
5114.4633053109
 20
3603.3380374119
 30
0.0
 11
5086.4312110707
 21
3673.2817634747
 31
0.0
  0
LINE
  5
241
  8
0
  6
CONTINUOUS
 62
     7
 10
5069.19403954
 20
3673.2817634747
 30
0.0
 11
5099.8168347642
 21
3596.873913686
 31
0.0
  0
LINE
  5
242
  8
0
  6
CONTINUOUS
 62
     7
 10
5234.1250835225
 20
3345.7817777798
 30
0.0
 11
5234.1250835225
 21
3400.7817849323
 31
0.0
  0
LINE
  5
243
  8
0
  6
CONTINUOUS
 62
     7
 10
4990.6486628816
 20
3400.7817849323
 30
0.0
 11
4990.6486628816
 21
3345.7817777798
 31
0.0
  0
LINE
  5
244
  8
0
  6
CONTINUOUS
 62
     7
 10
4990.6486628816
 20
3345.7817777798
 30
0.0
 11
5057.3868660495
 21
3289.7817835018
 31
0.0
  0
LINE
  5
245
  8
0
  6
CONTINUOUS
 62
     7
 10
5167.3868654534
 20
3289.7817835018
 30
0.0
 11
5234.1250835225
 21
3345.7817777798
 31
0.0
  0
LINE
  5
246
  8
0
  6
CONTINUOUS
 62
     7
 10
5157.1125148103
 20
3591.9487222836
 30
0.0
 11
5431.0463426873
 21
3673.2817634747
 31
0.0
  0
LINE
  5
247
  8
0
  6
CONTINUOUS
 62
     7
 10
5374.8324273393
 20
3673.2817634747
 30
0.0
 11
5157.0276974008
 21
3608.6138829395
 31
0.0
  0
LINE
  5
248
  8
0
  6
CONTINUOUS
 62
     7
 10
5157.3868749902
 20
3608.7205752537
 30
0.0
 11
5157.3868749902
 21
3615.2817949459
 31
0.0
  0
LINE
  5
249
  8
0
  6
CONTINUOUS
 62
     7
 10
5157.3868749902
 20
3541.9417664215
 30
0.0
 11
5157.3868749902
 21
3592.030201833
 31
0.0
  0
LINE
  5
24A
  8
0
  6
CONTINUOUS
 62
     7
 10
5067.3868714139
 20
3594.0572961971
 30
0.0
 11
5067.3868714139
 21
3541.9417664215
 31
0.0
  0
LINE
  5
24B
  8
0
  6
CONTINUOUS
 62
     7
 10
5067.3868714139
 20
3615.2817949459
 30
0.0
 11
5067.3868714139
 21
3606.2893613979
 31
0.0
  0
LINE
  5
24C
  8
0
  6
CONTINUOUS
 62
     7
 10
5142.386859493
 20
3400.7817849323
 30
0.0
 11
5142.386859493
 21
3419.7817787335
 31
0.0
  0
LINE
  5
24D
  8
0
  6
CONTINUOUS
 62
     7
 10
5082.38687201
 20
3419.7817787335
 30
0.0
 11
5082.38687201
 21
3400.7817849323
 31
0.0
  0
LINE
  5
24E
  8
0
  6
CONTINUOUS
 62
     7
 10
5122.3868785665
 20
3419.7817787335
 30
0.0
 11
5122.3868785665
 21
3541.9417664215
 31
0.0
  0
LINE
  5
24F
  8
0
  6
CONTINUOUS
 62
     7
 10
5102.3868678376
 20
3541.9417664215
 30
0.0
 11
5102.3868678376
 21
3419.7817787335
 31
0.0
  0
LINE
  5
250
  8
0
  6
CONTINUOUS
 62
     7
 10
5067.3868714139
 20
3608.7205752537
 30
0.0
 11
4849.9413360615
 21
3673.2817634747
 31
0.0
  0
LINE
  5
251
  8
0
  6
CONTINUOUS
 62
     7
 10
4793.7274148926
 20
3673.2817634747
 30
0.0
 11
5067.3868714139
 21
3592.030201833
 31
0.0
  0
LINE
  5
252
  8
0
  6
CONTINUOUS
 62
     7
 10
5132.3344169423
 20
3615.2817949459
 30
0.0
 11
5155.5796919629
 21
3673.2817634747
 31
0.0
  0
LINE
  5
253
  8
0
  6
CONTINUOUS
 62
     7
 10
5138.3425353334
 20
3673.2817634747
 30
0.0
 11
5115.0972603128
 21
3615.2817949459
 31
0.0
  0
LINE
  5
254
  8
0
  6
CONTINUOUS
 62
     7
 10
4419.3868695066
 20
2092.781756799
 30
0.0
 11
4422.3868606851
 21
2092.781756799
 31
0.0
  0
LINE
  5
255
  8
0
  6
CONTINUOUS
 62
     7
 10
4422.3868606851
 20
4042.7818044827
 30
0.0
 11
4419.3868695066
 21
4042.7818044827
 31
0.0
  0
ARC
  5
256
  8
0
  6
CONTINUOUS
 62
     7
 10
4419.3868678376
 20
2094.7817806408
 30
0.0
 40
2.000000000000455
 50
180.0
 51
270.0
  0
ARC
  5
257
  8
0
  6
CONTINUOUS
 62
     7
 10
4419.3868678376
 20
4040.7817806408
 30
0.0
 40
2.0
 50
90.0
 51
180.0
  0
ARC
  5
258
  8
0
  6
CONTINUOUS
 62
     7
 10
5285.3868678376
 20
2094.7817806408
 30
0.0
 40
2.000000000000455
 50
270.0
 51
0.0
  0
ARC
  5
259
  8
0
  6
CONTINUOUS
 62
     7
 10
5285.3868678376
 20
4040.7817806408
 30
0.0
 40
2.0
 50
0.0
 51
90.0
  0
LINE
  5
25A
  8
0
  6
CONTINUOUS
 62
     7
 10
5282.3868749902
 20
2092.781756799
 30
0.0
 11
5285.3868661687
 21
2092.781756799
 31
0.0
  0
LINE
  5
25B
  8
0
  6
CONTINUOUS
 62
     7
 10
5285.3868661687
 20
4042.7818044827
 30
0.0
 11
5282.3868749902
 21
4042.7818044827
 31
0.0
  0
ARC
  5
25C
  8
0
  6
CONTINUOUS
 62
     7
 10
5107.0061728389
 20
3600.0549867844
 30
0.0
 40
8.113903524328958
 50
270.4480136603
 51
23.8024602132
  0
ARC
  5
25D
  8
0
  6
CONTINUOUS
 62
     7
 10
5106.9401359925
 20
3599.4141318887
 30
0.0
 40
7.473922259780226
 50
199.5422798688
 51
270.992665706
  0
LINE
  5
25E
  8
0
  6
CONTINUOUS
 62
     7
 10
4990.6486628816
 20
3345.7817777798
 30
0.0
 11
5234.1250835225
 21
3345.7817777798
 31
0.0
  0
LINE
  5
25F
  8
0
  6
CONTINUOUS
 62
     7
 10
4990.6486628816
 20
3400.7817849323
 30
0.0
 11
5234.1250835225
 21
3400.7817849323
 31
0.0
  0
CIRCLE
  5
260
  8
0
  6
CONTINUOUS
 62
     7
 10
4852.3868678376
 20
3070.7817806408
 30
0.0
 40
119.9999999999995
  0
CIRCLE
  5
261
  8
0
  6
CONTINUOUS
 62
     7
 10
4852.3868678376
 20
3070.7817806408
 30
0.0
 40
125.0
  0
ARC
  5
262
  8
0
  6
CONTINUOUS
 62
     7
 10
5182.3868678376
 20
2904.2817806408
 30
0.0
 40
5.0
 50
270.0
 51
0.0
  0
LINE
  5
263
  8
0
  6
CONTINUOUS
 62
     7
 10
5041.1002693936
 20
2899.2817744419
 30
0.0
 11
5182.3868809507
 21
2899.2817744419
 31
0.0
  0
ARC
  5
264
  8
0
  6
CONTINUOUS
 62
     7
 10
4852.3868678376
 20
3070.7817806408
 30
0.0
 40
255.0000000000006
 50
237.4729040128
 51
317.7358944875
  0
LINE
  5
265
  8
0
  6
CONTINUOUS
 62
     7
 10
4715.2737735078
 20
2955.7817771837
 30
0.0
 11
4715.2737735078
 21
2855.7817831442
 31
0.0
  0
LINE
  5
266
  8
0
  6
CONTINUOUS
 62
     7
 10
4715.2737735078
 20
3285.7817753956
 30
0.0
 11
4715.2737735078
 21
3185.7817813561
 31
0.0
  0
ARC
  5
267
  8
0
  6
CONTINUOUS
 62
     7
 10
4852.3868678376
 20
3070.7817806408
 30
0.0
 40
255.0000000000007
 50
42.2641055125
 51
122.5270959872
  0
LINE
  5
268
  8
0
  6
CONTINUOUS
 62
     7
 10
5182.3868809507
 20
3242.2817840979
 30
0.0
 11
5041.1002693936
 21
3242.2817840979
 31
0.0
  0
ARC
  5
269
  8
0
  6
CONTINUOUS
 62
     7
 10
5182.3868678376
 20
3237.2817806408
 30
0.0
 40
5.0
 50
0.0
 51
90.0
  0
LINE
  5
26A
  8
0
  6
CONTINUOUS
 62
     7
 10
5187.3868761823
 20
2904.2817845747
 30
0.0
 11
5187.3868761823
 21
3237.2817739651
 31
0.0
  0
ARC
  5
26B
  8
0
  6
CONTINUOUS
 62
     7
 10
4866.5186104522
 20
3070.7817806408
 30
0.0
 40
189.9999999999998
 50
142.7522191042
 51
217.2477808958
  0
LINE
  5
26C
  8
0
  6
CONTINUOUS
 62
     7
 10
5157.3868749902
 20
3289.7817835018
 30
0.0
 11
5112.3868583009
 21
3289.7817835018
 31
0.0
  0
LINE
  5
26D
  8
0
  6
CONTINUOUS
 62
     7
 10
5157.3868749902
 20
3242.2817840979
 30
0.0
 11
5157.3868749902
 21
3289.7817835018
 31
0.0
  0
LINE
  5
26E
  8
0
  6
CONTINUOUS
 62
     7
 10
5067.3868714139
 20
3289.7817835018
 30
0.0
 11
5067.3868714139
 21
3242.2817840979
 31
0.0
  0
LINE
  5
26F
  8
0
  6
CONTINUOUS
 62
     7
 10
5112.3868583009
 20
3289.7817835018
 30
0.0
 11
5067.3868714139
 21
3289.7817835018
 31
0.0
  0
LINE
  5
270
  8
0
  6
CONTINUOUS
 62
     7
 10
5057.3868660495
 20
3242.2817840979
 30
0.0
 11
5057.3868660495
 21
3289.7817835018
 31
0.0
  0
LINE
  5
271
  8
0
  6
CONTINUOUS
 62
     7
 10
5057.3868660495
 20
3289.7817835018
 30
0.0
 11
5067.3868714139
 21
3289.7817835018
 31
0.0
  0
LINE
  5
272
  8
0
  6
CONTINUOUS
 62
     7
 10
5167.3868654534
 20
3289.7817835018
 30
0.0
 11
5167.3868654534
 21
3242.2817840979
 31
0.0
  0
LINE
  5
273
  8
0
  6
CONTINUOUS
 62
     7
 10
5157.3868749902
 20
3289.7817835018
 30
0.0
 11
5167.3868654534
 21
3289.7817835018
 31
0.0
  0
POLYLINE
  5
274
  8
0
  6
CONTINUOUS
 62
     7
 66
     1
 10
0.0
 20
0.0
 30
0.0
  0
VERTEX
  5
38D
  8
0
  6
CONTINUOUS
 62
     7
 10
5157.0865569875
 20
3592.0386060879
 30
0.0
  0
VERTEX
  5
38E
  8
0
  6
CONTINUOUS
 62
     7
 10
5156.8542776868
 20
3592.1014889881
 30
0.0
  0
VERTEX
  5
38F
  8
0
  6
CONTINUOUS
 62
     7
 10
5156.4037857816
 20
3593.0576666996
 30
0.0
  0
VERTEX
  5
390
  8
0
  6
CONTINUOUS
 62
     7
 10
5155.9351740644
 20
3594.7781547711
 30
0.0
  0
VERTEX
  5
391
  8
0
  6
CONTINUOUS
 62
     7
 10
5155.5734036729
 20
3597.0713242695
 30
0.0
  0
VERTEX
  5
392
  8
0
  6
CONTINUOUS
 62
     7
 10
5155.4167924687
 20
3599.707458894
 30
0.0
  0
VERTEX
  5
393
  8
0
  6
CONTINUOUS
 62
     7
 10
5155.5124579236
 20
3602.4707302258
 30
0.0
  0
VERTEX
  5
394
  8
0
  6
CONTINUOUS
 62
     7
 10
5155.8533368871
 20
3605.1081165478
 30
0.0
  0
VERTEX
  5
395
  8
0
  6
CONTINUOUS
 62
     7
 10
5156.3508270547
 20
3607.2274789021
 30
0.0
  0
VERTEX
  5
396
  8
0
  6
CONTINUOUS
 62
     7
 10
5156.8314789102
 20
3608.4108695194
 30
0.0
  0
VERTEX
  5
397
  8
0
  6
CONTINUOUS
 62
     7
 10
5157.0350287721
 20
3608.5900410816
 30
0.0
  0
SEQEND
  5
398
  8
0
  6
CONTINUOUS
 62
     7
  0
LINE
  5
275
  8
0
  6
CONTINUOUS
 62
     7
 10
5067.3868714139
 20
3615.2817949459
 30
0.0
 11
5092.4393145606
 21
3615.2817949459
 31
0.0
  0
LINE
  5
276
  8
0
  6
CONTINUOUS
 62
     7
 10
5109.6764860913
 20
3615.2817949459
 30
0.0
 11
5157.3868749902
 21
3615.2817949459
 31
0.0
  0
ARC
  5
277
  8
0
  6
CONTINUOUS
 62
     7
 10
4719.3587868098
 20
3600.1690889994
 30
0.0
 40
348.0902827417854
 50
358.9939451192
 51
1.0074508407
  0
LINE
  5
278
  8
0
  6
CONTINUOUS
 62
     7
 10
5157.071626024
 20
3541.9417664215
 30
0.0
 11
5067.3868714139
 21
3541.9417664215
 31
0.0
  0
LINE
  5
279
  8
0
  6
CONTINUOUS
 62
     7
 10
5157.3868749902
 20
3541.9417664215
 30
0.0
 11
5157.071626024
 21
3541.9417664215
 31
0.0
  0
LINE
  5
27A
  8
0
  6
CONTINUOUS
 62
     7
 10
5082.38687201
 20
3419.7817787335
 30
0.0
 11
5142.386859493
 21
3419.7817787335
 31
0.0
  0
ARC
  5
27B
  8
0
  6
CONTINUOUS
 62
     7
 10
4852.3868678376
 20
3070.7817806408
 30
0.0
 40
235.0000000000002
 50
125.6942680167
 51
234.3057319833
  0
LINE
  5
27C
  8
0
  6
CONTINUOUS
 62
     7
 10
4469.3868814275
 20
4026.5176638767
 30
0.0
 11
4422.3868606851
 21
4026.5176638767
 31
0.0
  0
LINE
  5
27D
  8
0
  6
CONTINUOUS
 62
     7
 10
4469.3868814275
 20
3082.7817803055
 30
0.0
 11
4469.3868814275
 21
4026.5176638767
 31
0.0
  0
LINE
  5
27E
  8
0
  6
CONTINUOUS
 62
     7
 10
4469.3868814275
 20
2109.0458974049
 30
0.0
 11
4469.3868814275
 21
3052.7817809761
 31
0.0
  0
LINE
  5
27F
  8
0
  6
CONTINUOUS
 62
     7
 10
4422.3868606851
 20
2109.0458974049
 30
0.0
 11
4469.3868814275
 21
2109.0458974049
 31
0.0
  0
LINE
  5
280
  8
0
  6
CONTINUOUS
 62
     7
 10
4422.3868606851
 20
2109.0458974049
 30
0.0
 11
4422.3868606851
 21
4026.5176638767
 31
0.0
  0
LINE
  5
281
  8
0
  6
CONTINUOUS
 62
     7
 10
4618.0772392318
 20
3052.7817809761
 30
0.0
 11
4469.3868814275
 21
3052.7817809761
 31
0.0
  0
LINE
  5
282
  8
0
  6
CONTINUOUS
 62
     7
 10
4617.6934449241
 20
3082.7817803055
 30
0.0
 11
4469.3868814275
 21
3082.7817803055
 31
0.0
  0
LINE
  5
283
  8
0
  6
CONTINUOUS
 62
     7
 10
5235.3868542478
 20
3082.7817803055
 30
0.0
 11
5235.3868542478
 21
3615.188990514
 31
0.0
  0
LINE
  5
284
  8
0
  6
CONTINUOUS
 62
     7
 10
5235.3868542478
 20
3631.8793639347
 30
0.0
 11
5235.3868542478
 21
3673.2817634747
 31
0.0
  0
LINE
  5
285
  8
0
  6
CONTINUOUS
 62
     7
 10
5235.3868542478
 20
3698.2817992375
 30
0.0
 11
5235.3868542478
 21
4026.5176638767
 31
0.0
  0
LINE
  5
286
  8
0
  6
CONTINUOUS
 62
     7
 10
5282.3868749902
 20
4026.5176638767
 30
0.0
 11
5235.3868542478
 21
4026.5176638767
 31
0.0
  0
LINE
  5
287
  8
0
  6
CONTINUOUS
 62
     7
 10
5282.3868749902
 20
2109.0458974049
 30
0.0
 11
5282.3868749902
 21
3629.1436895535
 31
0.0
  0
LINE
  5
288
  8
0
  6
CONTINUOUS
 62
     7
 10
5282.3868749902
 20
3645.8340033695
 30
0.0
 11
5282.3868749902
 21
3673.2817634747
 31
0.0
  0
LINE
  5
289
  8
0
  6
CONTINUOUS
 62
     7
 10
5282.3868749902
 20
3698.2817992375
 30
0.0
 11
5282.3868749902
 21
4026.5176638767
 31
0.0
  0
LINE
  5
28A
  8
0
  6
CONTINUOUS
 62
     7
 10
5235.3868542478
 20
2109.0458974049
 30
0.0
 11
5282.3868749902
 21
2109.0458974049
 31
0.0
  0
LINE
  5
28B
  8
0
  6
CONTINUOUS
 62
     7
 10
5235.3868542478
 20
2109.0458974049
 30
0.0
 11
5235.3868542478
 21
3052.7817809761
 31
0.0
  0
LINE
  5
28C
  8
0
  6
CONTINUOUS
 62
     7
 10
5187.3868761823
 20
3052.7817809761
 30
0.0
 11
5235.3868542478
 21
3052.7817809761
 31
0.0
  0
LINE
  5
28D
  8
0
  6
CONTINUOUS
 62
     7
 10
5187.3868761823
 20
3082.7817803055
 30
0.0
 11
5235.3868542478
 21
3082.7817803055
 31
0.0
  0
LINE
  5
28E
  8
0
  6
CONTINUOUS
 62
     7
 10
4417.3868654534
 20
3067.7817806408
 30
0.0
 11
4417.3868654534
 21
4040.7817706272
 31
0.0
  0
LINE
  5
28F
  8
0
  6
CONTINUOUS
 62
     7
 10
4417.3868654534
 20
2094.7817906544
 30
0.0
 11
4417.3868654534
 21
3067.7817806408
 31
0.0
  0
LINE
  5
290
  8
0
  6
CONTINUOUS
 62
     7
 10
5287.3868702218
 20
3067.7817806408
 30
0.0
 11
5287.3868702218
 21
3630.6282028362
 31
0.0
  0
LINE
  5
291
  8
0
  6
CONTINUOUS
 62
     7
 10
5287.3868702218
 20
3647.3185166523
 30
0.0
 11
5287.3868702218
 21
3673.2817634747
 31
0.0
  0
LINE
  5
292
  8
0
  6
CONTINUOUS
 62
     7
 10
5287.3868702218
 20
3698.2817992375
 30
0.0
 11
5287.3868702218
 21
4040.7817706272
 31
0.0
  0
LINE
  5
293
  8
0
  6
CONTINUOUS
 62
     7
 10
5287.3868702218
 20
2094.7817906544
 30
0.0
 11
5287.3868702218
 21
3067.7817806408
 31
0.0
  0
ARC
  5
294
  8
0
  6
CONTINUOUS
 62
     7
 10
4484.3866622425
 20
4022.5048743095
 30
0.0
 40
14.99978081531386
 50
180.0003557824
 51
270.0007825949
  0
LINE
  5
295
  8
0
  6
CONTINUOUS
 62
     7
 10
4484.3868671224
 20
3082.7817803055
 30
0.0
 11
4484.3868671224
 21
4007.5050934956
 31
0.0
  0
ARC
  5
296
  8
0
  6
CONTINUOUS
 62
     7
 10
5220.3870734327
 20
2113.0586869721
 30
0.0
 40
14.99978081531386
 50
0.0003557824
 51
90.0007825949
  0
LINE
  5
297
  8
0
  6
CONTINUOUS
 62
     7
 10
5220.3868685529
 20
2128.058467786
 30
0.0
 11
5220.3868685529
 21
3052.7817809761
 31
0.0
  0
ARC
  5
298
  8
0
  6
CONTINUOUS
 62
     7
 10
5220.3870510841
 20
4022.5048966586
 30
0.0
 40
14.99980316413062
 50
269.999302773
 51
359.9995588497
  0
LINE
  5
299
  8
0
  6
CONTINUOUS
 62
     7
 10
4484.3868671224
 20
2128.058467786
 30
0.0
 11
4484.3868671224
 21
3052.7817809761
 31
0.0
  0
ARC
  5
29A
  8
0
  6
CONTINUOUS
 62
     7
 10
4484.3866845912
 20
2113.058664623
 30
0.0
 40
14.99980316413062
 50
89.999302773
 51
179.9995588497
  0
LINE
  5
29B
  8
0
  6
CONTINUOUS
 62
     7
 10
5220.3868685529
 20
4007.5050934956
 30
0.0
 11
4484.3868671224
 21
4007.5050934956
 31
0.0
  0
LINE
  5
29C
  8
0
  6
CONTINUOUS
 62
     7
 10
4484.3868671224
 20
2128.058467786
 30
0.0
 11
5220.3868685529
 21
2128.058467786
 31
0.0
  0
LINE
  5
29D
  8
0
  6
CONTINUOUS
 62
     7
 10
4469.3868814275
 20
2036.5173563168
 30
0.0
 11
4422.3868606851
 21
2036.5173563168
 31
0.0
  0
LINE
  5
29E
  8
0
  6
CONTINUOUS
 62
     7
 10
4469.3868814275
 20
2109.0458974049
 30
0.0
 11
4469.3868814275
 21
2036.5173563168
 31
0.0
  0
LINE
  5
29F
  8
0
  6
CONTINUOUS
 62
     7
 10
4422.3868606851
 20
2036.5173563168
 30
0.0
 11
4422.3868606851
 21
2109.0458974049
 31
0.0
  0
LINE
  5
2A0
  8
0
  6
CONTINUOUS
 62
     7
 10
4422.3868606851
 20
4099.0462049648
 30
0.0
 11
4469.3868814275
 21
4099.0462049648
 31
0.0
  0
LINE
  5
2A1
  8
0
  6
CONTINUOUS
 62
     7
 10
4469.3868814275
 20
4099.0462049648
 30
0.0
 11
4469.3868814275
 21
4026.5176638767
 31
0.0
  0
LINE
  5
2A2
  8
0
  6
CONTINUOUS
 62
     7
 10
4422.3868606851
 20
4026.5176638767
 30
0.0
 11
4422.3868606851
 21
4099.0462049648
 31
0.0
  0
LINE
  5
2A3
  8
0
  6
CONTINUOUS
 62
     7
 10
5282.3868749902
 20
2036.5173563168
 30
0.0
 11
5235.3868542478
 21
2036.5173563168
 31
0.0
  0
LINE
  5
2A4
  8
0
  6
CONTINUOUS
 62
     7
 10
5235.3868542478
 20
2036.5173563168
 30
0.0
 11
5235.3868542478
 21
2109.0458974049
 31
0.0
  0
LINE
  5
2A5
  8
0
  6
CONTINUOUS
 62
     7
 10
5282.3868749902
 20
2109.0458974049
 30
0.0
 11
5282.3868749902
 21
2036.5173563168
 31
0.0
  0
LINE
  5
2A6
  8
0
  6
CONTINUOUS
 62
     7
 10
5235.3868542478
 20
4099.0462049648
 30
0.0
 11
5282.3868749902
 21
4099.0462049648
 31
0.0
  0
LINE
  5
2A7
  8
0
  6
CONTINUOUS
 62
     7
 10
5235.3868542478
 20
4026.5176638767
 30
0.0
 11
5235.3868542478
 21
4099.0462049648
 31
0.0
  0
LINE
  5
2A8
  8
0
  6
CONTINUOUS
 62
     7
 10
5282.3868749902
 20
4099.0462049648
 30
0.0
 11
5282.3868749902
 21
4026.5176638767
 31
0.0
  0
LINE
  5
2A9
  8
0
  6
CONTINUOUS
 62
     7
 10
4422.3868606851
 20
2010.2817758724
 30
0.0
 11
4469.3868814275
 21
2010.2817758724
 31
0.0
  0
LINE
  5
2AA
  8
0
  6
CONTINUOUS
 62
     7
 10
4469.3868814275
 20
2036.5173563168
 30
0.0
 11
4469.3868814275
 21
2010.2817758724
 31
0.0
  0
LINE
  5
2AB
  8
0
  6
CONTINUOUS
 62
     7
 10
4422.3868606851
 20
2036.5173563168
 30
0.0
 11
4422.3868606851
 21
2010.2817758724
 31
0.0
  0
LINE
  5
2AC
  8
0
  6
CONTINUOUS
 62
     7
 10
4422.3868606851
 20
4125.2817854092
 30
0.0
 11
4469.3868814275
 21
4125.2817854092
 31
0.0
  0
LINE
  5
2AD
  8
0
  6
CONTINUOUS
 62
     7
 10
4469.3868814275
 20
4099.0462049648
 30
0.0
 11
4469.3868814275
 21
4125.2817854092
 31
0.0
  0
LINE
  5
2AE
  8
0
  6
CONTINUOUS
 62
     7
 10
4422.3868606851
 20
4099.0462049648
 30
0.0
 11
4422.3868606851
 21
4125.2817854092
 31
0.0
  0
LINE
  5
2AF
  8
0
  6
CONTINUOUS
 62
     7
 10
5235.3868542478
 20
2010.2817758724
 30
0.0
 11
5282.3868749902
 21
2010.2817758724
 31
0.0
  0
LINE
  5
2B0
  8
0
  6
CONTINUOUS
 62
     7
 10
5235.3868542478
 20
2036.5173563168
 30
0.0
 11
5235.3868542478
 21
2010.2817758724
 31
0.0
  0
LINE
  5
2B1
  8
0
  6
CONTINUOUS
 62
     7
 10
5282.3868749902
 20
2036.5173563168
 30
0.0
 11
5282.3868749902
 21
2010.2817758724
 31
0.0
  0
LINE
  5
2B2
  8
0
  6
CONTINUOUS
 62
     7
 10
5235.3868542478
 20
4125.2817854092
 30
0.0
 11
5282.3868749902
 21
4125.2817854092
 31
0.0
  0
LINE
  5
2B3
  8
0
  6
CONTINUOUS
 62
     7
 10
5235.3868542478
 20
4099.0462049648
 30
0.0
 11
5235.3868542478
 21
4125.2817854092
 31
0.0
  0
LINE
  5
2B4
  8
0
  6
CONTINUOUS
 62
     7
 10
5282.3868749902
 20
4099.0462049648
 30
0.0
 11
5282.3868749902
 21
4125.2817854092
 31
0.0
  0
LINE
  5
2B5
  8
0
  6
CONTINUOUS
 62
     7
 10
4484.3868671224
 20
2128.058467786
 30
0.0
 11
4484.3868671224
 21
2120.0608357594
 31
0.0
  0
ARC
  5
2B6
  8
0
  6
CONTINUOUS
 62
     7
 10
4484.3879191617
 20
2113.0597844423
 30
0.0
 40
7.001051396107796
 50
90.0086097659
 51
180.0082193014
  0
LINE
  5
2B7
  8
0
  6
CONTINUOUS
 62
     7
 10
4469.3868814275
 20
2113.0587801144
 30
0.0
 11
4477.3868678376
 21
2113.0587801144
 31
0.0
  0
LINE
  5
2B8
  8
0
  6
CONTINUOUS
 62
     7
 10
5220.3868685529
 20
4007.5050934956
 30
0.0
 11
5220.3868685529
 21
4015.5027255222
 31
0.0
  0
ARC
  5
2B9
  8
0
  6
CONTINUOUS
 62
     7
 10
5220.3858165136
 20
4022.5037768393
 30
0.0
 40
7.001051396107797
 50
270.0086097659
 51
0.0082193014
  0
LINE
  5
2BA
  8
0
  6
CONTINUOUS
 62
     7
 10
5235.3868542478
 20
4022.5047811672
 30
0.0
 11
5227.3868678376
 21
4022.5047811672
 31
0.0
  0
ARC
  5
2BB
  8
0
  6
CONTINUOUS
 62
     7
 10
4484.3878867358
 20
4022.5037444229
 30
0.0
 40
7.001018974910803
 50
179.9915153673
 51
269.9916555654
  0
LINE
  5
2BC
  8
0
  6
CONTINUOUS
 62
     7
 10
4484.3868671224
 20
4015.5027255222
 30
0.0
 11
4484.3868671224
 21
4007.5050934956
 31
0.0
  0
LINE
  5
2BD
  8
0
  6
CONTINUOUS
 62
     7
 10
4477.3868678376
 20
4022.5047811672
 30
0.0
 11
4469.3868814275
 21
4022.5047811672
 31
0.0
  0
ARC
  5
2BE
  8
0
  6
CONTINUOUS
 62
     7
 10
5220.3858489395
 20
2113.0598168587
 30
0.0
 40
7.001018974910803
 50
359.9915153673
 51
89.9916555654
  0
LINE
  5
2BF
  8
0
  6
CONTINUOUS
 62
     7
 10
5220.3868685529
 20
2120.0608357594
 30
0.0
 11
5220.3868685529
 21
2128.058467786
 31
0.0
  0
LINE
  5
2C0
  8
0
  6
CONTINUOUS
 62
     7
 10
5227.3868678376
 20
2113.0587801144
 30
0.0
 11
5235.3868542478
 21
2113.0587801144
 31
0.0
  0
LINE
  5
2C1
  8
0
  6
CONTINUOUS
 62
     7
 10
4477.3868678376
 20
4100.281809251
 30
0.0
 11
4477.3868678376
 21
4022.5047811672
 31
0.0
  0
LINE
  5
2C2
  8
0
  6
CONTINUOUS
 62
     7
 10
4477.3868678376
 20
4100.281809251
 30
0.0
 11
4469.3868814275
 21
4100.281809251
 31
0.0
  0
LINE
  5
2C3
  8
0
  6
CONTINUOUS
 62
     7
 10
4477.3868678376
 20
2113.0587801144
 30
0.0
 11
4477.3868678376
 21
2035.2817520306
 31
0.0
  0
LINE
  5
2C4
  8
0
  6
CONTINUOUS
 62
     7
 10
4469.3868814275
 20
2035.2817520306
 30
0.0
 11
4477.3868678376
 21
2035.2817520306
 31
0.0
  0
LINE
  5
2C5
  8
0
  6
CONTINUOUS
 62
     7
 10
4477.3868678376
 20
2027.2817358181
 30
0.0
 11
4477.3868678376
 21
2035.2817520306
 31
0.0
  0
ARC
  5
2C6
  8
0
  6
CONTINUOUS
 62
     7
 10
4477.3868678376
 20
2019.2817806408
 30
0.0
 40
8.0
 50
90.0
 51
180.0
  0
LINE
  5
2C7
  8
0
  6
CONTINUOUS
 62
     7
 10
4477.3868678376
 20
4100.281809251
 30
0.0
 11
4477.3868678376
 21
4108.2818254635
 31
0.0
  0
ARC
  5
2C8
  8
0
  6
CONTINUOUS
 62
     7
 10
4477.3868678376
 20
4116.2817806408
 30
0.0
 40
8.0
 50
180.0
 51
270.0
  0
LINE
  5
2C9
  8
0
  6
CONTINUOUS
 62
     7
 10
5227.3868678376
 20
2035.2817520306
 30
0.0
 11
5227.3868678376
 21
2113.0587801144
 31
0.0
  0
LINE
  5
2CA
  8
0
  6
CONTINUOUS
 62
     7
 10
5227.3868678376
 20
2035.2817520306
 30
0.0
 11
5235.3868542478
 21
2035.2817520306
 31
0.0
  0
LINE
  5
2CB
  8
0
  6
CONTINUOUS
 62
     7
 10
5227.3868678376
 20
4022.5047811672
 30
0.0
 11
5227.3868678376
 21
4100.281809251
 31
0.0
  0
LINE
  5
2CC
  8
0
  6
CONTINUOUS
 62
     7
 10
5235.3868542478
 20
4100.281809251
 30
0.0
 11
5227.3868678376
 21
4100.281809251
 31
0.0
  0
LINE
  5
2CD
  8
0
  6
CONTINUOUS
 62
     7
 10
5227.3868678376
 20
4108.2818254635
 30
0.0
 11
5227.3868678376
 21
4100.281809251
 31
0.0
  0
ARC
  5
2CE
  8
0
  6
CONTINUOUS
 62
     7
 10
5227.3868678376
 20
4116.2817806408
 30
0.0
 40
8.0
 50
270.0
 51
0.0
  0
LINE
  5
2CF
  8
0
  6
CONTINUOUS
 62
     7
 10
5227.3868678376
 20
2035.2817520306
 30
0.0
 11
5227.3868678376
 21
2027.2817358181
 31
0.0
  0
ARC
  5
2D0
  8
0
  6
CONTINUOUS
 62
     7
 10
5227.3868678376
 20
2019.2817806408
 30
0.0
 40
8.0
 50
0.0
 51
90.0
  0
LINE
  5
2D1
  8
0
  6
CONTINUOUS
 62
     7
 10
5220.3868685529
 20
2120.0608357594
 30
0.0
 11
4484.3868671224
 21
2120.0608357594
 31
0.0
  0
LINE
  5
2D2
  8
0
  6
CONTINUOUS
 62
     7
 10
4484.3868671224
 20
4015.5027255222
 30
0.0
 11
5220.3868685529
 21
4015.5027255222
 31
0.0
  0
LINE
  5
2D3
  8
0
  6
CONTINUOUS
 62
     7
 10
5227.3868678376
 20
4100.281809251
 30
0.0
 11
4477.3868678376
 21
4100.281809251
 31
0.0
  0
LINE
  5
2D4
  8
0
  6
CONTINUOUS
 62
     7
 10
4477.3868678376
 20
4108.2818254635
 30
0.0
 11
5227.3868678376
 21
4108.2818254635
 31
0.0
  0
CIRCLE
  5
2D5
  8
0
  6
CONTINUOUS
 62
     7
 10
5132.3868678376
 20
4058.2817806408
 30
0.0
 40
25.00000000000091
  0
CIRCLE
  5
2D6
  8
0
  6
CONTINUOUS
 62
     7
 10
4572.3868678376
 20
4058.2817806408
 30
0.0
 40
24.99999999999909
  0
LINE
  5
2D7
  8
0
  6
CONTINUOUS
 62
     7
 10
4477.3868678376
 20
2035.2817520306
 30
0.0
 11
5227.3868678376
 21
2035.2817520306
 31
0.0
  0
LINE
  5
2D8
  8
0
  6
CONTINUOUS
 62
     7
 10
5227.3868678376
 20
2027.2817358181
 30
0.0
 11
4477.3868678376
 21
2027.2817358181
 31
0.0
  0
CIRCLE
  5
2D9
  8
0
  6
CONTINUOUS
 62
     7
 10
4572.3868678376
 20
2077.2817806408
 30
0.0
 40
25.00000000000091
  0
CIRCLE
  5
2DA
  8
0
  6
CONTINUOUS
 62
     7
 10
5132.3868678376
 20
2077.2817806408
 30
0.0
 40
25.0
  0
LINE
  5
2DB
  8
0
  6
CONTINUOUS
 62
     7
 10
4419.3868695066
 20
3067.7817806408
 30
0.0
 11
4419.3868695066
 21
4042.7818044827
 31
0.0
  0
LINE
  5
2DC
  8
0
  6
CONTINUOUS
 62
     7
 10
4419.3868695066
 20
2092.781756799
 30
0.0
 11
4419.3868695066
 21
3067.7817806408
 31
0.0
  0
LINE
  5
2DD
  8
0
  6
CONTINUOUS
 62
     7
 10
5285.3868661687
 20
3067.7817806408
 30
0.0
 11
5285.3868661687
 21
3630.0343617603
 31
0.0
  0
LINE
  5
2DE
  8
0
  6
CONTINUOUS
 62
     7
 10
5285.3868661687
 20
3646.7247351811
 30
0.0
 11
5285.3868661687
 21
3673.2817634747
 31
0.0
  0
LINE
  5
2DF
  8
0
  6
CONTINUOUS
 62
     7
 10
5285.3868661687
 20
3698.2817992375
 30
0.0
 11
5285.3868661687
 21
4042.7818044827
 31
0.0
  0
LINE
  5
2E0
  8
0
  6
CONTINUOUS
 62
     7
 10
5285.3868661687
 20
2092.781756799
 30
0.0
 11
5285.3868661687
 21
3067.7817806408
 31
0.0
  0
LINE
  5
2E1
  8
0
  6
CONTINUOUS
 62
     7
 10
5220.3868685529
 20
3082.7817803055
 30
0.0
 11
5220.3868685529
 21
3334.2540606663
 31
0.0
  0
LINE
  5
2E2
  8
0
  6
CONTINUOUS
 62
     7
 10
5220.3868685529
 20
3400.7817849323
 30
0.0
 11
5220.3868685529
 21
3610.735391061
 31
0.0
  0
LINE
  5
2E3
  8
0
  6
CONTINUOUS
 62
     7
 10
5220.3868685529
 20
3627.4257048771
 30
0.0
 11
5220.3868685529
 21
3673.2817634747
 31
0.0
  0
LINE
  5
2E4
  8
0
  6
CONTINUOUS
 62
     7
 10
5220.3868685529
 20
3698.2817992375
 30
0.0
 11
5220.3868685529
 21
4007.5050934956
 31
0.0
  0
INSERT
  5
2F0
  8
FORMAT
  2
SW_CENTERMARKSYMBOL_1
 10
4852.3868678376
 20
3070.7817806408
 30
0.0
  0
ENDSEC
  0
EOF
