  0
SECTION
  2
HEADER
  9
$ACADVER
  1
AC1015
  9
$ACADMAINTVER
 70
     6
  9
$DWGCODEPAGE
  3
ANSI_1252
  9
$INSBASE
 10
0.0
 20
0.0
 30
0.0
  9
$EXTMIN
 10
0.0
 20
0.0
 30
0.0
  9
$EXTMAX
 10
841.0
 20
594.0
 30
0.0
  9
$LIMMIN
 10
0.0
 20
0.0
  9
$LIMMAX
 10
841.0
 20
594.0
  9
$ORTHOMODE
 70
     0
  9
$REGENMODE
 70
     1
  9
$FILLMODE
 70
     1
  9
$QTEXTMODE
 70
     0
  9
$MIRRTEXT
 70
     1
  9
$LTSCALE
 40
1.0
  9
$ATTMODE
 70
     1
  9
$TEXTSIZE
 40
2.5
  9
$TRACEWID
 40
1.0
  9
$TEXTSTYLE
  7
Standard
  9
$CLAYER
  8
0
  9
$CELTYPE
  6
ByLayer
  9
$CECOLOR
 62
   256
  9
$CELTSCALE
 40
1.0
  9
$DISPSILH
 70
     0
  9
$DIMSCALE
 40
1.0
  9
$DIMASZ
 40
2.5
  9
$DIMEXO
 40
1.0
  9
$DIMDLI
 40
3.75
  9
$DIMRND
 40
0.0
  9
$DIMDLE
 40
0.0
  9
$DIMEXE
 40
1.0
  9
$DIMTP
 40
0.0
  9
$DIMTM
 40
0.0
  9
$DIMTXT
 40
2.5
  9
$DIMCEN
 40
2.5
  9
$DIMTSZ
 40
0.0
  9
$DIMTOL
 70
     0
  9
$DIMLIM
 70
     0
  9
$DIMTIH
 70
     1
  9
$DIMTOH
 70
     1
  9
$DIMSE1
 70
     0
  9
$DIMSE2
 70
     0
  9
$DIMTAD
 70
     1
  9
$DIMZIN
 70
     0
  9
$DIMBLK
  1

  9
$DIMASO
 70
     1
  9
$DIMSHO
 70
     1
  9
$DIMPOST
  1

  9
$DIMAPOST
  1

  9
$DIMALT
 70
     0
  9
$DIMALTD
 70
     3
  9
$DIMALTF
 40
0.0393700787
  9
$DIMLFAC
 40
1.0
  9
$DIMTOFL
 70
     1
  9
$DIMTVP
 40
0.0
  9
$DIMTIX
 70
     0
  9
$DIMSOXD
 70
     0
  9
$DIMSAH
 70
     0
  9
$DIMBLK1
  1

  9
$DIMBLK2
  1

  9
$DIMSTYLE
  2
ISO-25
  9
$DIMCLRD
 70
     0
  9
$DIMCLRE
 70
     0
  9
$DIMCLRT
 70
     0
  9
$DIMTFAC
 40
1.0
  9
$DIMGAP
 40
1.524
  9
$DIMJUST
 70
     0
  9
$DIMSD1
 70
     0
  9
$DIMSD2
 70
     0
  9
$DIMTOLJ
 70
     0
  9
$DIMTZIN
 70
     0
  9
$DIMALTZ
 70
     0
  9
$DIMALTTZ
 70
     0
  9
$DIMUPT
 70
     0
  9
$DIMDEC
 70
     2
  9
$DIMTDEC
 70
     2
  9
$DIMALTU
 70
     2
  9
$DIMALTTD
 70
     3
  9
$DIMTXSTY
  7
Standard
  9
$DIMAUNIT
 70
     0
  9
$DIMADEC
 70
     2
  9
$DIMALTRND
 40
0.0
  9
$DIMAZIN
 70
     0
  9
$DIMDSEP
 70
    44
  9
$DIMATFIT
 70
     3
  9
$DIMFRAC
 70
     0
  9
$DIMLDRBLK
  1

  9
$DIMLUNIT
 70
     2
  9
$DIMLWD
 70
    -2
  9
$DIMLWE
 70
    -2
  9
$DIMTMOVE
 70
     0
  9
$LUNITS
 70
     2
  9
$LUPREC
 70
     2
  9
$SKETCHINC
 40
1.0
  9
$FILLETRAD
 40
10.0
  9
$AUNITS
 70
     0
  9
$AUPREC
 70
     2
  9
$MENU
  1
.
  9
$ELEVATION
 40
0.0
  9
$PELEVATION
 40
0.0
  9
$THICKNESS
 40
0.0
  9
$LIMCHECK
 70
     0
  9
$CHAMFERA
 40
10.0
  9
$CHAMFERB
 40
10.0
  9
$CHAMFERC
 40
20.0
  9
$CHAMFERD
 40
0.0
  9
$SKPOLY
 70
     0
  9
$TDCREATE
 40
2457521.36873353
  9
$TDUCREATE
 40
2457521.285400197
  9
$TDUPDATE
 40
2457521.368735694
  9
$TDUUPDATE
 40
2457521.285402361
  9
$TDINDWG
 40
0.0000000116
  9
$TDUSRTIMER
 40
0.0000000116
  9
$USRTIMER
 70
     1
  9
$ANGBASE
 50
0.0
  9
$ANGDIR
 70
     0
  9
$PDMODE
 70
     0
  9
$PDSIZE
 40
-1.0
  9
$PLINEWID
 40
0.0
  9
$SPLFRAME
 70
     0
  9
$SPLINETYPE
 70
     6
  9
$SPLINESEGS
 70
     8
  9
$HANDSEED
  5
32D
  9
$SURFTAB1
 70
     6
  9
$SURFTAB2
 70
     6
  9
$SURFTYPE
 70
     6
  9
$SURFU
 70
     6
  9
$SURFV
 70
     6
  9
$UCSBASE
  2

  9
$UCSNAME
  2

  9
$UCSORG
 10
0.0
 20
0.0
 30
0.0
  9
$UCSXDIR
 10
1.0
 20
0.0
 30
0.0
  9
$UCSYDIR
 10
0.0
 20
1.0
 30
0.0
  9
$UCSORTHOREF
  2

  9
$UCSORTHOVIEW
 70
     0
  9
$UCSORGTOP
 10
0.0
 20
0.0
 30
0.0
  9
$UCSORGBOTTOM
 10
0.0
 20
0.0
 30
0.0
  9
$UCSORGLEFT
 10
0.0
 20
0.0
 30
0.0
  9
$UCSORGRIGHT
 10
0.0
 20
0.0
 30
0.0
  9
$UCSORGFRONT
 10
0.0
 20
0.0
 30
0.0
  9
$UCSORGBACK
 10
0.0
 20
0.0
 30
0.0
  9
$PUCSBASE
  2

  9
$PUCSNAME
  2

  9
$PUCSORG
 10
0.0
 20
0.0
 30
0.0
  9
$PUCSXDIR
 10
1.0
 20
0.0
 30
0.0
  9
$PUCSYDIR
 10
0.0
 20
1.0
 30
0.0
  9
$PUCSORTHOREF
  2

  9
$PUCSORTHOVIEW
 70
     0
  9
$PUCSORGTOP
 10
0.0
 20
0.0
 30
0.0
  9
$PUCSORGBOTTOM
 10
0.0
 20
0.0
 30
0.0
  9
$PUCSORGLEFT
 10
0.0
 20
0.0
 30
0.0
  9
$PUCSORGRIGHT
 10
0.0
 20
0.0
 30
0.0
  9
$PUCSORGFRONT
 10
0.0
 20
0.0
 30
0.0
  9
$PUCSORGBACK
 10
0.0
 20
0.0
 30
0.0
  9
$USERI1
 70
     0
  9
$USERI2
 70
     0
  9
$USERI3
 70
     0
  9
$USERI4
 70
     0
  9
$USERI5
 70
     0
  9
$USERR1
 40
0.0
  9
$USERR2
 40
0.0
  9
$USERR3
 40
0.0
  9
$USERR4
 40
0.0
  9
$USERR5
 40
0.0
  9
$WORLDVIEW
 70
     1
  9
$SHADEDGE
 70
     3
  9
$SHADEDIF
 70
    70
  9
$TILEMODE
 70
     1
  9
$MAXACTVP
 70
    64
  9
$PINSBASE
 10
0.0
 20
0.0
 30
0.0
  9
$PLIMCHECK
 70
     0
  9
$PEXTMIN
 10
1.0000000000E+20
 20
1.0000000000E+20
 30
1.0000000000E+20
  9
$PEXTMAX
 10
-1.0000000000E+20
 20
-1.0000000000E+20
 30
-1.0000000000E+20
  9
$PLIMMIN
 10
0.0
 20
0.0
  9
$PLIMMAX
 10
420.0
 20
297.0
  9
$UNITMODE
 70
     0
  9
$VISRETAIN
 70
     1
  9
$PLINEGEN
 70
     0
  9
$PSLTSCALE
 70
     1
  9
$TREEDEPTH
 70
  3020
  9
$CMLSTYLE
  2
Standard
  9
$CMLJUST
 70
     0
  9
$CMLSCALE
 40
20.0
  9
$PROXYGRAPHICS
 70
     1
  9
$MEASUREMENT
 70
     1
  9
$CELWEIGHT
370
    -1
  9
$ENDCAPS
280
     0
  9
$JOINSTYLE
280
     0
  9
$LWDISPLAY
290
     1
  9
$INSUNITS
 70
     4
  9
$HYPERLINKBASE
  1

  9
$STYLESHEET
  1

  9
$XEDIT
290
     1
  9
$CEPSNTYPE
380
     0
  9
$PSTYLEMODE
290
     1
  9
$FINGERPRINTGUID
  2
{76932873-8C56-4586-BA9E-45D5573DA944}
  9
$VERSIONGUID
  2
{FAEB1C32-E019-11D5-929B-00C0DF256EC4}
  9
$EXTNAMES
290
     1
  9
$PSVPSCALE
 40
0.0
  9
$OLESTARTUP
290
     0
  0
ENDSEC
  0
SECTION
  2
CLASSES
  0
CLASS
  1
ACDBDICTIONARYWDFLT
  2
AcDbDictionaryWithDefault
  3
ObjectDBX Classes
 90
        0
280
     0
281
     0
  0
CLASS
  1
VISUALSTYLE
  2
AcDbVisualStyle
  3
ObjectDBX Classes
 90
     4095
280
     0
281
     0
  0
CLASS
  1
MATERIAL
  2
AcDbMaterial
  3
ObjectDBX Classes
 90
     1153
280
     0
281
     0
  0
CLASS
  1
ACDBPLACEHOLDER
  2
AcDbPlaceHolder
  3
ObjectDBX Classes
 90
        0
280
     0
281
     0
  0
CLASS
  1
LAYOUT
  2
AcDbLayout
  3
ObjectDBX Classes
 90
        0
280
     0
281
     0
  0
ENDSEC
  0
SECTION
  2
TABLES
  0
TABLE
  2
VPORT
  5
8
330
0
100
AcDbSymbolTable
 70
     1
  0
VPORT
  5
29
330
8
100
AcDbSymbolTableRecord
100
AcDbViewportTableRecord
  2
*Active
 70
     0
 10
0.0
 20
0.0
 11
1.0
 21
1.0
 12
420.5
 22
297.0
 13
0.0
 23
0.0
 14
10.0
 24
10.0
 15
10.0
 25
10.0
 16
0.0
 26
0.0
 36
1.0
 17
0.0
 27
0.0
 37
0.0
 40
594.0
 41
1.4158249158
 42
50.0
 43
0.0
 44
0.0
 50
0.0
 51
0.0
 71
     0
 72
  2000
 73
     1
 74
     3
 75
     0
 76
     0
 77
     0
 78
     0
281
     0
 65
     1
110
0.0
120
0.0
130
0.0
111
1.0
121
0.0
131
0.0
112
0.0
122
1.0
132
0.0
 79
     0
146
0.0
  0
ENDTAB
  0
TABLE
  2
LTYPE
  5
5
330
0
100
AcDbSymbolTable
 70
     6
  0
LTYPE
  5
14
330
5
100
AcDbSymbolTableRecord
100
AcDbLinetypeTableRecord
  2
ByBlock
 70
     0
  3

 72
    65
 73
     0
 40
0.0
  0
LTYPE
  5
15
330
5
100
AcDbSymbolTableRecord
100
AcDbLinetypeTableRecord
  2
ByLayer
 70
     0
  3

 72
    65
 73
     0
 40
0.0
  0
LTYPE
  5
16
330
5
100
AcDbSymbolTableRecord
100
AcDbLinetypeTableRecord
  2
Continuous
 70
     0
  3
Solid line
 72
    65
 73
     0
 40
0.0
  0
LTYPE
  5
3F
330
5
100
AcDbSymbolTableRecord
100
AcDbLinetypeTableRecord
  2
HIDDEN
 70
     0
  3
Hidden __ __ __ __ __ __ __ __ __ __ __ __ __ __
 72
    65
 73
     2
 40
1.905
 49
1.27
 74
     0
 49
-0.635
 74
     0
  0
LTYPE
  5
40
330
5
100
AcDbSymbolTableRecord
100
AcDbLinetypeTableRecord
  2
PHANTOM
 70
     0
  3
Phantom ______  __  __  ______  __  __  ______
 72
    65
 73
     6
 40
12.7
 49
6.35
 74
     0
 49
-1.27
 74
     0
 49
1.27
 74
     0
 49
-1.27
 74
     0
 49
1.27
 74
     0
 49
-1.27
 74
     0
  0
LTYPE
  5
41
330
5
100
AcDbSymbolTableRecord
100
AcDbLinetypeTableRecord
  2
CENTER
 70
     0
  3
Center ____ _ ____ _ ____ _ ____ _ ____ _ ____
 72
    65
 73
     4
 40
10.16
 49
6.35
 74
     0
 49
-1.27
 74
     0
 49
1.27
 74
     0
 49
-1.27
 74
     0
  0
LTYPE
  5
42
330
5
100
AcDbSymbolTableRecord
100
AcDbLinetypeTableRecord
  2
CENTERX2
 70
     0
  3
Center (2x) ________  __  ________  __  _____
 72
    65
 73
     4
 40
20.32
 49
12.7
 74
     0
 49
-2.54
 74
     0
 49
2.54
 74
     0
 49
-2.54
 74
     0
  0
LTYPE
  5
43
330
5
100
AcDbSymbolTableRecord
100
AcDbLinetypeTableRecord
  2
DOT2
 70
     0
  3
Dot (.5x) ........................................
 72
    65
 73
     2
 40
0.635
 49
0.0
 74
     0
 49
-0.635
 74
     0
  0
ENDTAB
  0
TABLE
  2
LAYER
  5
2
330
0
100
AcDbSymbolTable
 70
     3
  0
LAYER
  5
10
330
2
100
AcDbSymbolTableRecord
100
AcDbLayerTableRecord
  2
0
 70
     0
 62
     7
  6
Continuous
370
    -3
390
F
  0
LAYER
  5
44
330
2
100
AcDbSymbolTableRecord
100
AcDbLayerTableRecord
  2
FORMAT
 70
     0
 62
     7
  6
Continuous
370
    -3
390
F
  0
LAYER
  5
45
330
2
100
AcDbSymbolTableRecord
100
AcDbLayerTableRecord
  2
PROTOTYPE
 70
     0
 62
     7
  6
Continuous
370
    -3
390
F
  0
ENDTAB
  0
TABLE
  2
STYLE
  5
3
330
0
100
AcDbSymbolTable
 70
     2
  0
STYLE
  5
11
330
3
100
AcDbSymbolTableRecord
100
AcDbTextStyleTableRecord
  2
Standard
 70
     0
 40
0.0
 41
1.0
 50
0.0
 71
     0
 42
2.5
  3
txt
  4

  0
STYLE
  5
8C
330
3
100
AcDbSymbolTableRecord
100
AcDbTextStyleTableRecord
  2
SLDTEXTSTYLE0
 70
     0
 40
0.0
 41
0.605
 50
0.0
 71
     0
 42
0.2
  3
TXT
  4

  0
ENDTAB
  0
TABLE
  2
VIEW
  5
6
330
0
100
AcDbSymbolTable
 70
     0
  0
ENDTAB
  0
TABLE
  2
UCS
  5
7
330
0
100
AcDbSymbolTable
 70
     0
  0
ENDTAB
  0
TABLE
  2
APPID
  5
9
330
0
100
AcDbSymbolTable
 70
     1
  0
APPID
  5
12
330
9
100
AcDbSymbolTableRecord
100
AcDbRegAppTableRecord
  2
ACAD
 70
     0
  0
ENDTAB
  0
TABLE
  2
DIMSTYLE
  5
A
330
0
100
AcDbSymbolTable
 70
     1
100
AcDbDimStyleTable
  0
DIMSTYLE
105
27
330
A
100
AcDbSymbolTableRecord
100
AcDbDimStyleTableRecord
  2
ISO-25
 70
     0
 41
2.5
 42
0.625
 43
3.75
 44
1.25
 73
     0
 74
     0
 77
     1
 78
     8
140
2.5
141
2.5
143
0.0393700787
147
0.625
171
     3
172
     1
178
     0
271
     2
272
     2
274
     3
278
    44
283
     0
284
     8
340
11
  0
ENDTAB
  0
TABLE
  2
BLOCK_RECORD
  5
1
330
0
100
AcDbSymbolTable
 70
     2
  0
BLOCK_RECORD
  5
1F
330
1
100
AcDbSymbolTableRecord
100
AcDbBlockTableRecord
  2
*Model_Space
340
22
  0
BLOCK_RECORD
  5
1B
330
1
100
AcDbSymbolTableRecord
100
AcDbBlockTableRecord
  2
*Paper_Space
340
1E
  0
BLOCK_RECORD
  5
23
330
1
100
AcDbSymbolTableRecord
100
AcDbBlockTableRecord
  2
*Paper_Space0
340
26
  0
BLOCK_RECORD
  5
321
330
1
100
AcDbSymbolTableRecord
100
AcDbBlockTableRecord
  2
SW_CENTERMARKSYMBOL_0
340
0
102
{BLKREFS
331
32C
102
}
  0
ENDTAB
  0
ENDSEC
  0
SECTION
  2
BLOCKS
  0
BLOCK
  5
20
330
1F
100
AcDbEntity
  8
0
100
AcDbBlockBegin
  2
*Model_Space
 70
     0
 10
0.0
 20
0.0
 30
0.0
  3
*Model_Space
  1

  0
ENDBLK
  5
21
330
1F
100
AcDbEntity
  8
0
100
AcDbBlockEnd
  0
BLOCK
  5
1C
330
1B
100
AcDbEntity
 67
     1
  8
0
100
AcDbBlockBegin
  2
*Paper_Space
 70
     0
 10
0.0
 20
0.0
 30
0.0
  3
*Paper_Space
  1

  0
ENDBLK
  5
1D
330
1B
100
AcDbEntity
 67
     1
  8
0
100
AcDbBlockEnd
  0
BLOCK
  5
24
330
23
100
AcDbEntity
  8
0
100
AcDbBlockBegin
  2
*Paper_Space0
 70
     0
 10
0.0
 20
0.0
 30
0.0
  3
*Paper_Space0
  1

  0
ENDBLK
  5
25
330
23
100
AcDbEntity
  8
0
100
AcDbBlockEnd
  0
BLOCK
  5
322
330
321
100
AcDbEntity
  8
0
100
AcDbBlockBegin
  2
SW_CENTERMARKSYMBOL_0
 70
     0
 10
0.0
 20
0.0
 30
0.0
  3
SW_CENTERMARKSYMBOL_0
  1

  0
LINE
  5
324
330
321
100
AcDbEntity
  8
FORMAT
 62
     0
100
AcDbLine
 10
0.0
 20
0.0
 30
0.0
 11
0.0
 21
2.5
 31
0.0
  0
LINE
  5
325
330
321
100
AcDbEntity
  8
FORMAT
 62
     0
100
AcDbLine
 10
0.0
 20
0.0
 30
0.0
 11
-2.5
 21
0.0
 31
0.0
  0
LINE
  5
326
330
321
100
AcDbEntity
  8
FORMAT
 62
     0
100
AcDbLine
 10
0.0
 20
0.0
 30
0.0
 11
0.0
 21
-2.5
 31
0.0
  0
LINE
  5
327
330
321
100
AcDbEntity
  8
FORMAT
 62
     0
100
AcDbLine
 10
0.0
 20
0.0
 30
0.0
 11
2.5
 21
0.0
 31
0.0
  0
LINE
  5
328
330
321
100
AcDbEntity
  8
FORMAT
 62
     0
100
AcDbLine
 10
0.0
 20
5.0
 30
0.0
 11
0.0
 21
513.3048450973
 31
0.0
  0
LINE
  5
329
330
321
100
AcDbEntity
  8
FORMAT
 62
     0
100
AcDbLine
 10
-5.0
 20
0.0
 30
0.0
 11
-242.9020420177
 21
0.0
 31
0.0
  0
LINE
  5
32A
330
321
100
AcDbEntity
  8
FORMAT
 62
     0
100
AcDbLine
 10
0.0
 20
-5.0
 30
0.0
 11
0.0
 21
-254.9671575811
 31
0.0
  0
LINE
  5
32B
330
321
100
AcDbEntity
  8
FORMAT
 62
     0
100
AcDbLine
 10
5.0
 20
0.0
 30
0.0
 11
243.3120575795
 21
0.0
 31
0.0
  0
ENDBLK
  5
323
330
321
100
AcDbEntity
  8
0
100
AcDbBlockEnd
  0
ENDSEC
  0
SECTION
  2
ENTITIES
  0
LINE
  5
46
330
1F
100
AcDbEntity
  8
FORMAT
370
    30
100
AcDbLine
 10
13.0
 20
12.8671069427
 30
0.0
 11
828.0
 21
12.8671069427
 31
0.0
  0
LINE
  5
47
330
1F
100
AcDbEntity
  8
FORMAT
370
    30
100
AcDbLine
 10
13.0
 20
12.8671069427
 30
0.0
 11
13.0
 21
580.8671069427
 31
0.0
  0
LINE
  5
48
330
1F
100
AcDbEntity
  8
0
  6
Continuous
 62
     7
370
    30
100
AcDbLine
 10
114.88
 20
12.8671069427
 30
0.0
 11
114.88
 21
6.8671069427
 31
0.0
  0
LINE
  5
49
330
1F
100
AcDbEntity
  8
FORMAT
370
    30
100
AcDbLine
 10
828.0
 20
12.8671069427
 30
0.0
 11
828.0
 21
580.8671069427
 31
0.0
  0
LINE
  5
4A
330
1F
100
AcDbEntity
  8
FORMAT
370
    30
100
AcDbLine
 10
828.0
 20
12.8671069427
 30
0.0
 11
828.0
 21
6.8671069427
 31
0.0
  0
LINE
  5
4B
330
1F
100
AcDbEntity
  8
0
  6
Continuous
 62
     7
370
    30
100
AcDbLine
 10
165.82
 20
12.8671069427
 30
0.0
 11
165.82
 21
6.8671069427
 31
0.0
  0
LINE
  5
4C
330
1F
100
AcDbEntity
  8
0
  6
Continuous
 62
     7
370
    30
100
AcDbLine
 10
216.76
 20
12.8671069427
 30
0.0
 11
216.76
 21
6.8671069427
 31
0.0
  0
LINE
  5
4D
330
1F
100
AcDbEntity
  8
0
  6
Continuous
 62
     7
370
    30
100
AcDbLine
 10
267.7
 20
12.8671069427
 30
0.0
 11
267.7
 21
6.8671069427
 31
0.0
  0
LINE
  5
4E
330
1F
100
AcDbEntity
  8
0
  6
Continuous
 62
     7
370
    30
100
AcDbLine
 10
318.64
 20
12.8671069427
 30
0.0
 11
318.64
 21
6.8671069427
 31
0.0
  0
LINE
  5
4F
330
1F
100
AcDbEntity
  8
0
  6
Continuous
 62
     7
370
    30
100
AcDbLine
 10
369.58
 20
12.8671069427
 30
0.0
 11
369.58
 21
6.8671069427
 31
0.0
  0
LINE
  5
50
330
1F
100
AcDbEntity
  8
0
  6
Continuous
 62
     7
370
    30
100
AcDbLine
 10
420.52
 20
12.8671069427
 30
0.0
 11
420.52
 21
6.8671069427
 31
0.0
  0
LINE
  5
51
330
1F
100
AcDbEntity
  8
0
  6
Continuous
 62
     7
370
    30
100
AcDbLine
 10
471.46
 20
12.8671069427
 30
0.0
 11
471.46
 21
6.8671069427
 31
0.0
  0
LINE
  5
52
330
1F
100
AcDbEntity
  8
0
  6
Continuous
 62
     7
370
    30
100
AcDbLine
 10
522.4
 20
12.8671069427
 30
0.0
 11
522.4
 21
6.8671069427
 31
0.0
  0
LINE
  5
53
330
1F
100
AcDbEntity
  8
0
  6
Continuous
 62
     7
370
    30
100
AcDbLine
 10
573.34
 20
12.8671069427
 30
0.0
 11
573.34
 21
6.8671069427
 31
0.0
  0
LINE
  5
54
330
1F
100
AcDbEntity
  8
0
  6
Continuous
 62
     7
370
    30
100
AcDbLine
 10
624.28
 20
12.8671069427
 30
0.0
 11
624.28
 21
6.8671069427
 31
0.0
  0
LINE
  5
55
330
1F
100
AcDbEntity
  8
0
  6
Continuous
 62
     7
370
    30
100
AcDbLine
 10
675.22
 20
12.8671069427
 30
0.0
 11
675.22
 21
6.8671069427
 31
0.0
  0
LINE
  5
56
330
1F
100
AcDbEntity
  8
0
  6
Continuous
 62
     7
370
    30
100
AcDbLine
 10
726.16
 20
12.8671069427
 30
0.0
 11
726.16
 21
6.8671069427
 31
0.0
  0
LINE
  5
57
330
1F
100
AcDbEntity
  8
0
  6
Continuous
 62
     7
370
    30
100
AcDbLine
 10
777.1
 20
12.8671069427
 30
0.0
 11
777.1
 21
6.8671069427
 31
0.0
  0
LINE
  5
58
330
1F
100
AcDbEntity
  8
0
  6
Continuous
 62
     7
370
    30
100
AcDbLine
 10
828.0
 20
116.1471069427
 30
0.0
 11
834.0
 21
116.1471069427
 31
0.0
  0
LINE
  5
59
330
1F
100
AcDbEntity
  8
0
  6
Continuous
 62
     7
370
    30
100
AcDbLine
 10
828.0
 20
167.7871069427
 30
0.0
 11
834.0
 21
167.7871069427
 31
0.0
  0
LINE
  5
5A
330
1F
100
AcDbEntity
  8
0
  6
Continuous
 62
     7
370
    30
100
AcDbLine
 10
828.0
 20
219.4271069427
 30
0.0
 11
834.0
 21
219.4271069427
 31
0.0
  0
LINE
  5
5B
330
1F
100
AcDbEntity
  8
0
  6
Continuous
 62
     7
370
    30
100
AcDbLine
 10
828.0
 20
271.0671069427
 30
0.0
 11
834.0
 21
271.0671069427
 31
0.0
  0
LINE
  5
5C
330
1F
100
AcDbEntity
  8
0
  6
Continuous
 62
     7
370
    30
100
AcDbLine
 10
828.0
 20
322.7071069427
 30
0.0
 11
834.0
 21
322.7071069427
 31
0.0
  0
LINE
  5
5D
330
1F
100
AcDbEntity
  8
0
  6
Continuous
 62
     7
370
    30
100
AcDbLine
 10
63.94
 20
12.8671069427
 30
0.0
 11
63.94
 21
6.8671069427
 31
0.0
  0
LINE
  5
5E
330
1F
100
AcDbEntity
  8
0
  6
Continuous
 62
     7
370
    30
100
AcDbLine
 10
828.0
 20
374.3471069427
 30
0.0
 11
834.0
 21
374.3471069427
 31
0.0
  0
LINE
  5
5F
330
1F
100
AcDbEntity
  8
0
  6
Continuous
 62
     7
370
    30
100
AcDbLine
 10
13.0
 20
12.8671069427
 30
0.0
 11
13.0
 21
6.8671069427
 31
0.0
  0
LINE
  5
60
330
1F
100
AcDbEntity
  8
FORMAT
  6
Continuous
 62
     7
370
    30
100
AcDbLine
 10
828.0
 20
12.8671069427
 30
0.0
 11
834.0
 21
12.8671069427
 31
0.0
  0
LINE
  5
61
330
1F
100
AcDbEntity
  8
0
  6
Continuous
 62
     7
370
    30
100
AcDbLine
 10
828.0
 20
425.9871069427
 30
0.0
 11
834.0
 21
425.9871069427
 31
0.0
  0
LINE
  5
62
330
1F
100
AcDbEntity
  8
0
  6
Continuous
 62
     7
370
    30
100
AcDbLine
 10
828.0
 20
477.6271069427
 30
0.0
 11
834.0
 21
477.6271069427
 31
0.0
  0
LINE
  5
63
330
1F
100
AcDbEntity
  8
0
  6
Continuous
 62
     7
370
    30
100
AcDbLine
 10
828.0
 20
529.2671069427
 30
0.0
 11
834.0
 21
529.2671069427
 31
0.0
  0
LINE
  5
64
330
1F
100
AcDbEntity
  8
0
  6
Continuous
 62
     7
370
    30
100
AcDbLine
 10
7.0
 20
580.8671069427
 30
0.0
 11
13.0
 21
580.8671069427
 31
0.0
  0
LINE
  5
65
330
1F
100
AcDbEntity
  8
0
  6
Continuous
 62
     7
370
    30
100
AcDbLine
 10
7.0
 20
12.8671069427
 30
0.0
 11
13.0
 21
12.8671069427
 31
0.0
  0
LINE
  5
66
330
1F
100
AcDbEntity
  8
0
  6
Continuous
 62
     7
370
    30
100
AcDbLine
 10
165.82
 20
586.8671069427
 30
0.0
 11
165.82
 21
580.8671069427
 31
0.0
  0
LINE
  5
67
330
1F
100
AcDbEntity
  8
0
  6
Continuous
 62
     7
370
    30
100
AcDbLine
 10
471.46
 20
586.8671069427
 30
0.0
 11
471.46
 21
580.8671069427
 31
0.0
  0
LINE
  5
68
330
1F
100
AcDbEntity
  8
0
  6
Continuous
 62
     7
370
    30
100
AcDbLine
 10
420.52
 20
586.8671069427
 30
0.0
 11
420.52
 21
580.8671069427
 31
0.0
  0
LINE
  5
69
330
1F
100
AcDbEntity
  8
0
  6
Continuous
 62
     7
370
    30
100
AcDbLine
 10
777.1
 20
586.8671069427
 30
0.0
 11
777.1
 21
580.8671069427
 31
0.0
  0
LINE
  5
6A
330
1F
100
AcDbEntity
  8
0
  6
Continuous
 62
     7
370
    30
100
AcDbLine
 10
726.16
 20
586.8671069427
 30
0.0
 11
726.16
 21
580.8671069427
 31
0.0
  0
LINE
  5
6B
330
1F
100
AcDbEntity
  8
0
  6
Continuous
 62
     7
370
    30
100
AcDbLine
 10
114.88
 20
586.8671069427
 30
0.0
 11
114.88
 21
580.8671069427
 31
0.0
  0
LINE
  5
6C
330
1F
100
AcDbEntity
  8
0
  6
Continuous
 62
     7
370
    30
100
AcDbLine
 10
522.4
 20
586.8671069427
 30
0.0
 11
522.4
 21
580.8671069427
 31
0.0
  0
LINE
  5
6D
330
1F
100
AcDbEntity
  8
0
  6
Continuous
 62
     7
370
    30
100
AcDbLine
 10
216.76
 20
586.8671069427
 30
0.0
 11
216.76
 21
580.8671069427
 31
0.0
  0
LINE
  5
6E
330
1F
100
AcDbEntity
  8
0
  6
Continuous
 62
     7
370
    30
100
AcDbLine
 10
369.58
 20
586.8671069427
 30
0.0
 11
369.58
 21
580.8671069427
 31
0.0
  0
LINE
  5
6F
330
1F
100
AcDbEntity
  8
0
  6
Continuous
 62
     7
370
    30
100
AcDbLine
 10
624.28
 20
586.8671069427
 30
0.0
 11
624.28
 21
580.8671069427
 31
0.0
  0
LINE
  5
70
330
1F
100
AcDbEntity
  8
0
  6
Continuous
 62
     7
370
    30
100
AcDbLine
 10
675.22
 20
586.8671069427
 30
0.0
 11
675.22
 21
580.8671069427
 31
0.0
  0
LINE
  5
71
330
1F
100
AcDbEntity
  8
0
  6
Continuous
 62
     7
370
    30
100
AcDbLine
 10
318.64
 20
586.8671069427
 30
0.0
 11
318.64
 21
580.8671069427
 31
0.0
  0
LINE
  5
72
330
1F
100
AcDbEntity
  8
0
  6
Continuous
 62
     7
370
    30
100
AcDbLine
 10
573.34
 20
586.8671069427
 30
0.0
 11
573.34
 21
580.8671069427
 31
0.0
  0
LINE
  5
73
330
1F
100
AcDbEntity
  8
0
  6
Continuous
 62
     7
370
    30
100
AcDbLine
 10
267.7
 20
586.8671069427
 30
0.0
 11
267.7
 21
580.8671069427
 31
0.0
  0
LINE
  5
74
330
1F
100
AcDbEntity
  8
0
  6
Continuous
 62
     7
370
    30
100
AcDbLine
 10
63.94
 20
586.8671069427
 30
0.0
 11
63.94
 21
580.8671069427
 31
0.0
  0
LINE
  5
75
330
1F
100
AcDbEntity
  8
0
  6
Continuous
 62
     7
370
    30
100
AcDbLine
 10
828.0
 20
64.5071069427
 30
0.0
 11
834.0
 21
64.5071069427
 31
0.0
  0
LINE
  5
76
330
1F
100
AcDbEntity
  8
0
  6
Continuous
 62
     7
370
    30
100
AcDbLine
 10
7.0
 20
167.7871069427
 30
0.0
 11
13.0
 21
167.7871069427
 31
0.0
  0
LINE
  5
77
330
1F
100
AcDbEntity
  8
0
  6
Continuous
 62
     7
370
    30
100
AcDbLine
 10
13.0
 20
586.8671069427
 30
0.0
 11
13.0
 21
580.8671069427
 31
0.0
  0
LINE
  5
78
330
1F
100
AcDbEntity
  8
0
  6
Continuous
 62
     7
370
    30
100
AcDbLine
 10
7.0
 20
477.6271069427
 30
0.0
 11
13.0
 21
477.6271069427
 31
0.0
  0
LINE
  5
79
330
1F
100
AcDbEntity
  8
0
  6
Continuous
 62
     7
370
    30
100
AcDbLine
 10
7.0
 20
529.2671069427
 30
0.0
 11
13.0
 21
529.2671069427
 31
0.0
  0
LINE
  5
7A
330
1F
100
AcDbEntity
  8
0
  6
Continuous
 62
     7
370
    30
100
AcDbLine
 10
7.0
 20
374.3471069427
 30
0.0
 11
13.0
 21
374.3471069427
 31
0.0
  0
LINE
  5
7B
330
1F
100
AcDbEntity
  8
0
  6
Continuous
 62
     7
370
    30
100
AcDbLine
 10
828.0
 20
580.8671069427
 30
0.0
 11
834.0
 21
580.8671069427
 31
0.0
  0
LINE
  5
7C
330
1F
100
AcDbEntity
  8
0
  6
Continuous
 62
     7
370
    30
100
AcDbLine
 10
7.0
 20
425.9871069427
 30
0.0
 11
13.0
 21
425.9871069427
 31
0.0
  0
LINE
  5
7D
330
1F
100
AcDbEntity
  8
0
  6
Continuous
 62
     7
370
    30
100
AcDbLine
 10
13.0
 20
580.8671069427
 30
0.0
 11
828.0
 21
580.8671069427
 31
0.0
  0
LINE
  5
7E
330
1F
100
AcDbEntity
  8
0
  6
Continuous
 62
     7
370
    30
100
AcDbLine
 10
7.0
 20
64.5071069427
 30
0.0
 11
13.0
 21
64.5071069427
 31
0.0
  0
LINE
  5
7F
330
1F
100
AcDbEntity
  8
0
  6
Continuous
 62
     7
370
    30
100
AcDbLine
 10
7.0
 20
219.4271069427
 30
0.0
 11
13.0
 21
219.4271069427
 31
0.0
  0
LINE
  5
80
330
1F
100
AcDbEntity
  8
0
  6
Continuous
 62
     7
370
    30
100
AcDbLine
 10
7.0
 20
271.0671069427
 30
0.0
 11
13.0
 21
271.0671069427
 31
0.0
  0
LINE
  5
81
330
1F
100
AcDbEntity
  8
0
  6
Continuous
 62
     7
370
    30
100
AcDbLine
 10
7.0
 20
322.7071069427
 30
0.0
 11
13.0
 21
322.7071069427
 31
0.0
  0
LINE
  5
82
330
1F
100
AcDbEntity
  8
0
  6
Continuous
 62
     7
370
    30
100
AcDbLine
 10
828.0
 20
586.8671069427
 30
0.0
 11
828.0
 21
580.8671069427
 31
0.0
  0
LINE
  5
83
330
1F
100
AcDbEntity
  8
0
  6
Continuous
 62
     7
370
    30
100
AcDbLine
 10
7.0
 20
116.1471069427
 30
0.0
 11
13.0
 21
116.1471069427
 31
0.0
  0
LINE
  5
84
330
1F
100
AcDbEntity
  8
FORMAT
100
AcDbLine
 10
420.5
 20
12.8671069427
 30
0.0
 11
420.5
 21
4.8671069427
 31
0.0
  0
LINE
  5
85
330
1F
100
AcDbEntity
  8
FORMAT
100
AcDbLine
 10
210.25
 20
12.8671069427
 30
0.0
 11
210.25
 21
4.8671069427
 31
0.0
  0
LINE
  5
86
330
1F
100
AcDbEntity
  8
FORMAT
  6
Continuous
 62
     7
370
     0
100
AcDbLine
 10
644.0
 20
12.8671069427
 30
0.0
 11
644.0
 21
4.8671069427
 31
0.0
  0
LINE
  5
87
330
1F
100
AcDbEntity
  8
0
  6
Continuous
 62
     7
370
     0
100
AcDbLine
 10
210.25
 20
588.8671069427
 30
0.0
 11
210.25
 21
580.8671069427
 31
0.0
  0
LINE
  5
88
330
1F
100
AcDbEntity
  8
0
  6
Continuous
 62
     7
370
     0
100
AcDbLine
 10
420.5
 20
588.8671069427
 30
0.0
 11
420.5
 21
580.8671069427
 31
0.0
  0
LINE
  5
89
330
1F
100
AcDbEntity
  8
0
  6
Continuous
 62
     7
370
     0
100
AcDbLine
 10
630.75
 20
588.8671069427
 30
0.0
 11
630.75
 21
580.8671069427
 31
0.0
  0
LINE
  5
8A
330
1F
100
AcDbEntity
  8
FORMAT
100
AcDbLine
 10
828.0
 20
296.8671069427
 30
0.0
 11
836.0
 21
296.8671069427
 31
0.0
  0
LINE
  5
8B
330
1F
100
AcDbEntity
  8
0
  6
Continuous
 62
     7
370
     0
100
AcDbLine
 10
5.0
 20
296.8671069427
 30
0.0
 11
13.0
 21
296.8671069427
 31
0.0
  0
MTEXT
  5
8D
330
1F
100
AcDbEntity
  8
FORMAT
100
AcDbMText
 10
37.5504191961
 20
10.9423147578
 30
0.0
 40
2.6458333333
 41
0.0
 71
     1
 72
     1
  1
A
  7
SLDTEXTSTYLE0
 73
     1
 44
1.0
  0
MTEXT
  5
8E
330
1F
100
AcDbEntity
  8
FORMAT
100
AcDbMText
 10
828.9767730496
 20
40.3656938402
 30
0.0
 40
2.6458333333
 41
0.0
 71
     1
 72
     1
  1
11
  7
SLDTEXTSTYLE0
 73
     1
 44
1.0
  0
MTEXT
  5
8F
330
1F
100
AcDbEntity
  8
FORMAT
100
AcDbMText
 10
88.4904191961
 20
10.9423147578
 30
0.0
 40
2.6458333333
 41
0.0
 71
     1
 72
     1
  1
B
  7
SLDTEXTSTYLE0
 73
     1
 44
1.0
  0
MTEXT
  5
90
330
1F
100
AcDbEntity
  8
FORMAT
100
AcDbMText
 10
139.4304191961
 20
10.9423147578
 30
0.0
 40
2.6458333333
 41
0.0
 71
     1
 72
     1
  1
C
  7
SLDTEXTSTYLE0
 73
     1
 44
1.0
  0
MTEXT
  5
91
330
1F
100
AcDbEntity
  8
FORMAT
100
AcDbMText
 10
190.3704191961
 20
10.9423147578
 30
0.0
 40
2.6458333333
 41
0.0
 71
     1
 72
     1
  1
D
  7
SLDTEXTSTYLE0
 73
     1
 44
1.0
  0
MTEXT
  5
92
330
1F
100
AcDbEntity
  8
FORMAT
100
AcDbMText
 10
241.3104191961
 20
10.9423147578
 30
0.0
 40
2.6458333333
 41
0.0
 71
     1
 72
     1
  1
E
  7
SLDTEXTSTYLE0
 73
     1
 44
1.0
  0
MTEXT
  5
93
330
1F
100
AcDbEntity
  8
FORMAT
100
AcDbMText
 10
292.2504191961
 20
10.9423147578
 30
0.0
 40
2.6458333333
 41
0.0
 71
     1
 72
     1
  1
F
  7
SLDTEXTSTYLE0
 73
     1
 44
1.0
  0
MTEXT
  5
94
330
1F
100
AcDbEntity
  8
FORMAT
100
AcDbMText
 10
343.1904191961
 20
10.9423147578
 30
0.0
 40
2.6458333333
 41
0.0
 71
     1
 72
     1
  1
G
  7
SLDTEXTSTYLE0
 73
     1
 44
1.0
  0
MTEXT
  5
95
330
1F
100
AcDbEntity
  8
FORMAT
100
AcDbMText
 10
394.1304191961
 20
10.9423147578
 30
0.0
 40
2.6458333333
 41
0.0
 71
     1
 72
     1
  1
H
  7
SLDTEXTSTYLE0
 73
     1
 44
1.0
  0
MTEXT
  5
96
330
1F
100
AcDbEntity
  8
FORMAT
100
AcDbMText
 10
445.0704191961
 20
10.9423147578
 30
0.0
 40
2.6458333333
 41
0.0
 71
     1
 72
     1
  1
I
  7
SLDTEXTSTYLE0
 73
     1
 44
1.0
  0
MTEXT
  5
97
330
1F
100
AcDbEntity
  8
FORMAT
100
AcDbMText
 10
496.0104191961
 20
10.9423147578
 30
0.0
 40
2.6458333333
 41
0.0
 71
     1
 72
     1
  1
J
  7
SLDTEXTSTYLE0
 73
     1
 44
1.0
  0
MTEXT
  5
98
330
1F
100
AcDbEntity
  8
FORMAT
100
AcDbMText
 10
546.9504191961
 20
10.9423147578
 30
0.0
 40
2.6458333333
 41
0.0
 71
     1
 72
     1
  1
K
  7
SLDTEXTSTYLE0
 73
     1
 44
1.0
  0
MTEXT
  5
99
330
1F
100
AcDbEntity
  8
FORMAT
100
AcDbMText
 10
597.8904191961
 20
10.9423147578
 30
0.0
 40
2.6458333333
 41
0.0
 71
     1
 72
     1
  1
L
  7
SLDTEXTSTYLE0
 73
     1
 44
1.0
  0
MTEXT
  5
9A
330
1F
100
AcDbEntity
  8
FORMAT
100
AcDbMText
 10
648.8304191961
 20
10.9423147578
 30
0.0
 40
2.6458333333
 41
0.0
 71
     1
 72
     1
  1
M
  7
SLDTEXTSTYLE0
 73
     1
 44
1.0
  0
MTEXT
  5
9B
330
1F
100
AcDbEntity
  8
FORMAT
100
AcDbMText
 10
699.7704191961
 20
10.9423147578
 30
0.0
 40
2.6458333333
 41
0.0
 71
     1
 72
     1
  1
N
  7
SLDTEXTSTYLE0
 73
     1
 44
1.0
  0
MTEXT
  5
9C
330
1F
100
AcDbEntity
  8
FORMAT
100
AcDbMText
 10
750.7104191961
 20
10.9423147578
 30
0.0
 40
2.6458333333
 41
0.0
 71
     1
 72
     1
  1
O
  7
SLDTEXTSTYLE0
 73
     1
 44
1.0
  0
MTEXT
  5
9D
330
1F
100
AcDbEntity
  8
FORMAT
100
AcDbMText
 10
801.6504191961
 20
10.9423147578
 30
0.0
 40
2.6458333333
 41
0.0
 71
     1
 72
     1
  1
P
  7
SLDTEXTSTYLE0
 73
     1
 44
1.0
  0
MTEXT
  5
9E
330
1F
100
AcDbEntity
  8
FORMAT
100
AcDbMText
 10
828.9767730496
 20
92.0056938402
 30
0.0
 40
2.6458333333
 41
0.0
 71
     1
 72
     1
  1
10
  7
SLDTEXTSTYLE0
 73
     1
 44
1.0
  0
MTEXT
  5
9F
330
1F
100
AcDbEntity
  8
FORMAT
100
AcDbMText
 10
829.9767730496
 20
143.6456938402
 30
0.0
 40
2.6458333333
 41
0.0
 71
     1
 72
     1
  1
9
  7
SLDTEXTSTYLE0
 73
     1
 44
1.0
  0
MTEXT
  5
A0
330
1F
100
AcDbEntity
  8
FORMAT
100
AcDbMText
 10
829.9767730496
 20
195.2856938402
 30
0.0
 40
2.6458333333
 41
0.0
 71
     1
 72
     1
  1
8
  7
SLDTEXTSTYLE0
 73
     1
 44
1.0
  0
MTEXT
  5
A1
330
1F
100
AcDbEntity
  8
FORMAT
100
AcDbMText
 10
829.9767730496
 20
246.9256938402
 30
0.0
 40
2.6458333333
 41
0.0
 71
     1
 72
     1
  1
7
  7
SLDTEXTSTYLE0
 73
     1
 44
1.0
  0
MTEXT
  5
A2
330
1F
100
AcDbEntity
  8
FORMAT
100
AcDbMText
 10
829.9767730496
 20
296.5656938402
 30
0.0
 40
2.6458333333
 41
0.0
 71
     1
 72
     1
  1
6
  7
SLDTEXTSTYLE0
 73
     1
 44
1.0
  0
MTEXT
  5
A3
330
1F
100
AcDbEntity
  8
FORMAT
100
AcDbMText
 10
829.9767730496
 20
350.2056938402
 30
0.0
 40
2.6458333333
 41
0.0
 71
     1
 72
     1
  1
5
  7
SLDTEXTSTYLE0
 73
     1
 44
1.0
  0
MTEXT
  5
A4
330
1F
100
AcDbEntity
  8
FORMAT
100
AcDbMText
 10
829.9767730496
 20
401.8456938402
 30
0.0
 40
2.6458333333
 41
0.0
 71
     1
 72
     1
  1
4
  7
SLDTEXTSTYLE0
 73
     1
 44
1.0
  0
MTEXT
  5
A5
330
1F
100
AcDbEntity
  8
FORMAT
100
AcDbMText
 10
829.9767730496
 20
453.4856938402
 30
0.0
 40
2.6458333333
 41
0.0
 71
     1
 72
     1
  1
3
  7
SLDTEXTSTYLE0
 73
     1
 44
1.0
  0
MTEXT
  5
A6
330
1F
100
AcDbEntity
  8
FORMAT
100
AcDbMText
 10
829.9767730496
 20
505.1256938402
 30
0.0
 40
2.6458333333
 41
0.0
 71
     1
 72
     1
  1
2
  7
SLDTEXTSTYLE0
 73
     1
 44
1.0
  0
MTEXT
  5
A7
330
1F
100
AcDbEntity
  8
FORMAT
100
AcDbMText
 10
829.9767730496
 20
556.7656938402
 30
0.0
 40
2.6458333333
 41
0.0
 71
     1
 72
     1
  1
1
  7
SLDTEXTSTYLE0
 73
     1
 44
1.0
  0
MTEXT
  5
A8
330
1F
100
AcDbEntity
  8
FORMAT
100
AcDbMText
 10
343.1904191961
 20
584.9423147578
 30
0.0
 40
2.6458333333
 41
0.0
 71
     1
 72
     1
  1
G
  7
SLDTEXTSTYLE0
 73
     1
 44
1.0
  0
MTEXT
  5
A9
330
1F
100
AcDbEntity
  8
FORMAT
100
AcDbMText
 10
445.0704191961
 20
584.9423147578
 30
0.0
 40
2.6458333333
 41
0.0
 71
     1
 72
     1
  1
I
  7
SLDTEXTSTYLE0
 73
     1
 44
1.0
  0
MTEXT
  5
AA
330
1F
100
AcDbEntity
  8
FORMAT
100
AcDbMText
 10
750.7104191961
 20
584.9423147578
 30
0.0
 40
2.6458333333
 41
0.0
 71
     1
 72
     1
  1
O
  7
SLDTEXTSTYLE0
 73
     1
 44
1.0
  0
MTEXT
  5
AB
330
1F
100
AcDbEntity
  8
FORMAT
100
AcDbMText
 10
139.4304191961
 20
584.9423147578
 30
0.0
 40
2.6458333333
 41
0.0
 71
     1
 72
     1
  1
C
  7
SLDTEXTSTYLE0
 73
     1
 44
1.0
  0
MTEXT
  5
AC
330
1F
100
AcDbEntity
  8
FORMAT
100
AcDbMText
 10
801.6504191961
 20
584.9423147578
 30
0.0
 40
2.6458333333
 41
0.0
 71
     1
 72
     1
  1
P
  7
SLDTEXTSTYLE0
 73
     1
 44
1.0
  0
MTEXT
  5
AD
330
1F
100
AcDbEntity
  8
FORMAT
100
AcDbMText
 10
241.3104191961
 20
584.9423147578
 30
0.0
 40
2.6458333333
 41
0.0
 71
     1
 72
     1
  1
E
  7
SLDTEXTSTYLE0
 73
     1
 44
1.0
  0
MTEXT
  5
AE
330
1F
100
AcDbEntity
  8
FORMAT
100
AcDbMText
 10
546.9504191961
 20
584.9423147578
 30
0.0
 40
2.6458333333
 41
0.0
 71
     1
 72
     1
  1
K
  7
SLDTEXTSTYLE0
 73
     1
 44
1.0
  0
MTEXT
  5
AF
330
1F
100
AcDbEntity
  8
FORMAT
100
AcDbMText
 10
648.8304191961
 20
584.9423147578
 30
0.0
 40
2.6458333333
 41
0.0
 71
     1
 72
     1
  1
M
  7
SLDTEXTSTYLE0
 73
     1
 44
1.0
  0
MTEXT
  5
B0
330
1F
100
AcDbEntity
  8
FORMAT
100
AcDbMText
 10
37.5504191961
 20
584.9423147578
 30
0.0
 40
2.6458333333
 41
0.0
 71
     1
 72
     1
  1
A
  7
SLDTEXTSTYLE0
 73
     1
 44
1.0
  0
MTEXT
  5
B1
330
1F
100
AcDbEntity
  8
FORMAT
100
AcDbMText
 10
88.4904191961
 20
584.9423147578
 30
0.0
 40
2.6458333333
 41
0.0
 71
     1
 72
     1
  1
B
  7
SLDTEXTSTYLE0
 73
     1
 44
1.0
  0
MTEXT
  5
B2
330
1F
100
AcDbEntity
  8
FORMAT
100
AcDbMText
 10
190.3704191961
 20
584.9423147578
 30
0.0
 40
2.6458333333
 41
0.0
 71
     1
 72
     1
  1
D
  7
SLDTEXTSTYLE0
 73
     1
 44
1.0
  0
MTEXT
  5
B3
330
1F
100
AcDbEntity
  8
FORMAT
100
AcDbMText
 10
292.2504191961
 20
584.9423147578
 30
0.0
 40
2.6458333333
 41
0.0
 71
     1
 72
     1
  1
F
  7
SLDTEXTSTYLE0
 73
     1
 44
1.0
  0
MTEXT
  5
B4
330
1F
100
AcDbEntity
  8
FORMAT
100
AcDbMText
 10
394.1304191961
 20
584.9423147578
 30
0.0
 40
2.6458333333
 41
0.0
 71
     1
 72
     1
  1
H
  7
SLDTEXTSTYLE0
 73
     1
 44
1.0
  0
MTEXT
  5
B5
330
1F
100
AcDbEntity
  8
FORMAT
100
AcDbMText
 10
496.0104191961
 20
584.9423147578
 30
0.0
 40
2.6458333333
 41
0.0
 71
     1
 72
     1
  1
J
  7
SLDTEXTSTYLE0
 73
     1
 44
1.0
  0
MTEXT
  5
B6
330
1F
100
AcDbEntity
  8
FORMAT
100
AcDbMText
 10
597.8904191961
 20
584.9423147578
 30
0.0
 40
2.6458333333
 41
0.0
 71
     1
 72
     1
  1
L
  7
SLDTEXTSTYLE0
 73
     1
 44
1.0
  0
MTEXT
  5
B7
330
1F
100
AcDbEntity
  8
FORMAT
100
AcDbMText
 10
699.7704191961
 20
584.9423147578
 30
0.0
 40
2.6458333333
 41
0.0
 71
     1
 72
     1
  1
N
  7
SLDTEXTSTYLE0
 73
     1
 44
1.0
  0
MTEXT
  5
B8
330
1F
100
AcDbEntity
  8
FORMAT
100
AcDbMText
 10
8.9767730496
 20
556.7656938402
 30
0.0
 40
2.6458333333
 41
0.0
 71
     1
 72
     1
  1
1
  7
SLDTEXTSTYLE0
 73
     1
 44
1.0
  0
MTEXT
  5
B9
330
1F
100
AcDbEntity
  8
FORMAT
100
AcDbMText
 10
7.9767730496
 20
92.0056938402
 30
0.0
 40
2.6458333333
 41
0.0
 71
     1
 72
     1
  1
10
  7
SLDTEXTSTYLE0
 73
     1
 44
1.0
  0
MTEXT
  5
BA
330
1F
100
AcDbEntity
  8
FORMAT
100
AcDbMText
 10
8.9767730496
 20
401.8456938402
 30
0.0
 40
2.6458333333
 41
0.0
 71
     1
 72
     1
  1
4
  7
SLDTEXTSTYLE0
 73
     1
 44
1.0
  0
MTEXT
  5
BB
330
1F
100
AcDbEntity
  8
FORMAT
100
AcDbMText
 10
8.9767730496
 20
246.9256938402
 30
0.0
 40
2.6458333333
 41
0.0
 71
     1
 72
     1
  1
7
  7
SLDTEXTSTYLE0
 73
     1
 44
1.0
  0
MTEXT
  5
BC
330
1F
100
AcDbEntity
  8
FORMAT
100
AcDbMText
 10
8.9767730496
 20
505.1256938402
 30
0.0
 40
2.6458333333
 41
0.0
 71
     1
 72
     1
  1
2
  7
SLDTEXTSTYLE0
 73
     1
 44
1.0
  0
MTEXT
  5
BD
330
1F
100
AcDbEntity
  8
FORMAT
100
AcDbMText
 10
7.9767730496
 20
40.3656938402
 30
0.0
 40
2.6458333333
 41
0.0
 71
     1
 72
     1
  1
11
  7
SLDTEXTSTYLE0
 73
     1
 44
1.0
  0
MTEXT
  5
BE
330
1F
100
AcDbEntity
  8
FORMAT
100
AcDbMText
 10
8.9767730496
 20
195.2856938402
 30
0.0
 40
2.6458333333
 41
0.0
 71
     1
 72
     1
  1
8
  7
SLDTEXTSTYLE0
 73
     1
 44
1.0
  0
MTEXT
  5
BF
330
1F
100
AcDbEntity
  8
FORMAT
100
AcDbMText
 10
8.9767730496
 20
350.2056938402
 30
0.0
 40
2.6458333333
 41
0.0
 71
     1
 72
     1
  1
5
  7
SLDTEXTSTYLE0
 73
     1
 44
1.0
  0
MTEXT
  5
C0
330
1F
100
AcDbEntity
  8
FORMAT
100
AcDbMText
 10
8.9767730496
 20
143.6456938402
 30
0.0
 40
2.6458333333
 41
0.0
 71
     1
 72
     1
  1
9
  7
SLDTEXTSTYLE0
 73
     1
 44
1.0
  0
MTEXT
  5
C1
330
1F
100
AcDbEntity
  8
FORMAT
100
AcDbMText
 10
8.9767730496
 20
296.5656938402
 30
0.0
 40
2.6458333333
 41
0.0
 71
     1
 72
     1
  1
6
  7
SLDTEXTSTYLE0
 73
     1
 44
1.0
  0
MTEXT
  5
C2
330
1F
100
AcDbEntity
  8
FORMAT
100
AcDbMText
 10
8.9767730496
 20
453.4856938402
 30
0.0
 40
2.6458333333
 41
0.0
 71
     1
 72
     1
  1
3
  7
SLDTEXTSTYLE0
 73
     1
 44
1.0
  0
LINE
  5
C3
330
1F
100
AcDbEntity
  8
0
  6
Continuous
 62
     7
370
    15
100
AcDbLine
 10
-213.0370964549
 20
672.5902400186
 30
0.0
 11
-234.5370878719
 21
672.5902400186
 31
0.0
  0
LINE
  5
C4
330
1F
100
AcDbEntity
  8
0
  6
Continuous
 62
     7
370
    15
100
AcDbLine
 10
459.4629327513
 20
672.5902400186
 30
0.0
 11
437.9628817298
 21
672.5902400186
 31
0.0
  0
LINE
  5
C5
330
1F
100
AcDbEntity
  8
0
  6
Continuous
 62
     7
370
    15
100
AcDbLine
 10
-234.5370878719
 20
217.5902269056
 30
0.0
 11
-213.0370964549
 21
217.5902269056
 31
0.0
  0
LINE
  5
C6
330
1F
100
AcDbEntity
  8
0
  6
Continuous
 62
     7
370
    15
100
AcDbLine
 10
437.9628817298
 20
217.5902269056
 30
0.0
 11
459.4629327513
 21
217.5902269056
 31
0.0
  0
LINE
  5
C7
330
1F
100
AcDbEntity
  8
0
  6
Continuous
 62
     7
370
    15
100
AcDbLine
 10
41.6609565474
 20
852.2020570209
 30
0.0
 11
-164.8005475543
 21
645.7405529191
 31
0.0
  0
LINE
  5
C8
330
1F
100
AcDbEntity
  8
0
  6
Continuous
 62
     7
370
    15
100
AcDbLine
 10
88.5116825558
 20
904.7096363475
 30
0.0
 11
42.0136521317
 21
852.5754801204
 31
0.0
  0
LINE
  5
C9
330
1F
100
AcDbEntity
  8
0
  6
Continuous
 62
     7
370
    15
100
AcDbLine
 10
-148.5370924018
 20
240.0902352502
 30
0.0
 11
-86.5570563145
 21
240.0902352502
 31
0.0
  0
ARC
  5
CA
330
1F
100
AcDbEntity
  8
0
  6
Continuous
 62
     7
370
    15
100
AcDbCircle
 10
-148.5370934747
 20
263.0902334621
 30
0.0
 40
23.00000000000003
100
AcDbArc
 50
180.0
 51
270.0
  0
ARC
  5
CB
330
1F
100
AcDbEntity
  8
0
  6
Continuous
 62
     7
370
    15
100
AcDbCircle
 10
195.2848037197
 20
715.9121306565
 30
0.0
 40
204.0
100
AcDbArc
 50
13.8582680291
 51
76.1417319709
  0
LINE
  5
CC
330
1F
100
AcDbEntity
  8
0
  6
Continuous
 62
     7
370
    15
100
AcDbLine
 10
459.4629327513
 20
258.5902354886
 30
0.0
 11
462.4628941275
 21
261.5902266672
 31
0.0
  0
LINE
  5
CD
330
1F
100
AcDbEntity
  8
0
  6
Continuous
 62
     7
370
    15
100
AcDbLine
 10
462.4628941275
 20
628.590240257
 30
0.0
 11
459.4629327513
 21
631.5902314355
 31
0.0
  0
LINE
  5
CE
330
1F
100
AcDbEntity
  8
0
  6
Continuous
 62
     7
370
    15
100
AcDbLine
 10
-234.5370878719
 20
631.5902314355
 30
0.0
 11
-237.5370939516
 21
628.590240257
 31
0.0
  0
LINE
  5
CF
330
1F
100
AcDbEntity
  8
0
  6
Continuous
 62
     7
370
    15
100
AcDbLine
 10
-237.5370939516
 20
261.5902266672
 30
0.0
 11
-234.5370878719
 21
258.5902354886
 31
0.0
  0
ARC
  5
D0
330
1F
100
AcDbEntity
  8
0
  6
Continuous
 62
     7
370
    15
100
AcDbCircle
 10
-204.0370934747
 20
625.0902334621
 30
0.0
 40
9.0
100
AcDbArc
 50
180.0
 51
270.0
  0
ARC
  5
D1
330
1F
100
AcDbEntity
  8
0
  6
Continuous
 62
     7
370
    15
100
AcDbCircle
 10
-204.0370934747
 20
265.0902334621
 30
0.0
 40
9.0
100
AcDbArc
 50
90.0
 51
180.0
  0
ARC
  5
D2
330
1F
100
AcDbEntity
  8
0
  6
Continuous
 62
     7
370
    15
100
AcDbCircle
 10
-180.5370934747
 20
265.0902334621
 30
0.0
 40
9.0
100
AcDbArc
 50
0.0
 51
90.0
  0
ARC
  5
D3
330
1F
100
AcDbEntity
  8
0
  6
Continuous
 62
     7
370
    15
100
AcDbCircle
 10
428.9629065253
 20
272.0902334621
 30
0.0
 40
9.0
100
AcDbArc
 50
0.0
 51
90.0
  0
ARC
  5
D4
330
1F
100
AcDbEntity
  8
0
  6
Continuous
 62
     7
370
    15
100
AcDbCircle
 10
428.9629065253
 20
618.0902334621
 30
0.0
 40
9.0
100
AcDbArc
 50
270.0
 51
0.0
  0
LINE
  5
D5
330
1F
100
AcDbEntity
  8
0
  6
Continuous
 62
     7
370
    15
100
AcDbLine
 10
-180.5370901965
 20
616.0902372768
 30
0.0
 11
-204.0370931171
 21
616.0902372768
 31
0.0
  0
LINE
  5
D6
330
1F
100
AcDbEntity
  8
0
  6
Continuous
 62
     7
370
    15
100
AcDbLine
 10
-204.0370931171
 20
274.0902296474
 30
0.0
 11
-180.5370901965
 21
274.0902296474
 31
0.0
  0
LINE
  5
D7
330
1F
100
AcDbEntity
  8
0
  6
Continuous
 62
     7
370
    15
100
AcDbLine
 10
428.9628783919
 20
609.090237992
 30
0.0
 11
385.0180129267
 21
609.090237992
 31
0.0
  0
LINE
  5
D8
330
1F
100
AcDbEntity
  8
0
  6
Continuous
 62
     7
370
    15
100
AcDbLine
 10
77.3065904833
 20
281.0902289321
 30
0.0
 11
428.9628783919
 21
281.0902289321
 31
0.0
  0
ARC
  5
D9
330
1F
100
AcDbEntity
  8
0
  6
Continuous
 62
     7
370
    15
100
AcDbCircle
 10
195.2848037197
 20
715.9121306565
 30
0.0
 40
204.0
100
AcDbArc
 50
338.3806715828
 51
0.0
  0
ARC
  5
DA
330
1F
100
AcDbEntity
  8
0
  6
Continuous
 62
     7
370
    15
100
AcDbCircle
 10
195.2848037197
 20
715.9121306565
 30
0.0
 40
204.0
100
AcDbArc
 50
0.0
 51
10.856015512
  0
ARC
  5
DB
330
1F
100
AcDbEntity
  8
0
  6
Continuous
 62
     7
370
    15
100
AcDbCircle
 10
195.2848037197
 20
715.9121306565
 30
0.0
 40
203.9999999999999
100
AcDbArc
 50
79.143984488
 51
111.6193284172
  0
ARC
  5
DC
330
1F
100
AcDbEntity
  8
0
  6
Continuous
 62
     7
370
    15
100
AcDbCircle
 10
-148.5370934747
 20
629.477101814
 30
0.0
 40
22.99999999999997
100
AcDbArc
 50
135.038877389
 51
180.0
  0
ARC
  5
DD
330
1F
100
AcDbEntity
  8
0
  6
Continuous
 62
     7
370
    15
100
AcDbCircle
 10
35.2969919023
 20
858.5660211869
 30
0.0
 40
8.999999999999943
100
AcDbArc
 50
315.0
 51
318.2704879232
  0
ARC
  5
DE
330
1F
100
AcDbEntity
  8
0
  6
Continuous
 62
     7
370
    15
100
AcDbCircle
 10
-180.5370934747
 20
625.0902334621
 30
0.0
 40
9.0
100
AcDbArc
 50
270.0
 51
0.0
  0
SPLINE
  5
DF
330
1F
100
AcDbEntity
  8
0
  6
Continuous
 62
     7
370
    15
100
AcDbSpline
210
0.0
220
0.0
230
1.0
 70
     8
 71
     3
 72
    10
 73
     6
 74
     0
 42
0.00000001
 43
0.00000001
 12
1.0
 22
0.0
 32
0.0
 13
1.0
 23
0.0
 33
0.0
 40
0.0
 40
0.0
 40
0.0
 40
0.0
 40
0.2627988813979446
 40
0.7447990034597769
 40
1.0
 40
1.0
 40
1.0
 40
1.0
 10
384.9860350348051
 20
609.0912363698407
 30
0.0
 10
384.9527951852152
 20
609.0910934522766
 30
0.0
 10
384.8585900397524
 20
609.0906884092313
 30
0.0
 10
384.7311524113611
 20
609.0944469820461
 30
0.0
 10
384.6415454953918
 20
609.0982054311492
 30
0.0
 10
384.6105257727201
 20
609.0995065143032
 30
0.0
  0
SPLINE
  5
E0
330
1F
100
AcDbEntity
  8
0
  6
Continuous
 62
     7
370
    15
100
AcDbSpline
210
0.0
220
0.0
230
1.0
 70
     8
 71
     3
 72
    18
 73
    14
 74
     0
 42
0.00000001
 43
0.00000001
 12
1.0
 22
0.0
 32
0.0
 13
1.0
 23
0.0
 33
0.0
 40
0.0
 40
0.0
 40
0.0
 40
0.0
 40
0.089431110011404
 40
0.2009096648175538
 40
0.3007007816921649
 40
0.3918000002877991
 40
0.4893146841056226
 40
0.5843522090176622
 40
0.6855053265699875
 40
0.783078929354517
 40
0.8779078166433444
 40
0.9709051904054161
 40
0.9999999999999999
 40
0.9999999999999999
 40
0.9999999999999999
 40
0.9999999999999999
 10
384.6743921495969
 20
609.0796879699154
 30
0.0
 10
384.6741195606703
 20
609.0797262420072
 30
0.0
 10
384.6735071814897
 20
609.0798122214065
 30
0.0
 10
384.636896019964
 20
609.0899917954277
 30
0.0
 10
384.5682034046677
 20
609.1131704455044
 30
0.0
 10
384.4643533868522
 20
609.1536754053612
 30
0.0
 10
384.3257533883614
 20
609.2159194416039
 30
0.0
 10
384.1620332728573
 20
609.3001484193873
 30
0.0
 10
383.9620578198133
 20
609.4178493282895
 30
0.0
 10
383.732104111553
 20
609.5725196178058
 30
0.0
 10
383.482254330866
 20
609.768235407664
 30
0.0
 10
383.2794322383725
 20
609.9416391209671
 30
0.0
 10
383.159724649933
 20
610.0662396975065
 30
0.0
 10
383.1311980940397
 20
610.0959322621746
 30
0.0
  0
LINE
  5
E1
330
1F
100
AcDbEntity
  8
0
  6
Continuous
 62
     7
370
    15
100
AcDbLine
 10
384.2171351172
 20
609.2738351991
 30
0.0
 11
397.5173453547
 21
622.5740305355
 31
0.0
  0
LINE
  5
E2
330
1F
100
AcDbEntity
  8
0
  6
Continuous
 62
     7
370
    15
100
AcDbLine
 10
101.9467035986
 20
918.1446722915
 30
0.0
 11
88.5116825558
 21
904.7096363475
 31
0.0
  0
LINE
  5
E3
330
1F
100
AcDbEntity
  8
0
  6
Continuous
 62
     7
370
    15
100
AcDbLine
 10
437.9628817298
 20
450.0364573879
 30
0.0
 11
459.4629327513
 21
450.0364573879
 31
0.0
  0
LINE
  5
E4
330
1F
100
AcDbEntity
  8
0
  6
Continuous
 62
     7
370
    15
100
AcDbLine
 10
459.4629327513
 20
450.0364573879
 30
0.0
 11
459.4629327513
 21
445.0902334621
 31
0.0
  0
LINE
  5
E5
330
1F
100
AcDbEntity
  8
0
  6
Continuous
 62
     7
370
    15
100
AcDbLine
 10
437.9628817298
 20
445.0902334621
 30
0.0
 11
459.4629327513
 21
445.0902334621
 31
0.0
  0
LINE
  5
E6
330
1F
100
AcDbEntity
  8
0
  6
Continuous
 62
     7
370
    15
100
AcDbLine
 10
437.9628817298
 20
445.0902334621
 30
0.0
 11
437.9628817298
 21
450.0364573879
 31
0.0
  0
LINE
  5
E7
330
1F
100
AcDbEntity
  8
0
  6
Continuous
 62
     7
370
    15
100
AcDbLine
 10
-234.5370878719
 20
445.0902334621
 30
0.0
 11
-213.0370964549
 21
445.0902334621
 31
0.0
  0
LINE
  5
E8
330
1F
100
AcDbEntity
  8
0
  6
Continuous
 62
     7
370
    15
100
AcDbLine
 10
-234.5370878719
 20
445.0902334621
 30
0.0
 11
-234.5370878719
 21
450.0364573879
 31
0.0
  0
LINE
  5
E9
330
1F
100
AcDbEntity
  8
0
  6
Continuous
 62
     7
370
    15
100
AcDbLine
 10
-234.5370878719
 20
450.0364573879
 30
0.0
 11
-213.0370964549
 21
450.0364573879
 31
0.0
  0
LINE
  5
EA
330
1F
100
AcDbEntity
  8
0
  6
Continuous
 62
     7
370
    15
100
AcDbLine
 10
-213.0370964549
 20
450.0364573879
 30
0.0
 11
-213.0370964549
 21
445.0902334621
 31
0.0
  0
LINE
  5
EB
330
1F
100
AcDbEntity
  8
0
  6
Continuous
 62
     7
370
    15
100
AcDbLine
 10
-213.0370964549
 20
672.5902400186
 30
0.0
 11
-213.0370964549
 21
450.0364573879
 31
0.0
  0
LINE
  5
EC
330
1F
100
AcDbEntity
  8
0
  6
Continuous
 62
     7
370
    15
100
AcDbLine
 10
-234.5370878719
 20
672.5902400186
 30
0.0
 11
-234.5370878719
 21
450.0364573879
 31
0.0
  0
LINE
  5
ED
330
1F
100
AcDbEntity
  8
0
  6
Continuous
 62
     7
370
    15
100
AcDbLine
 10
437.9628817298
 20
672.5902400186
 30
0.0
 11
437.9628817298
 21
450.0364573879
 31
0.0
  0
LINE
  5
EE
330
1F
100
AcDbEntity
  8
0
  6
Continuous
 62
     7
370
    15
100
AcDbLine
 10
459.4629327513
 20
672.5902400186
 30
0.0
 11
459.4629327513
 21
450.0364573879
 31
0.0
  0
LINE
  5
EF
330
1F
100
AcDbEntity
  8
0
  6
Continuous
 62
     7
370
    15
100
AcDbLine
 10
-213.0370964549
 20
440.1440095363
 30
0.0
 11
-234.5370878719
 21
440.1440095363
 31
0.0
  0
LINE
  5
F0
330
1F
100
AcDbEntity
  8
0
  6
Continuous
 62
     7
370
    15
100
AcDbLine
 10
-213.0370964549
 20
445.0902334621
 30
0.0
 11
-213.0370964549
 21
440.1440095363
 31
0.0
  0
LINE
  5
F1
330
1F
100
AcDbEntity
  8
0
  6
Continuous
 62
     7
370
    15
100
AcDbLine
 10
-234.5370878719
 20
440.1440095363
 30
0.0
 11
-234.5370878719
 21
445.0902334621
 31
0.0
  0
LINE
  5
F2
330
1F
100
AcDbEntity
  8
0
  6
Continuous
 62
     7
370
    15
100
AcDbLine
 10
-213.0370964549
 20
440.1440095363
 30
0.0
 11
-213.0370964549
 21
217.5902269056
 31
0.0
  0
LINE
  5
F3
330
1F
100
AcDbEntity
  8
0
  6
Continuous
 62
     7
370
    15
100
AcDbLine
 10
-234.5370878719
 20
440.1440095363
 30
0.0
 11
-234.5370878719
 21
217.5902269056
 31
0.0
  0
LINE
  5
F4
330
1F
100
AcDbEntity
  8
0
  6
Continuous
 62
     7
370
    15
100
AcDbLine
 10
459.4629327513
 20
440.1440095363
 30
0.0
 11
437.9628817298
 21
440.1440095363
 31
0.0
  0
LINE
  5
F5
330
1F
100
AcDbEntity
  8
0
  6
Continuous
 62
     7
370
    15
100
AcDbLine
 10
437.9628817298
 20
440.1440095363
 30
0.0
 11
437.9628817298
 21
445.0902334621
 31
0.0
  0
LINE
  5
F6
330
1F
100
AcDbEntity
  8
0
  6
Continuous
 62
     7
370
    15
100
AcDbLine
 10
459.4629327513
 20
445.0902334621
 30
0.0
 11
459.4629327513
 21
440.1440095363
 31
0.0
  0
LINE
  5
F7
330
1F
100
AcDbEntity
  8
0
  6
Continuous
 62
     7
370
    15
100
AcDbLine
 10
437.9628817298
 20
440.1440095363
 30
0.0
 11
437.9628817298
 21
217.5902269056
 31
0.0
  0
LINE
  5
F8
330
1F
100
AcDbEntity
  8
0
  6
Continuous
 62
     7
370
    15
100
AcDbLine
 10
459.4629327513
 20
440.1440095363
 30
0.0
 11
459.4629327513
 21
217.5902269056
 31
0.0
  0
ELLIPSE
  5
F9
330
1F
100
AcDbEntity
  8
0
  6
Continuous
 62
     7
370
    15
100
AcDbEllipse
 10
-40.3624303486
 20
480.2648965883
 30
0.0
 11
292.0137616349815
 21
292.0137616349825
 31
0.0
210
0.0
220
0.0
230
1.0
 40
0.496404311
 41
0.7251317903965065
 42
0.7845699390678558
  0
ELLIPSE
  5
FA
330
1F
100
AcDbEntity
  8
0
  6
Continuous
 62
     7
370
    15
100
AcDbEllipse
 10
-40.3624303486
 20
480.2648965883
 30
0.0
 11
292.0137616349824
 21
292.0137616349819
 31
0.0
210
0.0
220
0.0
230
1.0
 40
0.496404311
 41
5.498615368111754
 42
5.558053516783121
  0
SPLINE
  5
FB
330
1F
100
AcDbEntity
  8
0
  6
Continuous
 62
     7
370
    15
100
AcDbSpline
210
0.0
220
0.0
230
1.0
 70
     8
 71
     3
 72
    32
 73
    28
 74
     0
 42
0.00000001
 43
0.00000001
 12
1.0
 22
0.0
 32
0.0
 13
1.0
 23
0.0
 33
0.0
 40
0.0
 40
0.0
 40
0.0
 40
0.0
 40
0.1250000000000068
 40
0.1250000000000068
 40
0.1875000000000093
 40
0.1875000000000093
 40
0.2500000000000118
 40
0.2500000000000118
 40
0.3125000000000143
 40
0.3125000000000143
 40
0.3437500000000155
 40
0.3437500000000155
 40
0.3750000000000168
 40
0.3750000000000168
 40
0.5000000000000164
 40
0.5000000000000164
 40
0.5312500000000157
 40
0.5312500000000157
 40
0.562500000000015
 40
0.562500000000015
 40
0.6250000000000128
 40
0.6250000000000128
 40
0.7500000000000085
 40
0.7500000000000085
 40
0.8750000000000042
 40
0.8750000000000042
 40
1.0
 40
1.0
 40
1.0
 40
1.0
 10
45.20114191310998
 20
310.5439012788186
 30
0.0
 10
43.93417551627206
 20
309.2371750806331
 30
0.0
 10
42.7235534658927
 20
307.8889263500184
 30
0.0
 10
41.01960310447328
 20
305.7844758927123
 30
0.0
 10
40.47897342151531
 20
305.0796725408218
 30
0.0
 10
39.46010147583143
 20
303.6715015539451
 30
0.0
 10
38.98087036510768
 20
302.9669153581165
 30
0.0
 10
38.0836913469062
 20
301.5576029570442
 30
0.0
 10
37.66574205305471
 20
300.8528764126578
 30
0.0
 10
37.0849148711854
 20
299.7965581117009
 30
0.0
 10
36.89846771686281
 20
299.4435530585586
 30
0.0
 10
36.5434084190424
 20
298.7429984535817
 30
0.0
 10
36.37531441023009
 20
298.3965795564151
 30
0.0
 10
35.57910963712038
 20
296.6832209952539
 30
0.0
 10
35.08311531093379
 20
295.3722672116019
 30
0.0
 10
34.59968735530961
 20
293.8016804318853
 30
0.0
 10
34.50970950969013
 20
293.4903369232655
 30
0.0
 10
34.34389200937618
 20
292.879097396861
 30
0.0
 10
34.2679183486846
 20
292.5788553243344
 30
0.0
 10
34.05884667625247
 20
291.6932638767966
 30
0.0
 10
33.94453136669247
 20
291.1230125410902
 30
0.0
 10
33.66398125781878
 20
289.4662753792115
 30
0.0
 10
33.55951850553055
 20
288.4334641373758
 30
0.0
 10
33.46837889525019
 20
286.4885231752151
 30
0.0
 10
33.48251387500748
 20
285.5739182038033
 30
0.0
 10
33.595605372283
 20
283.8800558809393
 30
0.0
 10
33.69422730031686
 20
283.0966577487615
 30
0.0
 10
33.82288913889804
 20
282.3676088631349
 30
0.0
  0
SPLINE
  5
FC
330
1F
100
AcDbEntity
  8
0
  6
Continuous
 62
     7
370
    15
100
AcDbSpline
210
0.0
220
0.0
230
1.0
 70
     8
 71
     3
 72
    14
 73
    10
 74
     0
 42
0.00000001
 43
0.00000001
 12
1.0
 22
0.0
 32
0.0
 13
1.0
 23
0.0
 33
0.0
 40
0.0
 40
0.0
 40
0.0
 40
0.0
 40
0.25
 40
0.25
 40
0.5
 40
0.5
 40
0.75
 40
0.75
 40
1.0
 40
1.0
 40
1.0
 40
1.0
 10
33.82288913889438
 20
282.3676088631313
 30
0.0
 10
33.94820748115455
 20
281.6575055505966
 30
0.0
 10
34.04322656384274
 20
280.9779764729219
 30
0.0
 10
34.17584439203657
 20
279.6836395431116
 30
0.0
 10
34.21343756022052
 20
279.0683246216774
 30
0.0
 10
34.23439741978472
 20
277.909175154969
 30
0.0
 10
34.21782702686328
 20
277.365353434456
 30
0.0
 10
34.13465756824226
 20
276.3522570433521
 30
0.0
 10
34.06772956797374
 20
275.8825009395486
 30
0.0
 10
33.9784931225445
 20
275.4526853540677
 30
0.0
  0
LWPOLYLINE
  5
FD
330
1F
100
AcDbEntity
  8
0
  6
Continuous
 62
     7
370
    15
100
AcDbPolyline
 90
        3
 70
   128
 43
0.0
 10
77.3065904833
 20
281.0902289321
 10
0.8847485043
 20
260.5902395418
 10
-64.7767600857
 20
242.9766646793
  0
SPLINE
  5
FE
330
1F
100
AcDbEntity
  8
0
  6
Continuous
 62
     7
370
    15
100
AcDbSpline
210
0.0
220
0.0
230
1.0
 70
     8
 71
     3
 72
    36
 73
    32
 74
     0
 42
0.00000001
 43
0.00000001
 12
1.0
 22
0.0
 32
0.0
 13
1.0
 23
0.0
 33
0.0
 40
0.0
 40
0.0
 40
0.0
 40
0.0
 40
0.0624999999999998
 40
0.0624999999999998
 40
0.0664062499999998
 40
0.0664062499999998
 40
0.0703124999999998
 40
0.0781249999999997
 40
0.0937499999999997
 40
0.1249999999999999
 40
0.1249999999999999
 40
0.2500000000000001
 40
0.2500000000000001
 40
0.3125000000000001
 40
0.3125000000000001
 40
0.3750000000000002
 40
0.5000000000000002
 40
0.5000000000000002
 40
0.5625000000000001
 40
0.5625000000000001
 40
0.625
 40
0.75
 40
0.75
 40
0.875
 40
0.875
 40
0.9375
 40
0.9375
 40
0.96875
 40
0.984375
 40
0.984375
 40
1.0
 40
1.0
 40
1.0
 40
1.0
 10
-75.53709347471643
 20
377.9555010736993
 30
0.0
 10
-74.4212325958082
 20
373.9478274600141
 30
0.0
 10
-74.62186808241766
 20
367.9964912991832
 30
0.0
 10
-74.23476082456823
 20
362.693528280047
 30
0.0
 10
-74.20903583558156
 20
362.3864618581231
 30
0.0
 10
-74.15587128747295
 20
361.7758188776738
 30
0.0
 10
-74.07627489495047
 20
360.8609984620614
 30
0.0
 10
-73.89160320925394
 20
358.7344906466707
 30
0.0
 10
-73.52647454026709
 20
354.5142857849204
 30
0.0
 10
-73.22073842234312
 20
350.9549908841949
 30
0.0
 10
-72.21771476183855
 20
339.2275114181354
 30
0.0
 10
-71.46820794755662
 20
330.2855610471786
 30
0.0
 10
-70.43593533695572
 20
317.6630136042671
 30
0.0
 10
-70.10685077439696
 20
313.5872239445766
 30
0.0
 10
-69.47797956881699
 20
305.727429160211
 30
0.0
 10
-68.5794493742255
 20
294.374677751488
 30
0.0
 10
-67.82058963599594
 20
284.4525402925389
 30
0.0
 10
-67.16196435537618
 20
275.6438676618353
 30
0.0
 10
-66.95950288282859
 20
272.896599903485
 30
0.0
 10
-66.58364167922507
 20
267.7520574613166
 30
0.0
 10
-66.06464623881736
 20
260.5696418821069
 30
0.0
 10
-65.67426154984793
 20
255.0007683560861
 30
0.0
 10
-65.25779668840362
 20
249.0282593483346
 30
0.0
 10
-65.10093621475372
 20
246.7667473862154
 30
0.0
 10
-64.94567799512733
 20
244.4914817198545
 30
0.0
 10
-64.90721608334313
 20
243.9191562429964
 30
0.0
 10
-64.86926624358851
 20
243.3444103536895
 30
0.0
 10
-64.85518424523157
 20
243.128049938281
 30
0.0
 10
-64.84823590442367
 20
243.0193043322516
 30
0.0
 10
-64.84516607614808
 20
242.9708434431512
 30
0.0
 10
-64.82886136873772
 20
242.9602296261568
 30
0.0
 10
-64.77399637500592
 20
242.9663664798138
 30
0.0
  0
LWPOLYLINE
  5
FF
330
1F
100
AcDbEntity
  8
0
  6
Continuous
 62
     7
370
    15
100
AcDbPolyline
 90
        9
 70
   128
 43
0.0
 10
88.5116825558
 20
904.7096363475
 10
88.5322759606
 20
904.6890429428
 10
88.5940561749
 20
904.6272627284
 10
88.6969933964
 20
904.5243255069
 10
88.841072724
 20
904.3802610805
 10
89.026234553
 20
904.1950694492
 10
89.2524490811
 20
903.9688698223
 10
89.5196567036
 20
903.7016621997
 10
89.8277531125
 20
903.3935657909
  0
LWPOLYLINE
  5
100
330
1F
100
AcDbEntity
  8
0
  6
Continuous
 62
     7
370
    15
100
AcDbPolyline
 90
       78
 70
   128
 43
0.0
 10
151.2438426472
 20
841.9774762561
 10
153.1795928933
 20
840.0417260101
 10
155.1364282824
 20
838.0848757198
 10
157.1138719775
 20
836.107461827
 10
159.1113875367
 20
834.1099313667
 10
161.1284832217
 20
832.0928505828
 10
163.164652393
 20
830.0566665103
 10
165.2193884112
 20
828.0019453933
 10
167.2921399333
 20
825.9291938713
 10
169.3824003197
 20
823.8389185836
 10
171.48964803
 20
821.7316857746
 10
173.613331721
 20
819.6080020835
 10
175.7529298522
 20
817.4684039524
 10
177.9078761794
 20
815.3134576251
 10
180.0776342608
 20
813.1436995437
 10
182.2616378523
 20
810.9596661498
 10
184.4593803145
 20
808.76195349
 10
186.6702656008
 20
806.5510682037
 10
188.8937274672
 20
804.327576535
 10
191.1292294718
 20
802.0920745304
 10
193.3762053706
 20
799.8451284339
 10
195.634059117
 20
797.5872746875
 10
197.9022244669
 20
795.3191093376
 10
200.1801351763
 20
793.0411986282
 10
202.4671951987
 20
790.7541386058
 10
204.7628382899
 20
788.4584657123
 10
207.0664982058
 20
786.1548355987
 10
209.3775490977
 20
783.8437549045
 10
211.6954545237
 20
781.5258494785
 10
214.0195886351
 20
779.2017153671
 10
216.3493851878
 20
776.8719188144
 10
218.6842481352
 20
774.5370856693
 10
221.0235516287
 20
772.1977523734
 10
223.3667592265
 20
769.854574578
 10
225.7132450797
 20
767.5080887248
 10
228.0623833396
 20
765.1589206626
 10
230.4136375643
 20
762.8076664379
 10
232.7663819052
 20
760.454922097
 10
235.1200203158
 20
758.1012836864
 10
237.4739567496
 20
755.7473472526
 10
239.8275951602
 20
753.393708842
 10
242.1803395011
 20
751.0409645011
 10
244.5315937258
 20
748.6897102764
 10
246.880761788
 20
746.3405720165
 10
249.2272476412
 20
743.9940861633
 10
251.5704254366
 20
741.6508785655
 10
253.9097587325
 20
739.311575072
 10
256.2445918776
 20
736.9767121246
 10
258.5743884303
 20
734.6469155719
 10
260.8985225417
 20
732.3227814605
 10
263.2164279677
 20
730.0048760345
 10
265.5275086619
 20
727.6938251426
 10
267.8311387755
 20
725.3901652267
 10
270.126811669
 20
723.0945221355
 10
272.4138716914
 20
720.8074621131
 10
274.6917824008
 20
718.5295514038
 10
276.9599477507
 20
716.2613860538
 10
279.2178014971
 20
714.0035323074
 10
281.4647475936
 20
711.7565564086
 10
283.7002495982
 20
709.521054404
 10
285.9237412669
 20
707.2975925376
 10
288.1346265532
 20
705.0867072513
 10
290.332339213
 20
702.8889647891
 10
292.5163726069
 20
700.7049611976
 10
294.6861306883
 20
698.5352031162
 10
296.8410770155
 20
696.380256789
 10
298.9806751467
 20
694.2406586578
 10
301.1043588378
 20
692.1169749668
 10
303.2115916468
 20
690.0097272565
 10
305.3018669344
 20
687.9194668701
 10
307.3746184565
 20
685.846715348
 10
309.4293395735
 20
683.7919793298
 10
311.465523646
 20
681.7558101585
 10
313.4826044299
 20
679.7387144735
 10
315.4801348902
 20
677.7411989143
 10
317.457548783
 20
675.7637552192
 10
319.4143990733
 20
673.8069198301
 10
321.3501493193
 20
671.871169584
  0
LINE
  5
101
330
1F
100
AcDbEntity
  8
0
  6
Continuous
 62
     7
370
    15
100
AcDbLine
 10
319.3403403021
 20
651.1833063533
 30
0.0
 11
327.8822819449
 21
659.6821985414
 31
0.0
  0
ELLIPSE
  5
102
330
1F
100
AcDbEntity
  8
0
  6
Continuous
 62
     7
370
    15
100
AcDbEllipse
 10
215.1375361575
 20
735.7648630943
 30
0.0
 11
146.5743734789354
 21
-146.5743734789328
 31
0.0
210
0.0
220
0.0
230
1.0
 40
0.0874897569
 41
0.8554019792053572
 42
0.8710961815671553
  0
ELLIPSE
  5
103
330
1F
100
AcDbEntity
  8
0
  6
Continuous
 62
     7
370
    15
100
AcDbEllipse
 10
215.1375361575
 20
735.7648630943
 30
0.0
 11
146.5743734789348
 21
-146.5743734789344
 31
0.0
210
0.0
220
0.0
230
1.0
 40
0.0874897569
 41
2.270496472022668
 42
2.286190674384469
  0
LINE
  5
104
330
1F
100
AcDbEntity
  8
0
  6
Continuous
 62
     7
370
    15
100
AcDbLine
 10
139.0548716046
 20
848.5096088817
 30
0.0
 11
130.5559794165
 21
839.9676672389
 31
0.0
  0
SPLINE
  5
105
330
1F
100
AcDbEntity
  8
0
  6
Continuous
 62
     7
370
    15
100
AcDbSpline
210
0.0
220
0.0
230
1.0
 70
     8
 71
     3
 72
     9
 73
     5
 74
     0
 42
0.00000001
 43
0.00000001
 12
1.0
 22
0.0
 32
0.0
 13
1.0
 23
0.0
 33
0.0
 40
0.0
 40
0.0
 40
0.0
 40
0.0
 40
0.4999515945427188
 40
1.0
 40
1.0
 40
1.0
 40
1.0
 10
75.917221114784
 20
881.1366251876278
 30
0.0
 10
78.47652820117307
 20
883.648688543286
 30
0.0
 10
83.5956379596487
 20
888.6733016919966
 30
0.0
 10
88.73760613911286
 20
893.7280118175003
 30
0.0
 10
91.30883912816596
 20
896.2556115558071
 30
0.0
  0
ELLIPSE
  5
106
330
1F
100
AcDbEntity
  8
0
  6
Continuous
 62
     7
370
    15
100
AcDbEllipse
 10
215.1375361575
 20
735.7648630943
 30
0.0
 11
146.5743734789348
 21
-146.5743734789344
 31
0.0
210
0.0
220
0.0
230
1.0
 40
0.0874897569
 41
2.795024693639301
 42
2.899386077649597
  0
LWPOLYLINE
  5
107
330
1F
100
AcDbEntity
  8
0
  6
Continuous
 62
     7
370
    15
100
AcDbPolyline
 90
       78
 70
   128
 43
0.0
 10
164.6788785912
 20
855.4125122001
 10
166.6146288373
 20
853.4767619541
 10
168.5714642264
 20
851.5199116638
 10
170.5488930203
 20
849.542497771
 10
172.5464085795
 20
847.5449673107
 10
174.5635191657
 20
845.5278567245
 10
176.5996734358
 20
843.4917024543
 10
178.6544243552
 20
841.4369813373
 10
180.7271758772
 20
839.3642000129
 10
182.8174213625
 20
837.2739545276
 10
184.9246839739
 20
835.1666919162
 10
187.048367665
 20
833.0430082252
 10
189.1879359938
 20
830.9034398963
 10
191.342882321
 20
828.7484935691
 10
193.5126404025
 20
826.5787354877
 10
195.6966737963
 20
824.3947020938
 10
197.8944162585
 20
822.1969596317
 10
200.1053015448
 20
819.9860743453
 10
202.3287634112
 20
817.762612479
 10
204.5642654158
 20
815.5271104743
 10
206.8112413146
 20
813.2801643779
 10
209.0690652587
 20
811.0223106315
 10
211.3372306086
 20
808.7541452815
 10
213.615141318
 20
806.4762345722
 10
215.9022311427
 20
804.1891745498
 10
218.1978742339
 20
801.8935016563
 10
220.5015341498
 20
799.5898417404
 10
222.8125850417
 20
797.2787908485
 10
225.1304904677
 20
794.9608854225
 10
227.4546245791
 20
792.6367513111
 10
229.7844211318
 20
790.3069547584
 10
232.1192840792
 20
787.9720918109
 10
234.4585875727
 20
785.6327883174
 10
236.8017951705
 20
783.2895807197
 10
239.1482512213
 20
780.9431246688
 10
241.4974192835
 20
778.5939566066
 10
243.8486735083
 20
776.2427023818
 10
246.2014178492
 20
773.8899580409
 10
248.5550562598
 20
771.5363196304
 10
250.9089926936
 20
769.1823831966
 10
253.2626311041
 20
766.828744786
 10
255.615375445
 20
764.4760004451
 10
257.9666296698
 20
762.1247462203
 10
260.315797732
 20
759.7755781581
 10
262.6622537829
 20
757.4291221073
 10
265.0054613806
 20
755.0859145095
 10
267.3447648741
 20
752.746611016
 10
269.6796278216
 20
750.4117480686
 10
272.0094243743
 20
748.0819515159
 10
274.3335584857
 20
745.7578174045
 10
276.6514639117
 20
743.4399119785
 10
278.9625148036
 20
741.1288610866
 10
281.2661747195
 20
738.8252011707
 10
283.561847613
 20
736.5295580795
 10
285.8489076354
 20
734.2424682548
 10
288.1268183447
 20
731.9645575454
 10
290.3949836947
 20
729.6963921955
 10
292.6528374411
 20
727.4385682514
 10
294.8997835375
 20
725.1915923526
 10
297.1352855422
 20
722.956090348
 10
299.3587474085
 20
720.7326284816
 10
301.5696326949
 20
718.5217431953
 10
303.767375157
 20
716.3240007331
 10
305.9514085509
 20
714.1399673393
 10
308.1211666323
 20
711.9702092578
 10
310.2761129595
 20
709.8152629306
 10
312.4156812884
 20
707.6756946018
 10
314.5393649794
 20
705.5520109107
 10
316.6466275908
 20
703.4447482994
 10
318.7368730761
 20
701.354502814
 10
320.8096544005
 20
699.281751292
 10
322.8643755175
 20
697.2270003726
 10
324.9005297877
 20
695.1908461025
 10
326.9176403739
 20
693.1737355163
 10
328.9151708342
 20
691.1762199571
 10
330.892584727
 20
689.1987911632
 10
332.8494350173
 20
687.2419557741
 10
334.7851852633
 20
685.306205528
  0
SPLINE
  5
108
330
1F
100
AcDbEntity
  8
0
  6
Continuous
 62
     7
370
    15
100
AcDbSpline
210
0.0
220
0.0
230
1.0
 70
     8
 71
     3
 72
    38
 73
    34
 74
     0
 42
0.00000001
 43
0.00000001
 12
1.0
 22
0.0
 32
0.0
 13
1.0
 23
0.0
 33
0.0
 40
0.0
 40
0.0
 40
0.0
 40
0.0
 40
0.0078125
 40
0.01171875
 40
0.01171875
 40
0.015625
 40
0.015625
 40
0.0312500000000001
 40
0.0625000000000001
 40
0.0625000000000001
 40
0.1250000000000002
 40
0.1250000000000002
 40
0.2500000000000003
 40
0.2500000000000003
 40
0.3750000000000003
 40
0.4375000000000003
 40
0.4375000000000003
 40
0.5000000000000003
 40
0.5000000000000003
 40
0.6250000000000004
 40
0.6875000000000006
 40
0.6875000000000006
 40
0.7500000000000007
 40
0.7500000000000007
 40
0.8750000000000007
 40
0.8750000000000007
 40
0.9062500000000006
 40
0.9218750000000004
 40
0.9296875000000003
 40
0.9296875000000003
 40
0.9375000000000002
 40
0.9375000000000002
 40
1.0
 40
1.0
 40
1.0
 40
1.0
 10
-86.55705635721611
 20
240.1059442472528
 30
0.0
 10
-86.57925869781418
 20
240.101191605831
 30
0.0
 10
-86.59888699406795
 20
240.1029144581681
 30
0.0
 10
-86.60419620352747
 20
240.1160135456014
 30
0.0
 10
-86.60524185000962
 20
240.1270630465107
 30
0.0
 10
-86.60437684341667
 20
240.1337866456454
 30
0.0
 10
-86.60146372077013
 20
240.1709518224602
 30
0.0
 10
-86.59147711355585
 20
240.2990439396223
 30
0.0
 10
-86.57266706525982
 20
240.5431092769468
 30
0.0
 10
-86.52371410724102
 20
241.1839672897957
 30
0.0
 10
-86.47614000490294
 20
241.814723079072
 30
0.0
 10
-86.28951451801964
 20
244.3044073088685
 30
0.0
 10
-86.10672621164889
 20
246.7608143732014
 30
0.0
 10
-85.6209555919229
 20
253.2001168320094
 30
0.0
 10
-85.1664894607059
 20
259.1736068215243
 30
0.0
 10
-84.57828930343369
 20
266.7774609361165
 30
0.0
 10
-84.15660088430424
 20
272.1994828633023
 30
0.0
 10
-83.93109437230028
 20
275.0839681416756
 30
0.0
 10
-83.20898530188985
 20
284.2883142570271
 30
0.0
 10
-82.3969100903598
 20
294.5717601291122
 30
0.0
 10
-81.46530211300568
 20
306.162000245817
 30
0.0
 10
-80.81938022968151
 20
314.1445751123713
 30
0.0
 10
-80.48354030201071
 20
318.2634822142419
 30
0.0
 10
-79.44465844011006
 20
330.9535864544924
 30
0.0
 10
-78.71231296765205
 20
339.8619500353763
 30
0.0
 10
-77.75699949943541
 20
351.4534468884382
 30
0.0
 10
-77.4673421387444
 20
354.9650059765858
 30
0.0
 10
-77.12485457692702
 20
359.1178056093548
 30
0.0
 10
-76.97718478836552
 20
360.9091750448333
 30
0.0
 10
-76.87855022230991
 20
362.1059545161876
 30
0.0
 10
-76.83096078715512
 20
362.7056110166301
 30
0.0
 10
-76.33968998861207
 20
368.1137146241827
 30
0.0
 10
-75.53743463640794
 20
373.0005272003646
 30
0.0
 10
-75.53709358349217
 20
377.9554051021603
 30
0.0
  0
LINE
  5
109
330
1F
100
AcDbEntity
  8
0
  6
Continuous
 62
     7
370
    15
100
AcDbLine
 10
-171.5370943092
 20
422.121488603
 30
0.0
 11
-171.5370943092
 21
414.852642568
 31
0.0
  0
LINE
  5
10A
330
1F
100
AcDbEntity
  8
0
  6
Continuous
 62
     7
370
    15
100
AcDbLine
 10
-171.5370943092
 20
263.0902371576
 30
0.0
 11
-171.5370943092
 21
414.852642568
 31
0.0
  0
SPLINE
  5
10B
330
1F
100
AcDbEntity
  8
0
  6
Continuous
 62
     7
370
    15
100
AcDbSpline
210
0.0
220
0.0
230
1.0
 70
     8
 71
     3
 72
    10
 73
     6
 74
     0
 42
0.00000001
 43
0.00000001
 12
1.0
 22
0.0
 32
0.0
 13
1.0
 23
0.0
 33
0.0
 40
0.0
 40
0.0
 40
0.0
 40
0.0
 40
0.5
 40
0.5
 40
1.0
 40
1.0
 40
1.0
 40
1.0
 10
-64.77399628946837
 20
242.9663661607353
 30
0.0
 10
-68.31063102451529
 20
242.0180777454581
 30
0.0
 10
-71.92499567888996
 20
241.2987042238005
 30
0.0
 10
-79.21739197555394
 20
240.3414026807541
 30
0.0
 10
-82.89515545702997
 20
240.1035059276397
 30
0.0
 10
-86.55705635720571
 20
240.1059442472533
 30
0.0
  0
ARC
  5
10C
330
1F
100
AcDbEntity
  8
0
  6
Continuous
 62
     7
370
    15
100
AcDbCircle
 10
216.8405766698
 20
733.8009716036
 30
0.0
 40
120.5035279112061
100
AcDbArc
 50
339.0495861584
 51
346.353229833
  0
ARC
  5
10D
330
1F
100
AcDbEntity
  8
0
  6
Continuous
 62
     7
370
    15
100
AcDbCircle
 10
213.1736446668
 20
737.4679036066
 30
0.0
 40
120.5035279112061
100
AcDbArc
 50
103.646770167
 51
110.9504138416
  0
LINE
  5
10E
330
1F
100
AcDbEntity
  8
0
  6
Continuous
 62
     7
370
    15
100
AcDbLine
 10
130.5559794165
 20
839.9676672389
 30
0.0
 11
131.5909097649
 21
842.3776320388
 31
0.0
  0
LINE
  5
10F
330
1F
100
AcDbEntity
  8
0
  6
Continuous
 62
     7
370
    15
100
AcDbLine
 10
131.5909097649
 20
842.3776320388
 30
0.0
 11
138.3888791062
 21
849.1756013801
 31
0.0
  0
LINE
  5
110
330
1F
100
AcDbEntity
  8
0
  6
Continuous
 62
     7
370
    15
100
AcDbLine
 10
138.3888791062
 20
849.1756013801
 30
0.0
 11
139.0548716046
 21
848.5096088817
 31
0.0
  0
LINE
  5
111
330
1F
100
AcDbEntity
  8
0
  6
Continuous
 62
     7
370
    15
100
AcDbLine
 10
332.7104369856
 20
641.2580899169
 30
0.0
 11
335.5388859965
 21
638.4296558072
 31
0.0
  0
LINE
  5
112
330
1F
100
AcDbEntity
  8
0
  6
Continuous
 62
     7
370
    15
100
AcDbLine
 10
335.5388859965
 20
638.4296558072
 30
0.0
 11
334.1778735377
 21
637.0686582496
 31
0.0
  0
ELLIPSE
  5
113
330
1F
100
AcDbEntity
  8
0
  6
Continuous
 62
     7
370
    15
100
AcDbEllipse
 10
342.3095993158
 20
628.9369262526
 30
0.0
 11
8.131727983645419
 21
-8.131727983645305
 31
0.0
210
0.0
220
0.0
230
1.0
 40
0.0874886635
 41
3.14159265359003
 42
6.283185307179586
  0
LINE
  5
114
330
1F
100
AcDbEntity
  8
0
  6
Continuous
 62
     7
370
    15
100
AcDbLine
 10
351.802341149
 20
622.1662006547
 30
0.0
 11
350.4413286902
 21
620.8052030971
 31
0.0
  0
LINE
  5
115
330
1F
100
AcDbEntity
  8
0
  6
Continuous
 62
     7
370
    15
100
AcDbLine
 10
354.6307603575
 20
619.3377814462
 30
0.0
 11
351.802341149
 21
622.1662006547
 31
0.0
  0
ELLIPSE
  5
116
330
1F
100
AcDbEntity
  8
0
  6
Continuous
 62
     7
370
    15
100
AcDbEllipse
 10
215.1375361575
 20
735.7648630943
 30
0.0
 11
146.5743734789354
 21
-146.5743734789328
 31
0.0
210
0.0
220
0.0
230
1.0
 40
0.0874897569
 41
0.5094662245009296
 42
0.7620036609020832
  0
SPLINE
  5
117
330
1F
100
AcDbEntity
  8
0
  6
Continuous
 62
     7
370
    15
100
AcDbSpline
210
0.0
220
0.0
230
1.0
 70
     8
 71
     3
 72
    16
 73
    12
 74
     0
 42
0.00000001
 43
0.00000001
 12
1.0
 22
0.0
 32
0.0
 13
1.0
 23
0.0
 33
0.0
 40
0.0
 40
0.0
 40
0.0
 40
0.0
 40
0.2500000000000018
 40
0.2500000000000018
 40
0.5000000000000036
 40
0.5000000000000036
 40
0.6250000000000027
 40
0.6250000000000027
 40
0.7500000000000018
 40
0.7500000000000018
 40
1.0
 40
1.0
 40
1.0
 40
1.0
 10
361.2136365813361
 20
598.1847064038717
 30
0.0
 10
360.8345379773755
 20
598.5854860726613
 30
0.0
 10
360.4652664835586
 20
598.9828353799625
 30
0.0
 10
359.7701031799213
 20
599.7433906914296
 30
0.0
 10
359.4407193073576
 20
600.1102552918502
 30
0.0
 10
358.9713472107854
 20
600.6423438026268
 30
0.0
 10
358.8187487266669
 20
600.8169906471953
 30
0.0
 10
358.5251360621826
 20
601.1562695655041
 30
0.0
 10
358.3836847439497
 20
601.3213906454619
 30
0.0
 10
357.9745649855387
 20
601.8038997872026
 30
0.0
 10
357.722039600526
 20
602.1085106526392
 30
0.0
 10
357.488811921488
 20
602.39683876829
 30
0.0
  0
LINE
  5
118
330
1F
100
AcDbEntity
  8
0
  6
Continuous
 62
     7
370
    15
100
AcDbLine
 10
365.5909220435
 20
608.3776197603
 30
0.0
 11
364.5302573897
 21
609.438284414
 31
0.0
  0
LINE
  5
119
330
1F
100
AcDbEntity
  8
0
  6
Continuous
 62
     7
370
    15
100
AcDbLine
 10
361.2136463381
 20
598.184703963
 30
0.0
 11
365.5909220435
 21
608.3776197603
 31
0.0
  0
LINE
  5
11A
330
1F
100
AcDbEntity
  8
0
  6
Continuous
 62
     7
370
    15
100
AcDbLine
 10
131.5909097649
 20
842.3776320388
 30
0.0
 11
130.5302600123
 21
843.4382668903
 31
0.0
  0
LINE
  5
11B
330
1F
100
AcDbEntity
  8
0
  6
Continuous
 62
     7
370
    15
100
AcDbLine
 10
130.5302600123
 20
843.4382668903
 30
0.0
 11
120.6307629801
 21
853.3377639224
 31
0.0
  0
LINE
  5
11C
330
1F
100
AcDbEntity
  8
0
  6
Continuous
 62
     7
370
    15
100
AcDbLine
 10
120.6307629801
 20
853.3377639224
 30
0.0
 11
117.8023288704
 21
856.1662129333
 31
0.0
  0
LINE
  5
11D
330
1F
100
AcDbEntity
  8
0
  6
Continuous
 62
     7
370
    15
100
AcDbLine
 10
124.6002982117
 20
862.9641822746
 30
0.0
 11
138.3888791062
 21
849.1756013801
 31
0.0
  0
LINE
  5
11E
330
1F
100
AcDbEntity
  8
0
  6
Continuous
 62
     7
370
    15
100
AcDbLine
 10
117.8023288704
 20
856.1662129333
 30
0.0
 11
124.6002982117
 21
862.9641822746
 31
0.0
  0
LINE
  5
11F
330
1F
100
AcDbEntity
  8
0
  6
Continuous
 62
     7
370
    15
100
AcDbLine
 10
364.5302573897
 20
609.438284414
 30
0.0
 11
354.6307603575
 21
619.3377814462
 31
0.0
  0
LINE
  5
120
330
1F
100
AcDbEntity
  8
0
  6
Continuous
 62
     7
370
    15
100
AcDbLine
 10
351.802341149
 20
622.1662006547
 30
0.0
 11
358.6003104903
 21
628.964169996
 31
0.0
  0
LINE
  5
121
330
1F
100
AcDbEntity
  8
0
  6
Continuous
 62
     7
370
    15
100
AcDbLine
 10
358.6003104903
 20
628.964169996
 30
0.0
 11
372.3888913848
 21
615.1755891015
 31
0.0
  0
LINE
  5
122
330
1F
100
AcDbEntity
  8
0
  6
Continuous
 62
     7
370
    15
100
AcDbLine
 10
365.5909220435
 20
608.3776197603
 30
0.0
 11
372.3888913848
 21
615.1755891015
 31
0.0
  0
LINE
  5
123
330
1F
100
AcDbEntity
  8
0
  6
Continuous
 62
     7
370
    15
100
AcDbLine
 10
87.7502928235
 20
886.2182489803
 30
0.0
 11
94.5482621647
 21
893.0162183216
 31
0.0
  0
LINE
  5
124
330
1F
100
AcDbEntity
  8
0
  6
Continuous
 62
     7
370
    15
100
AcDbLine
 10
108.3368430592
 20
879.2276374271
 30
0.0
 11
94.5482621647
 21
893.0162183216
 31
0.0
  0
LINE
  5
125
330
1F
100
AcDbEntity
  8
0
  6
Continuous
 62
     7
370
    15
100
AcDbLine
 10
98.7104545094
 20
875.2580872943
 30
0.0
 11
101.5388737179
 21
872.4296680858
 31
0.0
  0
LINE
  5
126
330
1F
100
AcDbEntity
  8
0
  6
Continuous
 62
     7
370
    15
100
AcDbLine
 10
88.8109574772
 20
885.1575843265
 30
0.0
 11
98.7104545094
 21
875.2580872943
 31
0.0
  0
LINE
  5
127
330
1F
100
AcDbEntity
  8
0
  6
Continuous
 62
     7
370
    15
100
AcDbLine
 10
87.7502928235
 20
886.2182489803
 30
0.0
 11
88.8109574772
 21
885.1575843265
 31
0.0
  0
LINE
  5
128
330
1F
100
AcDbEntity
  8
0
  6
Continuous
 62
     7
370
    15
100
AcDbLine
 10
101.5388737179
 20
872.4296680858
 30
0.0
 11
108.3368430592
 21
879.2276374271
 31
0.0
  0
LINE
  5
129
330
1F
100
AcDbEntity
  8
0
  6
Continuous
 62
     7
370
    15
100
AcDbLine
 10
354.6307603575
 20
619.3377814462
 30
0.0
 11
294.2535797812
 21
558.9606008699
 31
0.0
  0
LINE
  5
12A
330
1F
100
AcDbEntity
  8
0
  6
Continuous
 62
     7
370
    15
100
AcDbLine
 10
304.1530768134
 20
549.0611038377
 30
0.0
 11
294.2535797812
 21
558.9606008699
 31
0.0
  0
LINE
  5
12B
330
1F
100
AcDbEntity
  8
0
  6
Continuous
 62
     7
370
    15
100
AcDbLine
 10
304.1530768134
 20
549.0611038377
 30
0.0
 11
364.5302573897
 21
609.438284414
 31
0.0
  0
LINE
  5
12C
330
1F
100
AcDbEntity
  8
0
  6
Continuous
 62
     7
370
    15
100
AcDbLine
 10
94.5482621647
 20
893.0162183216
 30
0.0
 11
91.3088391282
 21
896.2556115558
 31
0.0
  0
LINE
  5
12D
330
1F
100
AcDbEntity
  8
0
  6
Continuous
 62
     7
370
    15
100
AcDbLine
 10
75.9172211148
 20
881.1366251876
 30
0.0
 11
87.7502928235
 21
886.2182489803
 31
0.0
  0
LINE
  5
12E
330
1F
100
AcDbEntity
  8
0
  6
Continuous
 62
     7
370
    15
100
AcDbLine
 10
372.3888913848
 20
615.1755891015
 30
0.0
 11
375.6034592845
 21
611.9610212018
 31
0.0
  0
SPLINE
  5
12F
330
1F
100
AcDbEntity
  8
0
  6
Continuous
 62
     7
370
    15
100
AcDbSpline
210
0.0
220
0.0
230
1.0
 70
     8
 71
     3
 72
    20
 73
    16
 74
     0
 42
0.00000001
 43
0.00000001
 12
1.0
 22
0.0
 32
0.0
 13
1.0
 23
0.0
 33
0.0
 40
0.0
 40
0.0
 40
0.0
 40
0.0
 40
0.2500000000000032
 40
0.2500000000000032
 40
0.5000000000000063
 40
0.5000000000000063
 40
0.6250000000000058
 40
0.6250000000000058
 40
0.7500000000000052
 40
0.7500000000000052
 40
0.8750000000000048
 40
0.8750000000000048
 40
0.9375000000000023
 40
0.9375000000000023
 40
1.0
 40
1.0
 40
1.0
 40
1.0
 10
361.2136365813361
 20
598.1847064038717
 30
0.0
 10
362.3536840500019
 20
599.2666849822732
 30
0.0
 10
363.5017695363895
 20
600.3575078027189
 30
0.0
 10
365.8179989153083
 20
602.5612237357011
 30
0.0
 10
366.9860398398072
 20
603.6739763023562
 30
0.0
 10
368.762086143389
 20
605.3695793844412
 30
0.0
 10
369.3574408119353
 20
605.938576438287
 30
0.0
 10
370.5578131287393
 20
607.0875553786367
 30
0.0
 10
371.1627529327303
 20
607.6674487721217
 30
0.0
 10
372.3879258388554
 20
608.8446209128748
 30
0.0
 10
373.0078802220519
 20
609.441582813686
 30
0.0
 10
373.9588766473356
 20
610.3609720939015
 30
0.0
 10
374.2794457129599
 20
610.6714938399188
 30
0.0
 10
374.9314843109109
 20
611.3049289343564
 30
0.0
 10
375.2628037688519
 20
611.6276716788781
 30
0.0
 10
375.6034498532514
 20
611.9610168911651
 30
0.0
  0
LINE
  5
130
330
1F
100
AcDbEntity
  8
0
  6
Continuous
 62
     7
370
    15
100
AcDbLine
 10
63.8783494689
 20
789.3358162811
 30
0.0
 11
60.2535824038
 21
792.9605833461
 31
0.0
  0
LINE
  5
131
330
1F
100
AcDbEntity
  8
0
  6
Continuous
 62
     7
370
    15
100
AcDbLine
 10
82.0438335396
 20
794.9518553188
 30
0.0
 11
130.5302600123
 21
843.4382668903
 31
0.0
  0
LINE
  5
132
330
1F
100
AcDbEntity
  8
0
  6
Continuous
 62
     7
370
    15
100
AcDbLine
 10
120.6307629801
 20
853.3377639224
 30
0.0
 11
60.2535824038
 21
792.9605833461
 31
0.0
  0
LINE
  5
133
330
1F
100
AcDbEntity
  8
0
  6
Continuous
 62
     7
370
    15
100
AcDbLine
 10
319.3403403021
 20
651.1833063533
 30
0.0
 11
321.750305102
 21
652.2182367017
 31
0.0
  0
LINE
  5
134
330
1F
100
AcDbEntity
  8
0
  6
Continuous
 62
     7
370
    15
100
AcDbLine
 10
321.750305102
 20
652.2182367017
 30
0.0
 11
322.8109399535
 21
651.1575869491
 31
0.0
  0
LINE
  5
135
330
1F
100
AcDbEntity
  8
0
  6
Continuous
 62
     7
370
    15
100
AcDbLine
 10
28.4337769009
 20
824.7804037502
 30
0.0
 11
88.8109574772
 21
885.1575843265
 31
0.0
  0
LINE
  5
136
330
1F
100
AcDbEntity
  8
0
  6
Continuous
 62
     7
370
    15
100
AcDbLine
 10
98.7104545094
 20
875.2580872943
 30
0.0
 11
38.3332739331
 21
814.880906718
 31
0.0
  0
LINE
  5
137
330
1F
100
AcDbEntity
  8
0
  6
Continuous
 62
     7
370
    15
100
AcDbLine
 10
28.4337769009
 20
824.7804037502
 30
0.0
 11
38.3332739331
 21
814.880906718
 31
0.0
  0
LINE
  5
138
330
1F
100
AcDbEntity
  8
0
  6
Continuous
 62
     7
370
    15
100
AcDbLine
 10
321.750305102
 20
652.2182367017
 30
0.0
 11
328.5482744433
 21
659.016206043
 31
0.0
  0
LINE
  5
139
330
1F
100
AcDbEntity
  8
0
  6
Continuous
 62
     7
370
    15
100
AcDbLine
 10
322.8109399535
 20
651.1575869491
 30
0.0
 11
332.7104369856
 21
641.2580899169
 31
0.0
  0
LINE
  5
13A
330
1F
100
AcDbEntity
  8
0
  6
Continuous
 62
     7
370
    15
100
AcDbLine
 10
342.3368553378
 20
645.2276251485
 30
0.0
 11
328.5482744433
 21
659.016206043
 31
0.0
  0
LINE
  5
13B
330
1F
100
AcDbEntity
  8
0
  6
Continuous
 62
     7
370
    15
100
AcDbLine
 10
335.5388859965
 20
638.4296558072
 30
0.0
 11
342.3368553378
 21
645.2276251485
 31
0.0
  0
LINE
  5
13C
330
1F
100
AcDbEntity
  8
0
  6
Continuous
 62
     7
370
    15
100
AcDbLine
 10
274.324528382
 20
602.6711604764
 30
0.0
 11
322.8109399535
 21
651.1575869491
 31
0.0
  0
LINE
  5
13D
330
1F
100
AcDbEntity
  8
0
  6
Continuous
 62
     7
370
    15
100
AcDbLine
 10
268.7084893443
 20
584.5056764057
 30
0.0
 11
272.3332564093
 21
580.8809093406
 31
0.0
  0
LINE
  5
13E
330
1F
100
AcDbEntity
  8
0
  6
Continuous
 62
     7
370
    15
100
AcDbLine
 10
332.7104369856
 20
641.2580899169
 30
0.0
 11
272.3332564093
 21
580.8809093406
 31
0.0
  0
ELLIPSE
  5
13F
330
1F
100
AcDbEntity
  8
0
  6
Continuous
 62
     7
370
    15
100
AcDbEllipse
 10
108.3095993158
 20
862.9369262526
 30
0.0
 11
8.131727983645376
 21
-8.131727983645419
 31
0.0
210
0.0
220
0.0
230
1.0
 40
0.0874886635
 41
3.14159265359002
 42
6.283185307179586
  0
ELLIPSE
  5
140
330
1F
100
AcDbEntity
  8
0
  6
Continuous
 62
     7
370
    15
100
AcDbEllipse
 10
215.1375361575
 20
735.7648630943
 30
0.0
 11
146.5743734789348
 21
-146.5743734789344
 31
0.0
210
0.0
220
0.0
230
1.0
 40
0.0874897569
 41
2.379588992687744
 42
2.632126429088912
  0
LINE
  5
141
330
1F
100
AcDbEntity
  8
0
  6
Continuous
 62
     7
370
    15
100
AcDbLine
 10
117.8023288704
 20
856.1662129333
 30
0.0
 11
116.4413313128
 21
854.8052004745
 31
0.0
  0
LINE
  5
142
330
1F
100
AcDbEntity
  8
0
  6
Continuous
 62
     7
370
    15
100
AcDbLine
 10
101.5388737179
 20
872.4296680858
 30
0.0
 11
100.1778761603
 21
871.068655627
 31
0.0
  0
LINE
  5
143
330
1F
100
AcDbEntity
  8
0
  6
Continuous
 62
     7
370
    15
100
AcDbLine
 10
328.5482744433
 20
659.016206043
 30
0.0
 11
327.8822819449
 21
659.6821985414
 31
0.0
  0
LINE
  5
144
330
1F
100
AcDbEntity
  8
0
  6
Continuous
 62
     7
370
    15
100
AcDbLine
 10
119.5609043099
 20
906.1236969402
 30
0.0
 11
151.0849813677
 21
874.5996049812
 31
0.0
  0
LINE
  5
145
330
1F
100
AcDbEntity
  8
0
  6
Continuous
 62
     7
370
    15
100
AcDbLine
 10
134.8533401944
 20
858.367978709
 30
0.0
 11
103.3292631365
 21
889.892070668
 31
0.0
  0
LINE
  5
146
330
1F
100
AcDbEntity
  8
0
  6
Continuous
 62
     7
370
    15
100
AcDbLine
 10
156.8921725012
 20
867.678879874
 30
0.0
 11
141.2173132159
 21
852.0040205886
 31
0.0
  0
ELLIPSE
  5
147
330
1F
100
AcDbEntity
  8
0
  6
Continuous
 62
     7
370
    15
100
AcDbEllipse
 10
150.5282127286
 20
874.0428412932
 30
0.0
 11
6.363961030678921
 21
-6.363961030678979
 31
0.0
210
0.0
220
0.0
230
1.0
 40
0.0874886635
 41
0.0
 42
1.570796326794901
  0
LWPOLYLINE
  5
148
330
1F
100
AcDbEntity
  8
0
  6
Continuous
 62
     7
370
    15
100
AcDbPolyline
 90
       21
 70
   128
 43
0.0
 10
141.2173132159
 20
852.0040205886
 10
141.1976883866
 20
852.0236305168
 10
141.1389629103
 20
852.0823708942
 10
141.0414646126
 20
852.1798542907
 10
140.9058342434
 20
852.3154846599
 10
140.7328764655
 20
852.4884275367
 10
140.5236790635
 20
852.6976398399
 10
140.2795086361
 20
852.9418102672
 10
140.0019000031
 20
853.2194189002
 10
139.6925369956
 20
853.5287670066
 10
139.3533418633
 20
853.86797704
 10
138.9864156701
 20
854.2349032333
 10
138.59399359
 20
854.6273402145
 10
138.1785045125
 20
855.0428143909
 10
137.7425263382
 20
855.4787925651
 10
137.2887263753
 20
855.9325925281
 10
136.8199209429
 20
856.4014128616
 10
136.3389859654
 20
856.8823329379
 10
135.8488867737
 20
857.3724321296
 10
135.3526632048
 20
857.8686705997
 10
134.8533401944
 20
858.367978709
  0
ELLIPSE
  5
149
330
1F
100
AcDbEntity
  8
0
  6
Continuous
 62
     7
370
    15
100
AcDbEllipse
 10
119.0041257536
 20
905.5669282681
 30
0.0
 11
6.363961030678921
 21
-6.363961030678979
 31
0.0
210
0.0
220
0.0
230
1.0
 40
0.0874886635
 41
1.570796326794894
 42
3.074814819061058
  0
LWPOLYLINE
  5
14A
330
1F
100
AcDbEntity
  8
0
  6
Continuous
 62
     7
370
    15
100
AcDbPolyline
 90
       20
 70
   128
 43
0.0
 10
103.3292631365
 20
889.892070668
 10
102.8260211207
 20
890.3953126838
 10
102.325938151
 20
890.8953956535
 10
101.8321285702
 20
891.3891903331
 10
101.347706721
 20
891.8736270835
 10
100.8756826378
 20
892.3456362655
 10
100.4190365531
 20
892.8022674491
 10
99.9806145884
 20
893.2407192161
 10
99.5631585576
 20
893.6581603458
 10
99.169305966
 20
894.0520278385
 10
98.8014857031
 20
894.419818299
 10
98.4620372511
 20
894.7592965534
 10
98.1530616738
 20
895.0682572296
 10
97.8765110232
 20
895.3448227813
 10
97.6340989329
 20
895.5872050693
 10
97.4273602225
 20
895.7939437797
 10
97.257591293
 20
895.9637276103
 10
97.1258501269
 20
896.0954836776
 10
97.0329413868
 20
896.1883775165
 10
96.9794760205
 20
896.2418428829
  0
LINE
  5
14B
330
1F
100
AcDbEntity
  8
0
  6
Continuous
 62
     7
370
    15
100
AcDbLine
 10
331.3766936518
 20
661.8446401527
 30
0.0
 11
347.0515529372
 21
677.519499438
 31
0.0
  0
ELLIPSE
  5
14C
330
1F
100
AcDbEntity
  8
0
  6
Continuous
 62
     7
370
    15
100
AcDbEllipse
 10
353.4155143564
 20
671.1555396654
 30
0.0
 11
6.36396103067898
 21
-6.36396103067898
 31
0.0
210
0.0
220
0.0
230
1.0
 40
0.0874886635
 41
1.570796326794897
 42
3.141592653589792
  0
LWPOLYLINE
  5
14D
330
1F
100
AcDbEntity
  8
0
  6
Continuous
 62
     7
370
    15
100
AcDbPolyline
 90
       21
 70
   128
 43
0.0
 10
337.7406517722
 20
655.4806671312
 10
337.2413436629
 20
655.9799901416
 10
336.7451051928
 20
656.4762137105
 10
336.2550060011
 20
656.9663129022
 10
335.7740859248
 20
657.4472478797
 10
335.3052655913
 20
657.9160533121
 10
334.8514656283
 20
658.3698532751
 10
334.4154874541
 20
658.8058314493
 10
334.0000132777
 20
659.2213205268
 10
333.6075762965
 20
659.6137426069
 10
333.2406501032
 20
659.9806688001
 10
332.9014400698
 20
660.3198639324
 10
332.5920919634
 20
660.6292269399
 10
332.3144833304
 20
660.906835573
 10
332.0703129031
 20
661.1510060003
 10
331.8611005999
 20
661.3602034023
 10
331.6881577231
 20
661.5331611803
 10
331.5525273539
 20
661.6687915494
 10
331.4550439574
 20
661.7662898471
 10
331.39630358
 20
661.8250153234
 10
331.3766936518
 20
661.8446401527
  0
LWPOLYLINE
  5
14E
330
1F
100
AcDbEntity
  8
0
  6
Continuous
 62
     7
370
    15
100
AcDbPolyline
 90
       20
 70
   128
 43
0.0
 10
375.6145159461
 20
617.6068029573
 10
375.5610505797
 20
617.6602683237
 10
375.4681567408
 20
617.7531770637
 10
375.3364006735
 20
617.8849182298
 10
375.1666168429
 20
618.0546871593
 10
374.9598781325
 20
618.2614258697
 10
374.7174958445
 20
618.50383796
 10
374.4409302928
 20
618.7803886106
 10
374.1319696166
 20
619.0893641879
 10
373.7924913622
 20
619.4288126399
 10
373.4247009017
 20
619.7966329029
 10
373.030833409
 20
620.1904854944
 10
372.6133922793
 20
620.6079415252
 10
372.1749405123
 20
621.0463634899
 10
371.7183093287
 20
621.5030095746
 10
371.2463001467
 20
621.9750336578
 10
370.7618633963
 20
622.459455507
 10
370.2680687167
 20
622.9532650878
 10
369.767985747
 20
623.4533480575
 10
369.2647437312
 20
623.9565900733
  0
ELLIPSE
  5
14F
330
1F
100
AcDbEntity
  8
0
  6
Continuous
 62
     7
370
    15
100
AcDbEllipse
 10
384.9396013313
 20
639.6314526905
 30
0.0
 11
6.363961030678921
 21
-6.363961030678979
 31
0.0
210
0.0
220
0.0
230
1.0
 40
0.0874886635
 41
0.066777834528895
 42
1.570796326794888
  0
LINE
  5
150
330
1F
100
AcDbEntity
  8
0
  6
Continuous
 62
     7
370
    15
100
AcDbLine
 10
337.7406517722
 20
655.4806671312
 30
0.0
 11
369.2647437312
 21
623.9565900733
 31
0.0
  0
LINE
  5
151
330
1F
100
AcDbEntity
  8
0
  6
Continuous
 62
     7
370
    15
100
AcDbLine
 10
385.4963700034
 20
640.1882312467
 30
0.0
 11
353.9722780444
 21
671.7123083045
 31
0.0
  0
LINE
  5
152
330
1F
100
AcDbEntity
  8
0
  6
Continuous
 62
     7
370
    15
100
AcDbLine
 10
462.4628941275
 20
628.590240257
 30
0.0
 11
462.4628941275
 21
261.5902266672
 31
0.0
  0
LINE
  5
153
330
1F
100
AcDbEntity
  8
0
  6
Continuous
 62
     7
370
    15
100
AcDbLine
 10
-237.5370939516
 20
628.590240257
 30
0.0
 11
-237.5370939516
 21
261.5902266672
 31
0.0
  0
LINE
  5
154
330
1F
100
AcDbEntity
  8
0
  6
Continuous
 62
     7
370
    15
100
AcDbLine
 10
103.2627890564
 20
916.8286017349
 30
0.0
 11
89.8277531125
 21
903.3935657909
 31
0.0
  0
LINE
  5
155
330
1F
100
AcDbEntity
  8
0
  6
Continuous
 62
     7
370
    15
100
AcDbLine
 10
108.6739520289
 20
911.4174238613
 30
0.0
 11
112.6914988019
 21
911.9538656642
 31
0.0
  0
LINE
  5
156
330
1F
100
AcDbEntity
  8
0
  6
Continuous
 62
     7
370
    15
100
AcDbLine
 10
96.9794760205
 20
896.2418428829
 30
0.0
 11
89.8277531125
 21
903.3935657909
 31
0.0
  0
LINE
  5
157
330
1F
100
AcDbEntity
  8
0
  6
Continuous
 62
     7
370
    15
100
AcDbLine
 10
108.6739520289
 20
911.4174238613
 30
0.0
 11
103.2627890564
 21
916.8286017349
 31
0.0
  0
LINE
  5
158
330
1F
100
AcDbEntity
  8
0
  6
Continuous
 62
     7
370
    15
100
AcDbLine
 10
382.7662388541
 20
610.4550800493
 30
0.0
 11
396.2012747981
 21
623.8901159933
 31
0.0
  0
LINE
  5
159
330
1F
100
AcDbEntity
  8
0
  6
Continuous
 62
     7
370
    15
100
AcDbLine
 10
375.6145159461
 20
617.6068029573
 30
0.0
 11
382.7662388541
 21
610.4550800493
 31
0.0
  0
LINE
  5
15A
330
1F
100
AcDbEntity
  8
0
  6
Continuous
 62
     7
370
    15
100
AcDbLine
 10
390.7900969245
 20
629.3012789657
 30
0.0
 11
391.3265387274
 21
633.3188257387
 31
0.0
  0
LINE
  5
15B
330
1F
100
AcDbEntity
  8
0
  6
Continuous
 62
     7
370
    15
100
AcDbLine
 10
390.7900969245
 20
629.3012789657
 30
0.0
 11
396.2012747981
 21
623.8901159933
 31
0.0
  0
LWPOLYLINE
  5
15C
330
1F
100
AcDbEntity
  8
0
  6
Continuous
 62
     7
370
    15
100
AcDbPolyline
 90
       29
 70
   128
 43
0.0
 10
151.2438426472
 20
841.9774762561
 10
150.8271763779
 20
842.3941425254
 10
150.39076607
 20
842.8305677345
 10
149.9372641303
 20
843.2840696742
 10
149.4694421746
 20
843.7518767288
 10
148.9901314236
 20
844.2311874797
 10
148.5022674061
 20
844.7190514972
 10
148.0087856509
 20
845.2125183513
 10
147.5127110936
 20
845.7086078098
 10
147.0170537688
 20
846.2042502334
 10
146.5248386122
 20
846.6964951923
 10
146.039030955
 20
847.1822730472
 10
145.5626110293
 20
847.6587227752
 10
145.0984696604
 20
848.1228641441
 10
144.6494231679
 20
848.5718957355
 10
144.2181984641
 20
849.0031353404
 10
143.8074330546
 20
849.4139007499
 10
143.4196154334
 20
849.8017183711
 10
143.0570999838
 20
850.1642338207
 10
142.7220920779
 20
850.4992119243
 10
142.4166480757
 20
850.8046857288
 10
142.1426008202
 20
851.0787180831
 10
141.9016341425
 20
851.319699662
 10
141.6951934554
 20
851.5261105468
 10
141.5245602585
 20
851.6967586448
 10
141.390747831
 20
851.8305710723
 10
141.2945906378
 20
851.9267431667
 10
141.2366549231
 20
851.9846490791
 10
141.2173132159
 20
852.0040205886
  0
LWPOLYLINE
  5
15D
330
1F
100
AcDbEntity
  8
0
  6
Continuous
 62
     7
370
    15
100
AcDbPolyline
 90
       29
 70
   128
 43
0.0
 10
154.6523342587
 20
865.4390565326
 10
154.6716908671
 20
865.4196850231
 10
154.7296116807
 20
865.3617493083
 10
154.825783775
 20
865.2656070163
 10
154.9595813014
 20
865.1317945888
 10
155.1302293994
 20
864.9611464908
 10
155.3366551854
 20
864.7547058036
 10
155.5776367642
 20
864.5137540271
 10
155.8516691186
 20
864.2396918704
 10
156.1571280219
 20
863.9342478683
 10
156.4921210267
 20
863.5992399623
 10
156.8546364762
 20
863.2367543151
 10
157.2424540974
 20
862.8489068916
 10
157.6532195069
 20
862.4381414821
 10
158.0844442107
 20
862.0069316795
 10
158.5334907033
 20
861.5578702857
 10
158.9976469733
 20
861.0937289169
 10
159.474066899
 20
860.6173089912
 10
159.9598596551
 20
860.1315013339
 10
160.4520897128
 20
859.6392861774
 10
160.9477470376
 20
859.1436437538
 10
161.4438215949
 20
858.6475542953
 10
161.937288449
 20
858.1540874412
 10
162.4251673676
 20
857.6662234237
 10
162.9044632174
 20
857.1869126728
 10
163.3723000742
 20
856.7190758159
 10
163.8257871129
 20
856.2656036785
 10
164.2621974207
 20
855.8291784694
 10
164.6788785912
 20
855.4125122001
  0
LWPOLYLINE
  5
15E
330
1F
100
AcDbEntity
  8
0
  6
Continuous
 62
     7
370
    15
100
AcDbPolyline
 90
       29
 70
   128
 43
0.0
 10
331.3766936518
 20
661.8446401527
 10
331.3573221423
 20
661.8639818599
 10
331.2994162299
 20
661.9219175746
 10
331.2032441355
 20
662.0180747678
 10
331.069431708
 20
662.1518871953
 10
330.89878361
 20
662.3225203922
 10
330.6923727252
 20
662.5289610794
 10
330.4513911463
 20
662.769927757
 10
330.177358792
 20
663.0439750125
 10
329.8718849875
 20
663.3494190147
 10
329.5369068839
 20
663.6844269206
 10
329.1743914343
 20
664.0469423702
 10
328.7865738131
 20
664.4347599914
 10
328.3758084036
 20
664.8455254009
 10
327.9445687987
 20
665.2767501047
 10
327.4955372073
 20
665.7257965972
 10
327.0313958384
 20
666.1899379661
 10
326.5549461104
 20
666.6663578918
 10
326.0691682555
 20
667.152165549
 10
325.5769232966
 20
667.6443807056
 10
325.081280873
 20
668.1400380304
 10
324.5851914145
 20
668.6361125877
 10
324.0917245604
 20
669.1295943429
 10
323.6038605429
 20
669.6174583604
 10
323.124549792
 20
670.0967691114
 10
322.6567427374
 20
670.5645910671
 10
322.2032407977
 20
671.0180930068
 10
321.7668155886
 20
671.4545033147
 10
321.3501493193
 20
671.871169584
  0
LWPOLYLINE
  5
15F
330
1F
100
AcDbEntity
  8
0
  6
Continuous
 62
     7
370
    15
100
AcDbPolyline
 90
       29
 70
   128
 43
0.0
 10
334.7851852633
 20
685.306205528
 10
335.2018515326
 20
684.8895243575
 10
335.6382767417
 20
684.4531140497
 10
336.0917488791
 20
683.9996270111
 10
336.5595857359
 20
683.5317901542
 10
337.0388964869
 20
683.0524943044
 10
337.5267605044
 20
682.5646153858
 10
338.0202273585
 20
682.0711485317
 10
338.516316817
 20
681.5750739744
 10
339.0119592406
 20
681.0794166496
 10
339.5041743971
 20
680.5871865919
 10
339.9899820544
 20
680.1013938358
 10
340.4664019801
 20
679.6249739101
 10
340.9305433489
 20
679.1608176401
 10
341.3796047427
 20
678.7117711475
 10
341.8108145453
 20
678.2805464437
 10
342.2215799548
 20
677.8697810342
 10
342.6094273783
 20
677.481963413
 10
342.9719130255
 20
677.1194479635
 10
343.3069209315
 20
676.7844549587
 10
343.6123649336
 20
676.4789960554
 10
343.8864270903
 20
676.204963701
 10
344.1273788668
 20
675.9639821222
 10
344.333819554
 20
675.7575563362
 10
344.504467652
 20
675.5869082382
 10
344.6382800795
 20
675.4531107118
 10
344.7344223715
 20
675.3569386175
 10
344.7923580863
 20
675.2990178039
 10
344.8117295958
 20
675.2796611955
  0
SPLINE
  5
160
330
1F
100
AcDbEntity
  8
0
  6
Continuous
 62
     7
370
    15
100
AcDbSpline
210
0.0
220
0.0
230
1.0
 70
     8
 71
     3
 72
    28
 73
    24
 74
     0
 42
0.00000001
 43
0.00000001
 12
1.0
 22
0.0
 32
0.0
 13
1.0
 23
0.0
 33
0.0
 40
0.0
 40
0.0
 40
0.0
 40
0.0
 40
0.0564131171013441
 40
0.1108809861546953
 40
0.1634207261406751
 40
0.2140511989098357
 40
0.2627933234478456
 40
0.3096704435536166
 40
0.3547087585621604
 40
0.3979378281938002
 40
0.4619988101258266
 40
0.5218218905695874
 40
0.5775931372441288
 40
0.6295446829492302
 40
0.6779669040559619
 40
0.7232222187491817
 40
0.7657588792405043
 40
0.806121318706778
 40
0.8449516077666418
 40
0.8829759888735053
 40
0.9209736096411918
 40
0.9597318707751988
 40
1.0
 40
1.0
 40
1.0
 40
1.0
 10
50.97655832313819
 20
309.340536884994
 30
0.0
 10
50.90014503566078
 20
309.4213216225689
 30
0.0
 10
50.74995335850902
 20
309.5801054627252
 30
0.0
 10
50.51954675751688
 20
309.8071062733263
 30
0.0
 10
50.29048879588787
 20
310.0203585128021
 30
0.0
 10
50.06232136045838
 20
310.2193175107917
 30
0.0
 10
49.83533571866039
 20
310.4040012124556
 30
0.0
 10
49.60963153636319
 20
310.5742933631045
 30
0.0
 10
49.38535784419555
 20
310.7301281569264
 30
0.0
 10
49.12382729910757
 20
310.8960378287715
 30
0.0
 10
48.8242785732068
 20
311.0631613981416
 30
0.0
 10
48.48449105848041
 20
311.2196296301166
 30
0.0
 10
48.1500809436119
 20
311.3400710863623
 30
0.0
 10
47.8214643369493
 20
311.4243709862209
 30
0.0
 10
47.49901217681185
 20
311.4724183237346
 30
0.0
 10
47.18306893548667
 20
311.4840934014709
 30
0.0
 10
46.87398139272522
 20
311.4592501402083
 30
0.0
 10
46.57213237511844
 20
311.3977443090284
 30
0.0
 10
46.27806746436195
 20
311.2994354084229
 30
0.0
 10
45.99230387716894
 20
311.1644894608332
 30
0.0
 10
45.71608634420532
 20
310.9927407067063
 30
0.0
 10
45.44819450738202
 20
310.7864174049235
 30
0.0
 10
45.28454844044674
 20
310.6257521770976
 30
0.0
 10
45.20116210658333
 20
310.5438847385539
 30
0.0
  0
LWPOLYLINE
  5
161
330
1F
100
AcDbEntity
  8
0
  6
Continuous
 62
     7
370
    15
100
AcDbPolyline
 90
       47
 70
   128
 43
0.0
 10
124.6002982117
 20
862.9641822746
 10
124.5813439347
 20
862.9831365516
 10
124.5245556094
 20
863.0399099758
 10
124.4302163579
 20
863.1342641284
 10
124.2987583138
 20
863.2657221725
 10
124.1307775237
 20
863.4336880615
 10
123.9270786501
 20
863.637386935
 10
123.6886153676
 20
863.8758651187
 10
123.4164754607
 20
864.1479901245
 10
123.1119404294
 20
864.4525102546
 10
122.7764407851
 20
864.7880248001
 10
122.4115262486
 20
865.1529244354
 10
122.0189104535
 20
865.5455700328
 10
121.6004113413
 20
865.9640542438
 10
121.1579809643
 20
866.406499522
 10
120.6936905839
 20
866.8707899024
 10
120.2097008683
 20
867.354779618
 10
119.7082618929
 20
867.8562036922
 10
119.1917131402
 20
868.3727375438
 10
118.6624834992
 20
868.9019969871
 10
118.1230167605
 20
869.4414488246
 10
117.5758461215
 20
869.9886194637
 10
117.0235047795
 20
870.5409757068
 10
116.4685706355
 20
871.0958949497
 10
115.9136364914
 20
871.6508141925
 10
115.3612951495
 20
872.2031704357
 10
114.8141245104
 20
872.7503410747
 10
114.2746577717
 20
873.2898227146
 10
113.7454132296
 20
873.8190523555
 10
113.228879378
 20
874.3355862071
 10
112.7274404027
 20
874.8370102813
 10
112.2434506871
 20
875.3209999969
 10
111.7791603066
 20
875.7852903774
 10
111.3367299296
 20
876.2277356555
 10
110.9182308175
 20
876.6462198665
 10
110.5256150223
 20
877.038865464
 10
110.1607004859
 20
877.4037650993
 10
109.8251859404
 20
877.7392796447
 10
109.5206658103
 20
878.0437997749
 10
109.2485259034
 20
878.3159247806
 10
109.0100626208
 20
878.5544029643
 10
108.8063637473
 20
878.7581018379
 10
108.6383829571
 20
878.9260677268
 10
108.5069249131
 20
879.0575555732
 10
108.4125856616
 20
879.1518799236
 10
108.3557973363
 20
879.2086533477
 10
108.3368430592
 20
879.2276374271
  0
LWPOLYLINE
  5
162
330
1F
100
AcDbEntity
  8
0
  6
Continuous
 62
     7
370
    15
100
AcDbPolyline
 90
       47
 70
   128
 43
0.0
 10
342.3368553378
 20
645.2276251485
 10
342.3558096148
 20
645.2086708715
 10
342.412583039
 20
645.1518825462
 10
342.5069371916
 20
645.0575432947
 10
342.6383952357
 20
644.9260852506
 10
342.8063611247
 20
644.7581044605
 10
343.0100599982
 20
644.554405587
 10
343.2485381819
 20
644.3159423044
 10
343.5206631877
 20
644.0438023975
 10
343.8251833178
 20
643.7392673662
 10
344.1606978633
 20
643.4037677219
 10
344.5255974986
 20
643.0388531854
 10
344.918243096
 20
642.6462373903
 10
345.336727307
 20
642.2277382781
 10
345.7791725852
 20
641.7853079011
 10
346.2434629656
 20
641.3210175207
 10
346.7274526812
 20
640.8370278051
 10
347.2288767554
 20
640.3355888297
 10
347.745410607
 20
639.819040077
 10
348.2746700503
 20
639.289810436
 10
348.8141218878
 20
638.7503436973
 10
349.3612925269
 20
638.2031730583
 10
349.91364877
 20
637.6508317163
 10
350.4685680129
 20
637.0958975723
 10
351.0234872557
 20
636.5409634283
 10
351.5758434989
 20
635.9886220863
 10
352.1230141379
 20
635.4414514472
 10
352.6624957778
 20
634.9019847085
 10
353.1917254187
 20
634.3727401664
 10
353.7082592703
 20
633.8562063148
 10
354.2096833445
 20
633.3547673395
 10
354.6936730601
 20
632.8707776239
 10
355.1579634406
 20
632.4064872434
 10
355.6004087187
 20
631.9640568664
 10
356.0188929297
 20
631.5455577543
 10
356.4115385272
 20
631.1529419591
 10
356.7764381625
 20
630.7880274227
 10
357.1119527079
 20
630.4525128772
 10
357.4164728381
 20
630.1479927471
 10
357.6885978438
 20
629.8758528402
 10
357.9270760275
 20
629.6373895576
 10
358.1307749011
 20
629.4336906841
 10
358.29874079
 20
629.2657098939
 10
358.4302286364
 20
629.1342518499
 10
358.5245529868
 20
629.0399125984
 10
358.5813264109
 20
628.9831242731
 10
358.6003104903
 20
628.964169996
  0
LWPOLYLINE
  5
163
330
1F
100
AcDbEntity
  8
0
  6
Continuous
 62
     7
370
    15
100
AcDbPolyline
 90
       23
 70
   128
 43
0.0
 10
50.9773562409
 20
309.3412808349
 10
53.2530466773
 20
306.8994871547
 10
55.4343084551
 20
304.5590213706
 10
57.5195322491
 20
302.3215822151
 10
59.5072130419
 20
300.1888237169
 10
61.3958607174
 20
298.162310498
 10
63.18411927
 20
296.2435326745
 10
64.8706475951
 20
294.4338909557
 10
66.4542386986
 20
292.7347115447
 10
67.9337302901
 20
291.1472461393
 10
69.3080047823
 20
289.6726421287
 10
70.5760935999
 20
288.3120021989
 10
71.7370430686
 20
287.0663098266
 10
72.7900187232
 20
285.9364888837
 10
73.7342308022
 20
284.9233589342
 10
74.5689938523
 20
284.027665036
 10
75.2936969258
 20
283.2500628402
 10
75.9078035809
 20
282.5911185911
 10
76.410881684
 20
282.0513240268
 10
76.8025438048
 20
281.6310814788
 10
77.0825068213
 20
281.3306889703
 10
77.2505621172
 20
281.1503551176
 10
77.3065904833
 20
281.0902289321
  0
LINE
  5
164
330
1F
100
AcDbEntity
  8
0
  6
Continuous
 62
     7
370
    15
100
AcDbLine
 10
385.9790782191
 20
757.4068597724
 30
0.0
 11
333.9421371676
 21
705.369918721
 31
0.0
  0
LINE
  5
165
330
1F
100
AcDbEntity
  8
0
  6
Continuous
 62
     7
370
    15
100
AcDbLine
 10
392.3430363394
 20
751.0429016521
 30
0.0
 11
330.6957403876
 21
689.3956206014
 31
0.0
  0
LINE
  5
166
330
1F
100
AcDbEntity
  8
0
  6
Continuous
 62
     7
370
    15
100
AcDbLine
 10
236.7795328356
 20
906.6064051559
 30
0.0
 11
184.7425917841
 21
854.5694641044
 31
0.0
  0
LINE
  5
167
330
1F
100
AcDbEntity
  8
0
  6
Continuous
 62
     7
370
    15
100
AcDbLine
 10
230.4155747153
 20
912.9703632762
 30
0.0
 11
168.7682936646
 21
851.3230673244
 31
0.0
  0
LINE
  5
168
330
1F
100
AcDbEntity
  8
0
  6
Continuous
 62
     7
370
    15
100
AcDbLine
 10
421.5589682318
 20
780.2588335445
 30
0.0
 11
415.1950101115
 21
786.6228214672
 31
0.0
  0
LWPOLYLINE
  5
169
330
1F
100
AcDbEntity
  8
0
  6
Continuous
 62
     7
370
    15
100
AcDbPolyline
 90
       44
 70
   128
 43
0.0
 10
415.1950101115
 20
786.6228214672
 10
415.17638366
 20
786.6041652133
 10
415.1204745032
 20
786.5482858589
 10
415.0274018504
 20
786.4551834037
 10
414.8971955039
 20
786.3250068595
 10
414.7300640799
 20
786.1578456333
 10
414.5261267878
 20
785.9539381435
 10
414.2856220461
 20
785.7134334018
 10
414.0088180758
 20
785.4365996292
 10
413.6959532954
 20
785.1237646511
 10
413.3474449374
 20
784.7752264907
 10
412.9635612227
 20
784.3913725784
 10
412.5447789885
 20
783.9725903442
 10
412.0915154673
 20
783.519326823
 10
411.6042474963
 20
783.0320588519
 10
411.0834817149
 20
782.5112930705
 10
410.5297843672
 20
781.9575957229
 10
409.9437514998
 20
781.3715330532
 10
409.3259493567
 20
780.7537309101
 10
408.6770633914
 20
780.104874747
 10
407.9977790572
 20
779.4255904128
 10
407.2888116099
 20
778.7166229656
 10
406.5509061076
 20
777.9787174632
 10
405.7848374106
 20
777.2126487663
 10
404.9914101817
 20
776.4192215373
 10
404.1714886881
 20
775.5992702415
 10
403.3258775927
 20
774.7536889484
 10
402.4555305697
 20
773.8833121231
 10
401.5613416888
 20
772.9891232421
 10
400.6442348219
 20
772.0720163753
 10
399.7051934458
 20
771.1330048015
 10
398.7452308394
 20
770.1730123928
 10
397.765300677
 20
769.1931120326
 10
396.7665056445
 20
768.1943170001
 10
395.7498590209
 20
767.1776405742
 10
394.7164336897
 20
766.1442152431
 10
393.6673025347
 20
765.0951138904
 10
392.6036278464
 20
764.0314093997
 10
391.5264825083
 20
762.9542640617
 10
390.4369990088
 20
761.8648103645
 10
389.3363694407
 20
760.7641509941
 10
388.2257262923
 20
759.6535078456
 10
387.1062318541
 20
758.5340134075
 10
385.9790782191
 20
757.4068597724
  0
LWPOLYLINE
  5
16A
330
1F
100
AcDbEntity
  8
0
  6
Continuous
 62
     7
370
    15
100
AcDbPolyline
 90
       44
 70
   128
 43
0.0
 10
421.5589682318
 20
780.2588335445
 10
421.5403417803
 20
780.240207093
 10
421.4844326235
 20
780.1843277385
 10
421.3913599707
 20
780.0912252834
 10
421.2611834265
 20
779.9610487392
 10
421.0940222003
 20
779.7938875129
 10
420.8900849082
 20
779.5899502208
 10
420.6495801665
 20
779.3494752815
 10
420.3727761962
 20
779.0726415088
 10
420.059941218
 20
778.7598065307
 10
419.7114030577
 20
778.4112683704
 10
419.327519343
 20
778.027414458
 10
418.9087371089
 20
777.6086322238
 10
418.4554735877
 20
777.1553389003
 10
417.9682056166
 20
776.6680709293
 10
417.4474398352
 20
776.1473349502
 10
416.8937424876
 20
775.5936376026
 10
416.3077096201
 20
775.0075749328
 10
415.6899074771
 20
774.3897727897
 10
415.0410215117
 20
773.7409166267
 10
414.3617371775
 20
773.0616322925
 10
413.6527697302
 20
772.3526648452
 10
412.9148642279
 20
771.6147593429
 10
412.1487955309
 20
770.8486906459
 10
411.355368302
 20
770.055263417
 10
410.5354468085
 20
769.2353121211
 10
409.6898357131
 20
768.389730828
 10
408.81948869
 20
767.5193540027
 10
407.9252998091
 20
766.6251651218
 10
407.0081929423
 20
765.7080582549
 10
406.0691515662
 20
764.7690466812
 10
405.1091889597
 20
763.8090542724
 10
404.1292885996
 20
762.8291539123
 10
403.1304637648
 20
761.8303290775
 10
402.1138171412
 20
760.8136824539
 10
401.0803918101
 20
759.7802571227
 10
400.0312606551
 20
758.7311557701
 10
398.9675859667
 20
757.6674512794
 10
397.8904406287
 20
756.5903059413
 10
396.8009571292
 20
755.5008522441
 10
395.7003275611
 20
754.4001928737
 10
394.5896844126
 20
753.2895497253
 10
393.4701899745
 20
752.1700552871
 10
392.3430363394
 20
751.0429016521
  0
LINE
  5
16B
330
1F
100
AcDbEntity
  8
0
  6
Continuous
 62
     7
370
    15
100
AcDbLine
 10
259.6315066077
 20
942.1862951686
 30
0.0
 11
265.9954945303
 21
935.8223370483
 31
0.0
  0
LWPOLYLINE
  5
16C
330
1F
100
AcDbEntity
  8
0
  6
Continuous
 62
     7
370
    15
100
AcDbPolyline
 90
       44
 70
   128
 43
0.0
 10
265.9954945303
 20
935.8223370483
 10
265.9768382765
 20
935.8037105968
 10
265.9209589221
 20
935.74780144
 10
265.8278564669
 20
935.6547287872
 10
265.6976799227
 20
935.5245224407
 10
265.5305186965
 20
935.3573910167
 10
265.3266112067
 20
935.1534537246
 10
265.086106465
 20
934.9129489829
 10
264.8092726924
 20
934.6361450126
 10
264.4964377142
 20
934.3232802322
 10
264.1478995539
 20
933.9747718742
 10
263.7640456416
 20
933.5908881595
 10
263.3452634074
 20
933.1721059253
 10
262.8919998862
 20
932.7188424041
 10
262.4047319151
 20
932.2315744331
 10
261.8839661337
 20
931.7108086517
 10
261.3302687861
 20
931.157111304
 10
260.7442061163
 20
930.5710784366
 10
260.1264039733
 20
929.9532762935
 10
259.4775478102
 20
929.3043903282
 10
258.798263476
 20
928.625105994
 10
258.0892960288
 20
927.9161385467
 10
257.3513905264
 20
927.1782330444
 10
256.5853218295
 20
926.4121643474
 10
255.7918946005
 20
925.6187371185
 10
254.9719433047
 20
924.7988156249
 10
254.1263620116
 20
923.9532045295
 10
253.2559851862
 20
923.0828575065
 10
252.3617963053
 20
922.1886686256
 10
251.4446894385
 20
921.2715617587
 10
250.5056778647
 20
920.3325203826
 10
249.5456854559
 20
919.3725577762
 10
248.5657850958
 20
918.3926276138
 10
247.5669900633
 20
917.3938325813
 10
246.5503136374
 20
916.3771859577
 10
245.5168883063
 20
915.3437606265
 10
244.4677869536
 20
914.2946294715
 10
243.4040824629
 20
913.2309547832
 10
242.3269371249
 20
912.1538094451
 10
241.2374834277
 20
911.0643259456
 10
240.1368240573
 20
909.9636963775
 10
239.0261809088
 20
908.8530532291
 10
237.9066864707
 20
907.7335587909
 10
236.7795328356
 20
906.6064051559
  0
LWPOLYLINE
  5
16D
330
1F
100
AcDbEntity
  8
0
  6
Continuous
 62
     7
370
    15
100
AcDbPolyline
 90
       44
 70
   128
 43
0.0
 10
259.6315066077
 20
942.1862951686
 10
259.6128801562
 20
942.1676687171
 10
259.5570008017
 20
942.1117595603
 10
259.4638983466
 20
942.0186869075
 10
259.3337218024
 20
941.8885103633
 10
259.1665605761
 20
941.7213491371
 10
258.962623284
 20
941.517411845
 10
258.7221483447
 20
941.2769071033
 10
258.445314572
 20
941.000103133
 10
258.1324795939
 20
940.6872681549
 10
257.7839414336
 20
940.3387299945
 10
257.4000875212
 20
939.9548462799
 10
256.981305287
 20
939.5360640457
 10
256.5280119635
 20
939.0828005245
 10
256.0407439925
 20
938.5955325534
 10
255.5200080134
 20
938.074766772
 10
254.9663106658
 20
937.5210694244
 10
254.380247996
 20
936.935036557
 10
253.7624458529
 20
936.3172344139
 10
253.1135896899
 20
935.6683484485
 10
252.4343053557
 20
934.9890641143
 10
251.7253379084
 20
934.280096667
 10
250.9874324061
 20
933.5421911647
 10
250.2213637091
 20
932.7761224677
 10
249.4279364802
 20
931.9826952388
 10
248.6079851843
 20
931.1627737453
 10
247.7624038912
 20
930.3171626499
 10
246.8920270659
 20
929.4468156269
 10
245.997838185
 20
928.5526267459
 10
245.0807313181
 20
927.6355198791
 10
244.1417197444
 20
926.696478503
 10
243.1817273356
 20
925.7365158966
 10
242.2018269755
 20
924.7566155364
 10
241.2030021407
 20
923.7577907016
 10
240.1863555171
 20
922.741144078
 10
239.1529301859
 20
921.7077187469
 10
238.1038288333
 20
920.6585875919
 10
237.0401243426
 20
919.5949129035
 10
235.9629790045
 20
918.5177675655
 10
234.8735253073
 20
917.428284066
 10
233.7728659369
 20
916.3276544979
 10
232.6622227885
 20
915.2170113494
 10
231.5427283503
 20
914.0975169113
 10
230.4155747153
 20
912.9703632762
  0
LINE
  5
16E
330
1F
100
AcDbEntity
  8
0
  6
Continuous
 62
     7
370
    15
100
AcDbLine
 10
-171.5370943092
 20
614.0589854886
 30
0.0
 11
-171.5370943092
 21
629.4770977666
 31
0.0
  0
LWPOLYLINE
  5
16F
330
1F
100
AcDbEntity
  8
0
  6
Continuous
 62
     7
370
    15
100
AcDbPolyline
 90
        9
 70
   128
 43
0.0
 10
382.7662388541
 20
610.4550800493
 10
382.8146080233
 20
610.40671088
 10
382.8620831229
 20
610.3592357805
 10
382.9086641528
 20
610.3126547506
 10
382.9543213107
 20
610.2669826915
 10
382.9990843989
 20
610.2222196033
 10
383.0429534174
 20
610.1783654859
 10
383.0859283663
 20
610.1354054382
 10
383.1279794432
 20
610.0933394601
  0
LWPOLYLINE
  5
170
330
1F
100
AcDbEntity
  8
0
  6
Continuous
 62
     7
370
    15
100
AcDbPolyline
 90
        9
 70
   128
 43
0.0
 10
396.2012747981
 20
623.8901159933
 10
396.5093712069
 20
623.5820046832
 10
396.7765788294
 20
623.3148119619
 10
397.0027784564
 20
623.0885974338
 10
397.1879700877
 20
622.9034207036
 10
397.3320345141
 20
622.7593413761
 10
397.4349717356
 20
622.6564041545
 10
397.4967519499
 20
622.5946239402
 10
397.5173453547
 20
622.5740305355
  0
LWPOLYLINE
  5
171
330
1F
100
AcDbEntity
  8
0
  6
Continuous
 62
     7
370
    15
100
AcDbPolyline
 90
        9
 70
   128
 43
0.0
 10
101.9467035986
 20
918.1446722915
 10
101.9672970034
 20
918.1240788867
 10
102.0290772177
 20
918.0622986724
 10
102.1320144393
 20
917.9593614509
 10
102.2760937668
 20
917.8152970245
 10
102.461270497
 20
917.6301053932
 10
102.6874850251
 20
917.4039057662
 10
102.9546777464
 20
917.1366981437
 10
103.2627890564
 20
916.8286017349
  0
LWPOLYLINE
  5
172
330
1F
100
AcDbEntity
  8
0
  6
Continuous
 62
     8
370
     0
100
AcDbPolyline
 90
       21
 70
   128
 43
0.0
 10
48.7581933595
 20
845.1048127582
 10
48.0541954495
 20
845.8088032176
 10
47.3861838438
 20
846.476822274
 10
46.7543150045
 20
847.1086911132
 10
46.1587602951
 20
847.7042607238
 10
45.5996761777
 20
848.2633224895
 10
45.0772116639
 20
848.7858168056
 10
44.5914934136
 20
849.2715052535
 10
44.1426480867
 20
849.720358031
 10
43.730802343
 20
850.1321963241
 10
43.3560530402
 20
850.5069605281
 10
43.0185044862
 20
850.8445016315
 10
42.718231187
 20
851.1447898319
 10
42.4553300001
 20
851.4076761177
 10
42.2298530795
 20
851.6331604888
 10
42.0418674804
 20
851.8211535385
 10
41.891425357
 20
851.9715956619
 10
41.7785565116
 20
852.0844570568
 10
41.7032907464
 20
852.1597079208
 10
41.6656578638
 20
852.197348254
 10
41.6609565474
 20
852.2020570209
  0
LWPOLYLINE
  5
173
330
1F
100
AcDbEntity
  8
0
  6
Continuous
 62
     8
370
     0
100
AcDbPolyline
 90
       17
 70
   128
 43
0.0
 10
58.6576829411
 20
835.205315726
 10
59.7861925818
 20
834.0768209865
 10
60.9484682538
 20
832.9145602157
 10
62.1442119338
 20
831.7188016345
 10
63.3731106974
 20
830.4899028709
 10
64.6348367192
 20
829.228161948
 10
65.9290472724
 20
827.9339662959
 10
67.2553996302
 20
826.6076139381
 10
68.6135510661
 20
825.2494625022
 10
70.0031141497
 20
823.8598994186
 10
71.4237461545
 20
822.4392525127
 10
72.8750596501
 20
820.987939017
 10
74.3566672064
 20
819.5063463619
 10
75.8681664921
 20
817.994832175
 10
77.409170077
 20
816.4538434913
 10
78.9792458273
 20
814.883767741
 10
80.5779914118
 20
813.2850221565
  0
LWPOLYLINE
  5
174
330
1F
100
AcDbEntity
  8
0
  6
Continuous
 62
     8
370
     0
100
AcDbPolyline
 90
       91
 70
   128
 43
0.0
 10
90.477488444
 20
803.3855251243
 10
92.2380755402
 20
801.6249529293
 10
94.0231601454
 20
799.8398534229
 10
95.8322803237
 20
798.0307332446
 10
97.6649741389
 20
796.1980394294
 10
99.5207796551
 20
794.3422488143
 10
101.3991902329
 20
792.4638084342
 10
103.299729035
 20
790.5632845333
 10
105.2219043232
 20
788.6410943439
 10
107.165209458
 20
786.6978041103
 10
109.129152701
 20
784.7338608673
 10
111.1132125117
 20
782.7498010566
 10
113.1168822505
 20
780.7461313178
 10
115.1396254756
 20
778.7233880927
 10
117.1809355475
 20
776.6820780208
 10
119.2402760245
 20
774.6227375438
 10
121.3171104647
 20
772.5459031036
 10
123.4109024264
 20
770.4521111419
 10
125.5211005665
 20
768.3418981006
 10
127.6471684434
 20
766.2158302238
 10
129.7885547139
 20
764.0744737556
 10
131.944693134
 20
761.9183353355
 10
134.1150174595
 20
759.7479812076
 10
136.2989763476
 20
757.5640372207
 10
138.4960184552
 20
755.3670100143
 10
140.7055328347
 20
753.1574658325
 10
142.9269830443
 20
750.936030524
 10
145.1597730376
 20
748.7032405307
 10
147.4033365704
 20
746.4596918991
 10
149.6570626952
 20
744.2059508731
 10
151.9204000689
 20
741.9426134994
 10
154.1927526452
 20
739.6702758243
 10
156.4735094763
 20
737.389504092
 10
158.7621043183
 20
735.1008943489
 10
161.0579262234
 20
732.8050724437
 10
163.3603940465
 20
730.502634423
 10
165.6688819386
 20
728.1941167285
 10
167.9828236558
 20
725.8801750114
 10
170.3016082503
 20
723.561405318
 10
172.6246247746
 20
721.2384036949
 10
174.9512771823
 20
718.9117363861
 10
177.2809545256
 20
716.5820590427
 10
179.6130458571
 20
714.2499677112
 10
181.9469551302
 20
711.9160584381
 10
184.2821161009
 20
709.5808974674
 10
186.6178433157
 20
707.2451702526
 10
188.9535705306
 20
704.9094430377
 10
191.2887315013
 20
702.5742820671
 10
193.6226407744
 20
700.2403727939
 10
195.9547321059
 20
697.9082814624
 10
198.2844094492
 20
695.5786041191
 10
200.6110767581
 20
693.2519517114
 10
202.9340783812
 20
690.9289351871
 10
205.2528480746
 20
688.6101505926
 10
207.5667897917
 20
686.2962088754
 10
209.8753074862
 20
683.9877209833
 10
212.1777455069
 20
681.6852531602
 10
214.473567412
 20
679.3894312551
 10
216.7621771552
 20
677.1008364131
 10
219.0429488875
 20
674.820079582
 10
221.3152865626
 20
672.5477270057
 10
223.5786239363
 20
670.284389632
 10
225.8323649622
 20
668.0306635072
 10
228.0759135939
 20
665.7870999744
 10
230.3087035872
 20
663.5543099811
 10
232.5301388957
 20
661.3328597715
 10
234.7396830775
 20
659.123345392
 10
236.9367102839
 20
656.9263032844
 10
239.1206542708
 20
654.7423443963
 10
241.2910083987
 20
652.5720200708
 10
243.4471468188
 20
650.4158816507
 10
245.588503287
 20
648.2744953802
 10
247.7145711638
 20
646.1484275033
 10
249.8247842051
 20
644.0382293632
 10
251.9185761668
 20
641.9444374015
 10
253.995410607
 20
639.8676029613
 10
256.054751084
 20
637.8082624843
 10
258.0960611559
 20
635.7669524124
 10
260.118804381
 20
633.7442091873
 10
262.1224741198
 20
631.7405394485
 10
264.1065339305
 20
629.7564796379
 10
266.0704771735
 20
627.7925363948
 10
268.0137674071
 20
625.8492312601
 10
269.9359575965
 20
623.9270559719
 10
271.8364814974
 20
622.0265171697
 10
273.7149218775
 20
620.1481065919
 10
275.5707124926
 20
618.2923010757
 10
277.4034063078
 20
616.4596072605
 10
279.2125264861
 20
614.6504870822
 10
280.9976259924
 20
612.865402477
 10
282.7581981875
 20
611.1048153808
  0
LWPOLYLINE
  5
175
330
1F
100
AcDbEntity
  8
0
  6
Continuous
 62
     8
370
     0
100
AcDbPolyline
 90
       13
 70
   128
 43
0.0
 10
292.6576952197
 20
601.2053183486
 10
294.3328837611
 20
599.5301298072
 10
295.9765712477
 20
597.8864423206
 10
297.5882510401
 20
596.2747774293
 10
299.1674164988
 20
594.6955821683
 10
300.7136801936
 20
593.1493333747
 10
302.2265652873
 20
591.6364631822
 10
303.7055949427
 20
590.1574335267
 10
305.1503519274
 20
588.712676542
 10
306.5604190089
 20
587.3025945594
 10
307.9353789546
 20
585.9276197126
 10
309.2748443343
 20
584.5881543329
 10
310.5784277178
 20
583.2845858505
  0
SPLINE
  5
176
330
1F
100
AcDbEntity
  8
0
  6
Continuous
 62
     8
370
     0
100
AcDbSpline
210
0.0
220
0.0
230
1.0
 70
     8
 71
     3
 72
    68
 73
    64
 74
     0
 42
0.00000001
 43
0.00000001
 12
1.0
 22
0.0
 32
0.0
 13
1.0
 23
0.0
 33
0.0
 40
0.0
 40
0.0
 40
0.0
 40
0.0
 40
0.0156250000000002
 40
0.0156250000000002
 40
0.0312500000000004
 40
0.0312500000000004
 40
0.0625000000000007
 40
0.0625000000000007
 40
0.093750000000001
 40
0.093750000000001
 40
0.1250000000000013
 40
0.1250000000000013
 40
0.1406250000000014
 40
0.1406250000000014
 40
0.1562500000000016
 40
0.1562500000000016
 40
0.1718750000000016
 40
0.1718750000000016
 40
0.1875000000000017
 40
0.1875000000000017
 40
0.2187500000000017
 40
0.2187500000000017
 40
0.2343750000000017
 40
0.2343750000000017
 40
0.2500000000000018
 40
0.2500000000000018
 40
0.2656250000000018
 40
0.2656250000000018
 40
0.2812500000000019
 40
0.2812500000000019
 40
0.312500000000002
 40
0.3281250000000021
 40
0.3281250000000021
 40
0.3437500000000021
 40
0.3437500000000021
 40
0.3750000000000022
 40
0.3750000000000022
 40
0.4062500000000023
 40
0.4062500000000023
 40
0.4375000000000024
 40
0.4687500000000025
 40
0.4687500000000025
 40
0.5000000000000026
 40
0.5000000000000026
 40
0.5312500000000026
 40
0.5312500000000026
 40
0.5625000000000024
 40
0.5625000000000024
 40
0.6250000000000021
 40
0.6250000000000021
 40
0.6875000000000017
 40
0.6875000000000017
 40
0.7500000000000011
 40
0.7500000000000011
 40
0.781250000000001
 40
0.781250000000001
 40
0.8125000000000009
 40
0.8125000000000009
 40
0.8750000000000006
 40
0.8750000000000006
 40
0.9375000000000003
 40
0.9375000000000003
 40
1.0
 40
1.0
 40
1.0
 40
1.0
 10
45.20114983285484
 20
310.543876749254
 30
0.0
 10
45.16030457182541
 20
311.8941193760027
 30
0.0
 10
45.1273262134263
 20
313.2869737181833
 30
0.0
 10
45.0825126053342
 20
316.1508290863353
 30
0.0
 10
45.07059234134529
 20
317.620707622124
 30
0.0
 10
45.07344886889751
 20
322.1216748842465
 30
0.0
 10
45.12636906644455
 20
325.2411653915655
 30
0.0
 10
45.37493598169807
 20
331.721795963944
 30
0.0
 10
45.56911513922869
 20
335.080783318565
 30
0.0
 10
46.1504498794094
 20
342.032922728863
 30
0.0
 10
46.53872149166213
 20
345.6263957692613
 30
0.0
 10
47.31328986192823
 20
351.1920015548947
 30
0.0
 10
47.60325465601925
 20
353.0770437165776
 30
0.0
 10
48.2562090990918
 20
356.9026191893433
 30
0.0
 10
48.61911716091395
 20
358.8414347096056
 30
0.0
 10
49.42087447982883
 20
362.7470132001301
 30
0.0
 10
49.85953963703993
 20
364.7125207483004
 30
0.0
 10
50.81670324640791
 20
368.6529163300464
 30
0.0
 10
51.33582777786255
 20
370.6320754897919
 30
0.0
 10
53.02412442348478
 20
376.5922523538438
 30
0.0
 10
54.32439123993135
 20
380.5958529953791
 30
0.0
 10
56.57315128407792
 20
386.6304201356489
 30
0.0
 10
57.37240344583236
 20
388.6468356840074
 30
0.0
 10
59.07601809298627
 20
392.6869084533984
 30
0.0
 10
59.97877016273778
 20
394.7052529202392
 30
0.0
 10
61.87464318832947
 20
398.7102986618542
 30
0.0
 10
62.86855895836632
 20
400.6992638267985
 30
0.0
 10
64.94200424902263
 20
404.6365287150056
 30
0.0
 10
66.02175070868569
 20
406.5847217173376
 30
0.0
 10
69.39294892957903
 20
412.3802050058238
 30
0.0
 10
73.02376834292218
 20
418.0704558156698
 30
0.0
 10
77.01426648045134
 20
423.5980581658909
 30
0.0
 10
79.75122128145776
 20
427.2464489926034
 30
0.0
 10
81.16057128825769
 20
429.0549049203876
 30
0.0
 10
85.4613517629438
 20
434.3847702308303
 30
0.0
 10
88.43504557291921
 20
437.8229836556622
 30
0.0
 10
94.56454569152834
 20
444.5035993411832
 30
0.0
 10
97.7202523190919
 20
447.7461156186839
 30
0.0
 10
104.1833096265657
 20
454.0690906944213
 30
0.0
 10
110.7991235301907
 20
460.2287584469235
 30
0.0
 10
117.6780088642597
 20
466.1089503671773
 30
0.0
 10
124.6672090326216
 20
471.872973778418
 30
0.0
 10
128.2174311974593
 20
474.6957228444028
 30
0.0
 10
135.3589677047065
 20
480.2011844897134
 30
0.0
 10
138.9543873774552
 20
482.8875544684207
 30
0.0
 10
146.1898309412876
 20
488.1525520201779
 30
0.0
 10
149.8288426337946
 20
490.7310429119502
 30
0.0
 10
160.7989536414166
 20
498.3274011919628
 30
0.0
 10
168.1826887928105
 20
503.2071988967614
 30
0.0
 10
183.0403620412407
 20
512.7033598332931
 30
0.0
 10
190.5162427594937
 20
517.3155560232059
 30
0.0
 10
205.532560826797
 20
526.3294803408029
 30
0.0
 10
213.0721455258906
 20
530.7328587003918
 30
0.0
 10
224.4109767593297
 20
537.2198593378732
 30
0.0
 10
228.1958322561928
 20
539.3619041809377
 30
0.0
 10
235.7741867182081
 20
543.6098606920929
 30
0.0
 10
239.570578548895
 20
545.717438002099
 30
0.0
 10
250.9418656932708
 20
551.9765499398562
 30
0.0
 10
258.4987990206839
 20
556.0642360341759
 30
0.0
 10
273.525270970827
 20
564.0825646748557
 30
0.0
 10
280.9995102140981
 20
568.0152927862281
 30
0.0
 10
295.8582658670393
 20
575.7469869834737
 30
0.0
 10
303.243289181262
 20
579.5459679748958
 30
0.0
 10
310.5784208810968
 20
583.2845922081353
 30
0.0
  0
SPLINE
  5
177
330
1F
100
AcDbEntity
  8
0
  6
Continuous
 62
     8
370
     0
100
AcDbSpline
210
0.0
220
0.0
230
1.0
 70
     8
 71
     3
 72
    44
 73
    40
 74
     0
 42
0.00000001
 43
0.00000001
 12
1.0
 22
0.0
 32
0.0
 13
1.0
 23
0.0
 33
0.0
 40
0.0
 40
0.0
 40
0.0
 40
0.0
 40
0.1249999999999981
 40
0.1249999999999981
 40
0.1562499999999977
 40
0.1562499999999977
 40
0.1874999999999973
 40
0.1874999999999973
 40
0.2499999999999967
 40
0.2499999999999967
 40
0.3749999999999954
 40
0.3749999999999954
 40
0.4374999999999949
 40
0.4374999999999949
 40
0.4687499999999947
 40
0.4687499999999947
 40
0.4843749999999946
 40
0.4843749999999946
 40
0.4999999999999946
 40
0.4999999999999946
 40
0.6249999999999954
 40
0.6249999999999954
 40
0.6874999999999958
 40
0.6874999999999958
 40
0.7499999999999962
 40
0.7499999999999962
 40
0.7656249999999964
 40
0.7656249999999964
 40
0.7812499999999967
 40
0.7812499999999967
 40
0.8124999999999971
 40
0.8124999999999971
 40
0.8749999999999981
 40
0.8749999999999981
 40
0.937499999999999
 40
0.937499999999999
 40
0.9687499999999994
 40
0.9687499999999994
 40
1.0
 40
1.0
 40
1.0
 40
1.0
 10
33.82288913889438
 20
282.3676088631313
 30
0.0
 10
31.57923684009631
 20
284.9033824240115
 30
0.0
 10
28.92063709824984
 20
287.9135338263224
 30
0.0
 10
25.09343107748316
 20
292.2672522866532
 30
0.0
 10
24.30269025393586
 20
293.1677077442683
 30
0.0
 10
22.67057953902559
 20
295.0286434696065
 30
0.0
 10
21.82823263996918
 20
295.990240637647
 30
0.0
 10
19.23166534494536
 20
298.9587255636136
 30
0.0
 10
17.41619577904176
 20
301.039800434794
 30
0.0
 10
11.72759293046927
 20
307.5850064897338
 30
0.0
 10
7.613185434273848
 20
312.3494592516088
 30
0.0
 10
0.9845460376728954
 20
320.1120123288554
 30
0.0
 10
-1.30157723387421
 20
322.8024357428608
 30
0.0
 10
-4.843591655757137
 20
326.9989513071037
 30
0.0
 10
-6.043028303332476
 20
328.4246813984489
 30
0.0
 10
-7.869979640489771
 20
330.6049072170245
 30
0.0
 10
-8.483354482393166
 20
331.3383051248439
 30
0.0
 10
-9.714366697616688
 20
332.813284231458
 30
0.0
 10
-10.33259110517733
 20
333.5555652634549
 30
0.0
 10
-15.92020826727716
 20
340.2794211270148
 30
0.0
 10
-21.05614402175895
 20
346.5610644696328
 30
0.0
 10
-28.92999500734153
 20
356.4886618791268
 30
0.0
 10
-31.58273769821987
 20
359.8826083784661
 30
0.0
 10
-36.92340885105061
 20
366.8582239831436
 30
0.0
 10
-39.61159012287965
 20
370.4396906611397
 30
0.0
 10
-42.97385183536623
 20
375.0525230667972
 30
0.0
 10
-43.64702376496504
 20
375.9828472767297
 30
0.0
 10
-44.98942883801638
 20
377.8531148181648
 30
0.0
 10
-45.65820831877493
 20
378.7924101361824
 30
0.0
 10
-47.65608618147499
 20
381.6233931500147
 30
0.0
 10
-48.97678141135339
 20
383.5281432522754
 30
0.0
 10
-52.89385025372492
 20
389.3006877098914
 30
0.0
 10
-55.44672525014651
 20
393.2258922381957
 30
0.0
 10
-60.34676241247006
 20
401.2787160393581
 30
0.0
 10
-62.69551079625296
 20
405.4054571960447
 30
0.0
 10
-65.94932837734163
 20
411.8118205816069
 30
0.0
 10
-66.98840683106674
 20
413.9836839169828
 30
0.0
 10
-68.94415674748758
 20
418.4178472954342
 30
0.0
 10
-69.86101417746465
 20
420.6800440874397
 30
0.0
 10
-70.69459735600181
 20
422.9998572308468
 30
0.0
  0
SPLINE
  5
178
330
1F
100
AcDbEntity
  8
0
  6
Continuous
 62
     8
370
     0
100
AcDbSpline
210
0.0
220
0.0
230
1.0
 70
     8
 71
     3
 72
    24
 73
    20
 74
     0
 42
0.00000001
 43
0.00000001
 12
1.0
 22
0.0
 32
0.0
 13
1.0
 23
0.0
 33
0.0
 40
0.0
 40
0.0
 40
0.0
 40
0.0
 40
0.2499999999999998
 40
0.2499999999999998
 40
0.4999999999999998
 40
0.4999999999999998
 40
0.625
 40
0.625
 40
0.7500000000000002
 40
0.7500000000000002
 40
0.8125000000000001
 40
0.8125000000000001
 40
0.8750000000000001
 40
0.8750000000000001
 40
0.9375
 40
0.9375
 40
0.96875
 40
0.96875
 40
1.0
 40
1.0
 40
1.0
 40
1.0
 10
-70.69459735600206
 20
422.9998572308468
 30
0.0
 10
-71.3093870149312
 20
424.7107808290382
 30
0.0
 10
-71.92880663833311
 20
426.4210058606381
 30
0.0
 10
-73.18555677791424
 20
429.8367337786763
 30
0.0
 10
-73.82213824977788
 20
431.5425241661334
 30
0.0
 10
-74.80841231553184
 20
434.0907709918096
 30
0.0
 10
-75.14251133310368
 20
434.9384056411985
 30
0.0
 10
-75.83034119721296
 20
436.6266780910177
 30
0.0
 10
-76.18348251798712
 20
437.4675422134944
 30
0.0
 10
-76.74458837601483
 20
438.7171922829861
 30
0.0
 10
-76.93690433065487
 20
439.1315748822506
 30
0.0
 10
-77.33799157723023
 20
439.9506070614453
 30
0.0
 10
-77.54658079430898
 20
440.3556625056694
 30
0.0
 10
-77.99477366743199
 20
441.1485542778955
 30
0.0
 10
-78.23289267925179
 20
441.5372161355644
 30
0.0
 10
-78.64523663959163
 20
442.089554386818
 30
0.0
 10
-78.79202580452832
 20
442.2678973688795
 30
0.0
 10
-79.11097883152574
 20
442.5947204851374
 30
0.0
 10
-79.28309282470062
 20
442.7448388161311
 30
0.0
 10
-79.48210415455387
 20
442.866666036424
 30
0.0
  0
SPLINE
  5
179
330
1F
100
AcDbEntity
  8
0
  6
Continuous
 62
     8
370
     0
100
AcDbSpline
210
0.0
220
0.0
230
1.0
 70
     8
 71
     3
 72
     8
 73
     4
 74
     0
 42
0.00000001
 43
0.00000001
 12
1.0
 22
0.0
 32
0.0
 13
1.0
 23
0.0
 33
0.0
 40
0.0
 40
0.0
 40
0.0
 40
0.0
 40
1.0
 40
1.0
 40
1.0
 40
1.0
 10
-79.48210415597356
 20
442.8666660353089
 30
0.0
 10
-79.77126409571656
 20
443.0436788296568
 30
0.0
 10
-80.0738751182112
 20
443.1983279999463
 30
0.0
 10
-80.38776519231361
 20
443.3258682817094
 30
0.0
  0
LWPOLYLINE
  5
17A
330
1F
100
AcDbEntity
  8
0
  6
Continuous
 62
     8
370
     0
100
AcDbPolyline
 90
        6
 70
   128
 43
0.0
 10
-80.3877651013
 20
443.3258683394
 10
-94.6230558001
 20
438.1479771083
 10
-108.8397023521
 20
432.9768671861
 10
-123.0238233946
 20
427.8175878545
 10
-137.1615645729
 20
422.6751785
 10
-151.2391125105
 20
417.5546645393
  0
LWPOLYLINE
  5
17B
330
1F
100
AcDbEntity
  8
0
  6
Continuous
 62
     8
370
     0
100
AcDbPolyline
 90
        8
 70
   128
 43
0.0
 10
-151.2391125105
 20
417.5546645393
 10
-151.6951029442
 20
425.2271774431
 10
-152.1485229276
 20
432.856516095
 10
-152.5990148328
 20
440.4364844059
 10
-153.0462061308
 20
447.960921677
 10
-153.4897317432
 20
455.4237156382
 10
-153.929234042
 20
462.8188024481
 10
-154.3643479489
 20
470.1401713511
  0
SPLINE
  5
17C
330
1F
100
AcDbEntity
  8
0
  6
Continuous
 62
     8
370
     0
100
AcDbSpline
210
0.0
220
0.0
230
1.0
 70
     8
 71
     3
 72
    24
 73
    20
 74
     0
 42
0.00000001
 43
0.00000001
 12
1.0
 22
0.0
 32
0.0
 13
1.0
 23
0.0
 33
0.0
 40
0.0
 40
0.0
 40
0.0
 40
0.0
 40
0.1249999999999997
 40
0.1249999999999997
 40
0.2499999999999994
 40
0.2499999999999994
 40
0.3124999999999993
 40
0.3124999999999993
 40
0.3749999999999993
 40
0.3749999999999993
 40
0.4999999999999993
 40
0.4999999999999993
 40
0.6249999999999994
 40
0.6249999999999994
 40
0.7499999999999997
 40
0.7499999999999997
 40
0.8749999999999998
 40
0.8749999999999998
 40
1.0
 40
1.0
 40
1.0
 40
1.0
 10
-154.3643508134613
 20
470.1401721618403
 30
0.0
 10
-154.6783347301757
 20
475.4232928474266
 30
0.0
 10
-155.0306662866598
 20
480.6535097735041
 30
0.0
 10
-155.7558607644845
 20
491.0124169133035
 30
0.0
 10
-156.1287660837279
 20
496.1411361400033
 30
0.0
 10
-156.6725776776299
 20
503.7605418098578
 30
0.0
 10
-156.8513682780038
 20
506.2880543366529
 30
0.0
 10
-157.2002916523394
 20
511.3187027406241
 30
0.0
 10
-157.370445203687
 20
513.8223922943964
 30
0.0
 10
-157.8622236062816
 20
521.2678916812151
 30
0.0
 10
-158.1651947447403
 20
526.1541664633864
 30
0.0
 10
-158.7182146156917
 20
535.7710918928178
 30
0.0
 10
-158.968431987747
 20
540.5017810754242
 30
0.0
 10
-159.432098700298
 20
549.7983624887964
 30
0.0
 10
-159.645903003788
 20
554.36421618328
 30
0.0
 10
-160.0641273072652
 20
563.3134200226912
 30
0.0
 10
-160.2688934125362
 20
567.6967027178885
 30
0.0
 10
-160.6963352191396
 20
576.256349129837
 30
0.0
 10
-160.9192028563167
 20
580.4326826220607
 30
0.0
 10
-161.1603855865207
 20
584.4908442128836
 30
0.0
  0
LWPOLYLINE
  5
17D
330
1F
100
AcDbEntity
  8
0
  6
Continuous
 62
     8
370
     0
100
AcDbPolyline
 90
       27
 70
   128
 43
0.0
 10
-164.8005475543
 20
645.7405529191
 10
-164.7949521683
 20
645.6463626792
 10
-164.7781585597
 20
645.363836663
 10
-164.7501890801
 20
644.8931685855
 10
-164.7110511802
 20
644.2346862724
 10
-164.6607821129
 20
643.3888516595
 10
-164.5994116805
 20
642.3562309911
 10
-164.5269845866
 20
641.1375395229
 10
-164.4435455345
 20
639.7336415222
 10
-164.3491615795
 20
638.145460861
 10
-164.2438848756
 20
636.3741300275
 10
-164.1278048299
 20
634.4208411148
 10
-164.000981047
 20
632.2869501283
 10
-163.863517835
 20
629.973917382
 10
-163.7154971503
 20
627.4833522012
 10
-163.5570307516
 20
624.8169682195
 10
-163.388222947
 20
621.9765833785
 10
-163.2091854952
 20
618.9641646316
 10
-163.0200525068
 20
615.7817832401
 10
-162.8209506415
 20
612.4316296747
 10
-162.6120140098
 20
608.9160136154
 10
-162.3933841728
 20
605.2373490503
 10
-162.1652175926
 20
601.3981691768
 10
-161.9276632808
 20
597.4011264017
 10
-161.6808926009
 20
593.2489774396
 10
-161.4250769161
 20
588.9445535114
 10
-161.1603875898
 20
584.4908497503
  0
SPLINE
  5
17E
330
1F
100
AcDbEntity
  8
0
  6
Continuous
 62
     8
370
     0
100
AcDbSpline
210
0.0
220
0.0
230
1.0
 70
     8
 71
     3
 72
    44
 73
    40
 74
     0
 42
0.00000001
 43
0.00000001
 12
1.0
 22
0.0
 32
0.0
 13
1.0
 23
0.0
 33
0.0
 40
0.0
 40
0.0
 40
0.0
 40
0.0
 40
0.0312499999999999
 40
0.0312499999999999
 40
0.0624999999999998
 40
0.0624999999999998
 40
0.0937499999999998
 40
0.0937499999999998
 40
0.1249999999999997
 40
0.1249999999999997
 40
0.1874999999999994
 40
0.1874999999999994
 40
0.2187499999999994
 40
0.2187499999999994
 40
0.2499999999999993
 40
0.2499999999999993
 40
0.3124999999999994
 40
0.3124999999999994
 40
0.3749999999999994
 40
0.3749999999999994
 40
0.4374999999999995
 40
0.4374999999999995
 40
0.4687499999999994
 40
0.4687499999999994
 40
0.4999999999999994
 40
0.4999999999999994
 40
0.5624999999999993
 40
0.5624999999999993
 40
0.6249999999999992
 40
0.6249999999999992
 40
0.7499999999999988
 40
0.7499999999999988
 40
0.7812499999999988
 40
0.7812499999999988
 40
0.8124999999999988
 40
0.8124999999999988
 40
0.8749999999999991
 40
0.8749999999999991
 40
1.0
 40
1.0
 40
1.0
 40
1.0
 10
-72.04501655492152
 20
422.5460136266927
 30
0.0
 10
-71.1749339693712
 20
420.0047943959774
 30
0.0
 10
-70.20883268112583
 20
417.5279725173078
 30
0.0
 10
-68.13780149098525
 20
412.6745465450886
 30
0.0
 10
-67.03264050620412
 20
410.2980648236922
 30
0.0
 10
-64.72010724318596
 20
405.625640124757
 30
0.0
 10
-63.51259155780519
 20
403.329773052836
 30
0.0
 10
-61.02154169128507
 20
398.8045312352824
 30
0.0
 10
-59.73791643807564
 20
396.5752046463096
 30
0.0
 10
-55.80175869683831
 20
389.9716478723141
 30
0.0
 10
-53.06546887513336
 20
385.6809724636721
 30
0.0
 10
-48.86869422088436
 20
379.3729808778481
 30
0.0
 10
-47.45393168815548
 20
377.2919059260523
 30
0.0
 10
-44.60126718537422
 20
373.168717031214
 30
0.0
 10
-43.17140488368298
 20
371.1382582013646
 30
0.0
 10
-38.8896616298843
 20
365.1439061671517
 30
0.0
 10
-36.04234291442071
 20
361.271122768337
 30
0.0
 10
-30.39757519539527
 20
353.7407814963738
 30
0.0
 10
-27.59983451375042
 20
350.0834471596972
 30
0.0
 10
-22.07705665216372
 20
342.9662684307364
 30
0.0
 10
-19.35186035798658
 20
339.5065376112452
 30
0.0
 10
-15.33175390948888
 20
334.4580389999947
 30
0.0
 10
-14.00297142169507
 20
332.798778671723
 30
0.0
 10
-11.36994311395513
 20
329.5267971929818
 30
0.0
 10
-10.06331302598615
 20
327.9111635833423
 30
0.0
 10
-6.213450849360952
 20
323.1707436484829
 30
0.0
 10
-3.732998365184023
 20
320.1429720179397
 30
0.0
 10
1.050528215744154
 20
314.3379543995114
 30
0.0
 10
3.3539342022601
 20
311.5610260034871
 30
0.0
 10
9.992948368930527
 20
303.5975830155388
 30
0.0
 10
14.05879922687631
 20
298.7758852051286
 30
0.0
 10
18.64983356591365
 20
293.3631395937393
 30
0.0
 10
19.53848684905952
 20
292.3172543913701
 30
0.0
 10
21.25446083973874
 20
290.300499316339
 30
0.0
 10
22.08223322622281
 20
289.3290975037559
 30
0.0
 10
24.47538516853556
 20
286.5240742037481
 30
0.0
 10
25.9507082925414
 20
284.7994507351551
 30
0.0
 10
30.01621534093141
 20
280.0547400075979
 30
0.0
 10
32.24795594509232
 20
277.4609267314446
 30
0.0
 10
33.97849312254051
 20
275.4526853540743
 30
0.0
  0
ARC
  5
17F
330
1F
100
AcDbEntity
  8
0
  6
Continuous
 62
     8
370
     0
100
AcDbCircle
 10
-105.6140789898
 20
524.6670932686
 30
0.0
 40
107.4969623263004
100
AcDbArc
 50
288.1966377911
 51
288.9559765607
  0
SPLINE
  5
180
330
1F
100
AcDbEntity
  8
0
  6
Continuous
 62
     8
370
     0
100
AcDbSpline
210
0.0
220
0.0
230
1.0
 70
     8
 71
     3
 72
    18
 73
    14
 74
     0
 42
0.00000001
 43
0.00000001
 12
1.0
 22
0.0
 32
0.0
 13
1.0
 23
0.0
 33
0.0
 40
0.0
 40
0.0
 40
0.0
 40
0.0
 40
0.25
 40
0.25
 40
0.5
 40
0.5
 40
0.625
 40
0.625
 40
0.75
 40
0.75
 40
0.875
 40
0.875
 40
1.0
 40
1.0
 40
1.0
 40
1.0
 10
33.97849312254045
 20
275.4526853540744
 30
0.0
 10
37.83530545196479
 20
275.5062216885654
 30
0.0
 10
41.70022601584357
 20
275.6892675112492
 30
0.0
 10
49.36037159428851
 20
276.2767794910496
 30
0.0
 10
53.15823993364946
 20
276.680913467212
 30
0.0
 10
58.72366221135047
 20
277.4221495582989
 30
0.0
 10
60.55693072203538
 20
277.691818954224
 30
0.0
 10
64.1543192801936
 20
278.2709772370446
 30
0.0
 10
65.91872437415036
 20
278.5804618590294
 30
0.0
 10
69.35713421679704
 20
279.2361830986413
 30
0.0
 10
71.03064672067886
 20
279.5823445926201
 30
0.0
 10
74.26115029276478
 20
280.3097187539523
 30
0.0
 10
75.81704801233624
 20
280.6906661358742
 30
0.0
 10
77.30659296648102
 20
281.0902334620878
 30
0.0
  0
SPLINE
  5
181
330
1F
100
AcDbEntity
  8
0
  6
Continuous
 62
     8
370
     0
100
AcDbSpline
210
0.0
220
0.0
230
1.0
 70
     8
 71
     3
 72
    24
 73
    20
 74
     0
 42
0.00000001
 43
0.00000001
 12
1.0
 22
0.0
 32
0.0
 13
1.0
 23
0.0
 33
0.0
 40
0.0
 40
0.0
 40
0.0
 40
0.0
 40
0.0078125
 40
0.0078125
 40
0.015625
 40
0.015625
 40
0.03125
 40
0.03125
 40
0.0624999999999994
 40
0.0624999999999994
 40
0.1249999999999991
 40
0.1249999999999991
 40
0.2499999999999991
 40
0.2499999999999991
 40
0.4999999999999994
 40
0.4999999999999994
 40
0.7499999999999998
 40
0.7499999999999998
 40
1.0
 40
1.0
 40
1.0
 40
1.0
 10
-75.29588613394952
 20
378.77199532424
 30
0.0
 10
-75.31571569843246
 20
378.8822430317787
 30
0.0
 10
-75.32358737885377
 20
378.9938135907635
 30
0.0
 10
-75.33279702122158
 20
379.2168529754607
 30
0.0
 10
-75.33345499881197
 20
379.3286715706891
 30
0.0
 10
-75.33048206115333
 20
379.6634526617758
 30
0.0
 10
-75.32195082550597
 20
379.8862974658996
 30
0.0
 10
-75.2910754859841
 20
380.5547769249856
 30
0.0
 10
-75.262752040715
 20
381.000309356248
 30
0.0
 10
-75.17396482665923
 20
382.3378573907801
 30
0.0
 10
-75.10790223089664
 20
383.2307029848112
 30
0.0
 10
-74.90748290365329
 20
385.9139136933297
 30
0.0
 10
-74.76862817697253
 20
387.7087983666897
 30
0.0
 10
-74.34978551605789
 20
393.1125342627297
 30
0.0
 10
-74.06559450385531
 20
396.7403231116357
 30
0.0
 10
-73.493224033794
 20
404.0469069271531
 30
0.0
 10
-73.20464004156504
 20
407.7258700249203
 30
0.0
 10
-72.62568978620423
 20
415.1150112163874
 30
0.0
 10
-72.33541812553268
 20
418.8236138680016
 30
0.0
 10
-72.04501655492207
 20
422.5460136266953
 30
0.0
  0
SPLINE
  5
182
330
1F
100
AcDbEntity
  8
0
  6
Continuous
 62
     8
370
     0
100
AcDbSpline
210
0.0
220
0.0
230
1.0
 70
     8
 71
     3
 72
     8
 73
     4
 74
     0
 42
0.00000001
 43
0.00000001
 12
1.0
 22
0.0
 32
0.0
 13
1.0
 23
0.0
 33
0.0
 40
0.0
 40
0.0
 40
0.0
 40
0.0
 40
1.0
 40
1.0
 40
1.0
 40
1.0
 10
378.7213427808394
 20
614.4999782130676
 30
0.0
 10
377.4505329794452
 20
613.9271028470367
 30
0.0
 10
376.1472832331925
 20
613.3393227660778
 30
0.0
 10
374.8228127459155
 20
612.7416539985009
 30
0.0
  0
LWPOLYLINE
  5
183
330
1F
100
AcDbEntity
  8
0
  6
Continuous
 62
     8
370
     0
100
AcDbPolyline
 90
       91
 70
   128
 43
0.0
 10
283.1212500788
 20
611.4678821733
 10
281.3606182791
 20
613.2285288742
 10
279.5754591681
 20
615.013673084
 10
277.7662793852
 20
616.822867768
 10
275.9335259654
 20
618.6556211879
 10
274.0776757456
 20
620.5114714076
 10
272.1992055632
 20
622.3899266889
 10
270.2986220576
 20
624.2905101945
 10
268.3764020659
 20
626.2127301862
 10
266.43308203
 20
628.1560651233
 10
264.4691089846
 20
630.1200381687
 10
262.4850193717
 20
632.1041277816
 10
260.4813198306
 20
634.1078124216
 10
258.4585468031
 20
636.130585449
 10
256.4172069289
 20
638.1719253232
 10
254.3578664519
 20
640.2312658002
 10
252.2810320117
 20
642.3081151416
 10
250.1872102477
 20
644.4019220045
 10
248.0770270087
 20
646.5121201446
 10
245.9509293295
 20
648.6381880214
 10
243.8095728613
 20
650.7795742919
 10
241.6534344412
 20
652.935712712
 10
239.4831101157
 20
655.1060370376
 10
237.2991661288
 20
657.2899810245
 10
235.1021389224
 20
659.4870082309
 10
232.8926245429
 20
661.6965226104
 10
230.6711892344
 20
663.9179430177
 10
228.4384290434
 20
666.1507181098
 10
226.1948804118
 20
668.3942518403
 10
223.9411691882
 20
670.6479779651
 10
221.6778616168
 20
672.9112855365
 10
219.4055239417
 20
675.1836083105
 10
217.1247820117
 20
677.4643353393
 10
214.8362318732
 20
679.7529003789
 10
212.5404397704
 20
682.0487073829
 10
210.2380017497
 20
684.3511305025
 10
207.9295436598
 20
686.6596034934
 10
205.615631745
 20
688.9735005071
 10
203.296891854
 20
691.2922552993
 10
200.9739200331
 20
693.6152271202
 10
198.6472825266
 20
695.9418348243
 10
196.3176647879
 20
698.2714823654
 10
193.9856032588
 20
700.6035438945
 10
191.6516939856
 20
702.9374233653
 10
189.3166224219
 20
705.2725247314
 10
186.9808952071
 20
707.6082221439
 10
184.6451977946
 20
709.9439493587
 10
182.3100964285
 20
712.2790209224
 10
179.9762169577
 20
714.6129301956
 10
177.6441554286
 20
716.9449917247
 10
175.3145078875
 20
719.2746094634
 10
172.9879001833
 20
721.6012469699
 10
170.6649283625
 20
723.9242187908
 10
168.3461735703
 20
726.2429586818
 10
166.0322765566
 20
728.5568705966
 10
163.7238035657
 20
730.8653286865
 10
161.4213804461
 20
733.1677667072
 10
159.1255734421
 20
735.46355881
 10
156.8370084025
 20
737.7521089485
 10
154.5562813736
 20
740.0328508785
 10
152.2839585997
 20
742.3051885536
 10
150.0206510283
 20
744.568496125
 10
147.7669249035
 20
746.8222073486
 10
145.523391173
 20
749.0657559802
 10
143.2906160809
 20
751.2985161712
 10
141.0691956736
 20
753.5199514797
 10
138.8596812941
 20
755.7294658592
 10
136.6626540877
 20
757.9264930656
 10
134.4787101008
 20
760.1104370525
 10
132.3083857752
 20
762.280761378
 10
130.1522473551
 20
764.4368997981
 10
128.0108610846
 20
766.5782562663
 10
125.8847932078
 20
768.7043539455
 10
123.7745950676
 20
770.8145371845
 10
121.6807882048
 20
772.9083589485
 10
119.6039388634
 20
774.9851933887
 10
117.5445983864
 20
777.0445338657
 10
115.5032585122
 20
779.08587374
 10
113.4804854847
 20
781.1086467674
 10
111.4768008448
 20
783.1123463085
 10
109.4927112319
 20
785.0964359214
 10
107.5287381865
 20
787.0604089668
 10
105.5854032494
 20
789.0037290027
 10
103.6631832577
 20
790.9259489944
 10
101.7625997521
 20
792.8265325
 10
99.8841444708
 20
794.7050026824
 10
98.0282942511
 20
796.5608529022
 10
96.1955408312
 20
798.393606322
 10
94.3863461472
 20
800.2027861049
 10
92.6012019373
 20
801.9879452159
 10
90.8405552365
 20
803.7485770156
  0
LWPOLYLINE
  5
184
330
1F
100
AcDbEntity
  8
0
  6
Continuous
 62
     8
370
     0
100
AcDbPolyline
 90
       21
 70
   128
 43
0.0
 10
42.0136521317
 20
852.5754801204
 10
42.0183608986
 20
852.5707713535
 10
42.0560533859
 20
852.5330714157
 10
42.1314234592
 20
852.4577013423
 10
42.244463668
 20
852.3446909358
 10
42.3951293088
 20
852.1940103939
 10
42.5833905794
 20
852.0057491233
 10
42.8091953255
 20
851.7799369266
 10
43.0724839427
 20
851.5166632106
 10
43.3731968261
 20
851.2159577777
 10
43.711244569
 20
850.8779100349
 10
44.0865377642
 20
850.5026093891
 10
44.4989944555
 20
850.0901452472
 10
44.9484879829
 20
849.6406368186
 10
45.4349214889
 20
849.154233115
 10
45.9581534125
 20
848.6309937408
 10
46.5180496432
 20
848.0710975101
 10
47.11446862
 20
847.4746636321
 10
47.7472538806
 20
846.8418709209
 10
48.4162415124
 20
846.1728981903
 10
49.1212527014
 20
845.4678944518
  0
LINE
  5
185
330
1F
100
AcDbEntity
  8
0
  6
Continuous
 62
     8
370
     0
100
AcDbLine
 10
321.3501493193
 20
671.871169584
 30
0.0
 11
334.7851852633
 21
685.306205528
 31
0.0
  0
LINE
  5
186
330
1F
100
AcDbEntity
  8
0
  6
Continuous
 62
     8
370
     0
100
AcDbLine
 10
164.6788785912
 20
855.4125122001
 30
0.0
 11
151.2438426472
 21
841.9774762561
 31
0.0
  0
SPLINE
  5
187
330
1F
100
AcDbEntity
  8
0
  6
Continuous
 62
     8
370
     0
100
AcDbSpline
210
0.0
220
0.0
230
1.0
 70
     8
 71
     3
 72
    24
 73
    20
 74
     0
 42
0.00000001
 43
0.00000001
 12
1.0
 22
0.0
 32
0.0
 13
1.0
 23
0.0
 33
0.0
 40
0.0
 40
0.0
 40
0.0
 40
0.0
 40
0.03125
 40
0.03125
 40
0.0625000000000001
 40
0.0625000000000001
 40
0.1250000000000001
 40
0.1250000000000001
 40
0.1875000000000001
 40
0.1875000000000001
 40
0.2500000000000002
 40
0.2500000000000002
 40
0.3750000000000002
 40
0.3750000000000002
 40
0.5000000000000003
 40
0.5000000000000003
 40
0.7500000000000001
 40
0.7500000000000001
 40
1.0
 40
1.0
 40
1.0
 40
1.0
 10
-79.57325109862096
 20
442.7142126747439
 30
0.0
 10
-79.38330737990798
 20
442.5818622529583
 30
0.0
 10
-79.22649290702563
 20
442.4193043448811
 30
0.0
 10
-78.93875425279944
 20
442.0705807814506
 30
0.0
 10
-78.8085890226898
 20
441.8822120820275
 30
0.0
 10
-78.4463332637261
 20
441.3050299216646
 30
0.0
 10
-78.240095204578
 20
440.9035789841898
 30
0.0
 10
-77.85315009080318
 20
440.0886337571075
 30
0.0
 10
-77.67401955609357
 20
439.674393865523
 30
0.0
 10
-77.33041345770914
 20
438.8390142562778
 30
0.0
 10
-77.16613672076006
 20
438.4175041750004
 30
0.0
 10
-76.68769096278099
 20
437.1485371998673
 30
0.0
 10
-76.38746889512207
 20
436.296804327006
 30
0.0
 10
-75.8035437226729
 20
434.5885785016044
 30
0.0
 10
-75.52037196661759
 20
433.7319144356866
 30
0.0
 10
-74.68522673327058
 20
431.1581325300717
 30
0.0
 10
-74.14724087991526
 20
429.4373479446551
 30
0.0
 10
-73.0860154551023
 20
425.9932623165348
 30
0.0
 10
-72.5634439619828
 20
424.2697461880881
 30
0.0
 10
-72.04501655492172
 20
422.5460136266927
 30
0.0
  0
SPLINE
  5
188
330
1F
100
AcDbEntity
  8
0
  6
Continuous
 62
     8
370
     0
100
AcDbSpline
210
0.0
220
0.0
230
1.0
 70
     8
 71
     3
 72
    26
 73
    22
 74
     0
 42
0.00000001
 43
0.00000001
 12
1.0
 22
0.0
 32
0.0
 13
1.0
 23
0.0
 33
0.0
 40
0.0
 40
0.0
 40
0.0
 40
0.0
 40
0.2499999999999999
 40
0.2499999999999999
 40
0.4999999999999998
 40
0.4999999999999998
 40
0.6249999999999998
 40
0.6249999999999998
 40
0.7499999999999997
 40
0.7499999999999997
 40
0.8749999999999996
 40
0.8749999999999996
 40
0.9374999999999997
 40
0.9374999999999997
 40
0.9687499999999997
 40
0.9687499999999997
 40
0.9843749999999999
 40
0.9843749999999999
 40
0.9921875
 40
0.9921875
 40
1.0
 40
1.0
 40
1.0
 40
1.0
 10
-80.77664183225711
 20
442.6456738025651
 30
0.0
 10
-80.33989770752956
 20
437.2151959119394
 30
0.0
 10
-79.90422580687296
 20
431.7895743978963
 30
0.0
 10
-79.03420068989291
 20
420.9748279111952
 30
0.0
 10
-78.60025472909699
 20
415.5903580212074
 30
0.0
 10
-77.95080848951424
 20
407.5622572507673
 30
0.0
 10
-77.7346326003017
 20
404.8949381743968
 30
0.0
 10
-77.30328357717875
 20
399.5858513201592
 30
0.0
 10
-77.08826110609094
 20
396.9454707764398
 30
0.0
 10
-76.65863000524797
 20
391.6929901802516
 30
0.0
 10
-76.44453398933587
 20
389.0808484635299
 30
0.0
 10
-76.11900750242178
 20
385.1842404382861
 30
0.0
 10
-76.01034458999972
 20
383.8889260223196
 30
0.0
 10
-75.83865992943586
 20
381.9519858512598
 30
0.0
 10
-75.78055949472277
 20
381.3072975705007
 30
0.0
 10
-75.68164674957681
 20
380.3425550845789
 30
0.0
 10
-75.64704130066337
 20
380.0213294136648
 30
0.0
 10
-75.58336476382085
 20
379.5407817354999
 30
0.0
 10
-75.56022756407756
 20
379.3808102708525
 30
0.0
 10
-75.50286987115182
 20
379.0618801105313
 30
0.0
 10
-75.47063856041511
 20
378.902759605686
 30
0.0
 10
-75.41599409438906
 20
378.7455178877581
 30
0.0
  0
LWPOLYLINE
  5
189
330
1F
100
AcDbEntity
  8
0
  6
Continuous
 62
     8
370
     0
100
AcDbPolyline
 90
        9
 70
   128
 43
0.0
 10
-79.5732508667
 20
442.7142125761
 10
-79.7236664474
 20
442.7056569813
 10
-79.8740852878
 20
442.6970981268
 10
-80.0245069221
 20
442.6885357799
 10
-80.1749308847
 20
442.6799699405
 10
-80.3253571756
 20
442.6714008415
 10
-80.4757843979
 20
442.6628284828
 10
-80.6262130171
 20
442.6542526317
 10
-80.7766416363
 20
442.6456737539
  0
LWPOLYLINE
  5
18A
330
1F
100
AcDbEntity
  8
0
  6
Continuous
 62
     8
370
     0
100
AcDbPolyline
 90
        9
 70
   128
 43
0.0
 10
-79.4821041889
 20
442.8666661234
 10
-79.4934989206
 20
442.8476089352
 10
-79.5048936524
 20
442.8285517471
 10
-79.5162879184
 20
442.8094945589
 10
-79.5276817188
 20
442.7904373707
 10
-79.5390750535
 20
442.7713806482
 10
-79.5504674569
 20
442.7523241585
 10
-79.5618598603
 20
442.7332681345
 10
-79.5732508667
 20
442.7142125761
  0
SPLINE
  5
18B
330
1F
100
AcDbEntity
  8
0
  6
Continuous
 62
     8
370
     0
100
AcDbSpline
210
0.0
220
0.0
230
1.0
 70
     8
 71
     3
 72
     8
 73
     4
 74
     0
 42
0.00000001
 43
0.00000001
 12
1.0
 22
0.0
 32
0.0
 13
1.0
 23
0.0
 33
0.0
 40
0.0
 40
0.0
 40
0.0
 40
0.0
 40
1.0
 40
1.0
 40
1.0
 40
1.0
 10
-79.5732510987163
 20
442.7142126746071
 30
0.0
 10
-79.83300333540241
 20
442.9332929449239
 30
0.0
 10
-80.10573440538965
 20
443.1365695456034
 30
0.0
 10
-80.38776519233944
 20
443.3258682816769
 30
0.0
  0
SPLINE
  5
18C
330
1F
100
AcDbEntity
  8
0
  6
Continuous
 62
     8
370
     0
100
AcDbSpline
210
0.0
220
0.0
230
1.0
 70
     8
 71
     3
 72
     8
 73
     4
 74
     0
 42
0.00000001
 43
0.00000001
 12
1.0
 22
0.0
 32
0.0
 13
1.0
 23
0.0
 33
0.0
 40
0.0
 40
0.0
 40
0.0
 40
0.0
 40
1.0
 40
1.0
 40
1.0
 40
1.0
 10
-80.38776519243874
 20
443.3258682815434
 30
0.0
 10
-80.49526254589811
 20
443.086956033288
 30
0.0
 10
-80.62951968056863
 20
442.8621545370077
 30
0.0
 10
-80.77664183221096
 20
442.6456738025329
 30
0.0
  0
LWPOLYLINE
  5
18D
330
1F
100
AcDbEntity
  8
0
  6
Continuous
 62
     8
370
     0
100
AcDbPolyline
 90
        6
 70
   128
 43
0.0
 10
-148.5370924018
 20
411.0314092805
 10
-135.0733866237
 20
417.3130273094
 10
-121.5524752878
 20
423.6213314553
 10
-107.9873559318
 20
429.9502643963
 10
-94.3910558961
 20
436.2937436646
 10
-80.7766416363
 20
442.6456737539
  0
ARC
  5
18E
330
1F
100
AcDbEntity
  8
0
  6
Continuous
 62
     8
370
     0
100
AcDbCircle
 10
178.0967616779
 20
550.1487811787
 30
0.0
 40
355.0257987736045
100
AcDbArc
 50
201.9302388448
 51
203.0697508045
  0
LINE
  5
18F
330
1F
100
AcDbEntity
  8
0
  6
Continuous
 62
     8
370
     0
100
AcDbLine
 10
-148.5370924018
 20
411.0314092805
 30
0.0
 11
-148.5370924018
 21
240.0902352502
 31
0.0
  0
LWPOLYLINE
  5
190
330
1F
100
AcDbEntity
  8
0
  6
Continuous
 62
     8
370
     0
100
AcDbPolyline
 90
       31
 70
   128
 43
0.0
 10
-151.2391125105
 20
417.5546645393
 10
-152.3417984389
 20
417.5360194614
 10
-153.4355585717
 20
417.5110805055
 10
-154.5178373598
 20
417.4799072763
 10
-155.586079254
 20
417.4425705542
 10
-156.6377957605
 20
417.3991597464
 10
-157.6705058359
 20
417.3497772982
 10
-158.681795492
 20
417.294536831
 10
-159.6692879938
 20
417.23356873
 10
-160.6306736611
 20
417.1670164188
 10
-161.5636949681
 20
417.0950363597
 10
-162.466161444
 20
417.0177961906
 10
-163.3359571241
 20
416.9354784509
 10
-164.1710479997
 20
416.8482749929
 10
-164.9694596671
 20
416.7563907077
 10
-165.7293369316
 20
416.6600416621
 10
-166.4488916539
 20
416.5594532361
 10
-167.1264251016
 20
416.4548619857
 10
-167.7603652023
 20
416.3465119173
 10
-168.3492143892
 20
416.2346582135
 10
-168.8916017555
 20
416.1195635071
 10
-169.3862383507
 20
416.001496019
 10
-169.8319842361
 20
415.880735146
 10
-170.2277739786
 20
415.7575621476
 10
-170.5726911567
 20
415.6322675964
 10
-170.8659236573
 20
415.5051439276
 10
-171.1067934774
 20
415.3764891645
 10
-171.2947194718
 20
415.2466069182
 10
-171.4292620562
 20
415.1158008
 10
-171.5101232074
 20
414.9843762835
 10
-171.5370943092
 20
414.852642568
  0
LWPOLYLINE
  5
191
330
1F
100
AcDbEntity
  8
0
  6
Continuous
 62
     8
370
     0
100
AcDbPolyline
 90
       33
 70
   128
 43
0.0
 10
-148.5370924018
 20
411.0314092805
 10
-149.665646746
 20
411.0360137393
 10
-150.7914890789
 20
411.0498084893
 10
-151.9118924879
 20
411.0727674534
 10
-153.0241673134
 20
411.1048347523
 10
-154.1256387971
 20
411.1459284296
 10
-155.2136396311
 20
411.1959516277
 10
-156.2855621122
 20
411.2547851374
 10
-157.3388134383
 20
411.3222836723
 10
-158.370860412
 20
411.398287045
 10
-159.37922199
 20
411.4826164415
 10
-160.3614543818
 20
411.5750632455
 10
-161.3152106546
 20
411.6754039397
 10
-162.2381811284
 20
411.7834001055
 10
-163.1281380795
 20
411.8987909725
 10
-163.982950642
 20
412.0212971439
 10
-164.8005475543
 20
412.1506243219
 10
-165.5789693139
 20
412.2864595821
 10
-166.3163309239
 20
412.4284788241
 10
-167.0108665966
 20
412.5763355961
 10
-167.6608925007
 20
412.7296797206
 10
-168.2648514651
 20
412.8881349435
 10
-168.8212831758
 20
413.0513250103
 10
-169.3288465284
 20
413.2188550403
 10
-169.7863196276
 20
413.3903189769
 10
-170.1926072381
 20
413.5653070381
 10
-170.5467184328
 20
413.7433982661
 10
-170.8478112958
 20
413.9241586646
 10
-171.0951556705
 20
414.1071579626
 10
-171.2881555103
 20
414.2919528505
 10
-171.4263414286
 20
414.4780962934
 10
-171.5093855999
 20
414.665144982
 10
-171.5370943092
 20
414.852642568
  0
SPLINE
  5
192
330
1F
100
AcDbEntity
  8
0
  6
Continuous
 62
     8
370
     0
100
AcDbSpline
210
0.0
220
0.0
230
1.0
 70
     8
 71
     3
 72
    10
 73
     6
 74
     0
 42
0.00000001
 43
0.00000001
 12
1.0
 22
0.0
 32
0.0
 13
1.0
 23
0.0
 33
0.0
 40
0.0
 40
0.0
 40
0.0
 40
0.0
 40
0.5
 40
0.5
 40
1.0
 40
1.0
 40
1.0
 40
1.0
 10
-171.5370934747163
 20
422.1214885500094
 30
0.0
 10
-171.5370934747163
 20
429.4836515129592
 30
0.0
 10
-171.4080667830197
 20
436.8221725736187
 30
0.0
 10
-171.0484741062187
 20
451.45608197159
 30
0.0
 10
-170.8168150538789
 20
458.7514463819663
 30
0.0
 10
-170.5874744478006
 20
466.0259514224551
 30
0.0
  0
LWPOLYLINE
  5
193
330
1F
100
AcDbEntity
  8
0
  6
Continuous
 62
     8
370
     0
100
AcDbPolyline
 90
       22
 70
   128
 43
0.0
 10
-154.3643479489
 20
470.1401713511
 10
-155.444317057
 20
470.058658274
 10
-156.5077831291
 20
469.9634249529
 10
-157.5522278689
 20
469.8546986302
 10
-158.5751329802
 20
469.7327382138
 10
-159.5740770243
 20
469.5978361388
 10
-160.5466609143
 20
469.450314643
 10
-161.4905749701
 20
469.2905257662
 10
-162.4035467647
 20
469.1188513508
 10
-163.2834156297
 20
468.9357011785
 10
-164.1280656002
 20
468.7415111085
 10
-164.9354924701
 20
468.536746802
 10
-165.7037590884
 20
468.3218962719
 10
-166.4310326122
 20
468.0974736085
 10
-167.1155770563
 20
467.8640115281
 10
-167.7557607435
 20
467.6220725497
 10
-168.3500488542
 20
467.3722303679
 10
-168.8970332287
 20
467.1150828918
 10
-169.3953951143
 20
466.8512429317
 10
-169.8439498685
 20
466.5813437869
 10
-170.2416246079
 20
466.3060280701
 10
-170.5874731086
 20
466.0259514322
  0
SPLINE
  5
194
330
1F
100
AcDbEntity
  8
0
  6
Continuous
 62
     8
370
     0
100
AcDbSpline
210
0.0
220
0.0
230
1.0
 70
     8
 71
     3
 72
    28
 73
    24
 74
     0
 42
0.00000001
 43
0.00000001
 12
1.0
 22
0.0
 32
0.0
 13
1.0
 23
0.0
 33
0.0
 40
0.0
 40
0.0
 40
0.0
 40
0.0
 40
0.1250000000000003
 40
0.1250000000000003
 40
0.2500000000000006
 40
0.2500000000000006
 40
0.3125000000000007
 40
0.3125000000000007
 40
0.3437500000000006
 40
0.3437500000000006
 40
0.3750000000000007
 40
0.3750000000000007
 40
0.5000000000000004
 40
0.5000000000000004
 40
0.6250000000000003
 40
0.6250000000000003
 40
0.7500000000000001
 40
0.7500000000000001
 40
0.875
 40
0.875
 40
0.9375000000000002
 40
0.9375000000000002
 40
1.0
 40
1.0
 40
1.0
 40
1.0
 10
-170.5874744478006
 20
466.0259514224551
 30
0.0
 10
-170.4244381623555
 20
471.2366437365167
 30
0.0
 10
-170.300367942617
 20
476.3920947633468
 30
0.0
 10
-170.1034532138704
 20
486.5929997325345
 30
0.0
 10
-170.030806026487
 20
491.6384699938242
 30
0.0
 10
-169.9490590763494
 20
499.1236091496519
 30
0.0
 10
-169.926417595584
 20
501.6047997825004
 30
0.0
 10
-169.8984805320917
 20
505.305607914587
 30
0.0
 10
-169.8901757799865
 20
506.5357133925489
 30
0.0
 10
-169.8754728887824
 20
508.9888854226652
 30
0.0
 10
-169.8690703854955
 20
510.2129889875409
 30
0.0
 10
-169.8416707601835
 20
516.3026614592873
 30
0.0
 10
-169.834310726726
 20
521.0630057538414
 30
0.0
 10
-169.8451924901851
 20
530.3662467650488
 30
0.0
 10
-169.8635027471675
 20
534.9091526961324
 30
0.0
 10
-169.927043479651
 20
543.7774128874438
 30
0.0
 10
-169.9723498041511
 20
548.1027793884057
 30
0.0
 10
-170.0937543981269
 20
556.5300784190213
 30
0.0
 10
-170.169928481441
 20
560.6320319066285
 30
0.0
 10
-170.3103655740029
 20
566.608292328155
 30
0.0
 10
-170.361583481443
 20
568.5719912136337
 30
0.0
 10
-170.4723777559882
 20
572.4161888679098
 30
0.0
 10
-170.5320134563895
 20
574.2994766586738
 30
0.0
 10
-170.5958444636351
 20
576.14335474557
 30
0.0
  0
ARC
  5
195
330
1F
100
AcDbEntity
  8
0
  6
Continuous
 62
     8
370
     0
100
AcDbCircle
 10
-154.9715312004
 20
567.9890148624
 30
0.0
 40
17.62420205500951
100
AcDbArc
 50
110.5580795307
 51
152.4399214743
  0
SPLINE
  5
196
330
1F
100
AcDbEntity
  8
0
  6
Continuous
 62
     8
370
     0
100
AcDbSpline
210
0.0
220
0.0
230
1.0
 70
     8
 71
     3
 72
    26
 73
    22
 74
     0
 42
0.00000001
 43
0.00000001
 12
1.0
 22
0.0
 32
0.0
 13
1.0
 23
0.0
 33
0.0
 40
0.0
 40
0.0
 40
0.0
 40
0.0
 40
0.1250000000000008
 40
0.1250000000000008
 40
0.2500000000000017
 40
0.2500000000000017
 40
0.3750000000000025
 40
0.3750000000000025
 40
0.4375000000000027
 40
0.4375000000000027
 40
0.4687500000000026
 40
0.4687500000000026
 40
0.5000000000000023
 40
0.5000000000000023
 40
0.6250000000000019
 40
0.6250000000000019
 40
0.7500000000000013
 40
0.7500000000000013
 40
0.8750000000000007
 40
0.8750000000000007
 40
1.0
 40
1.0
 40
1.0
 40
1.0
 10
-179.2275296332098
 20
571.1801818383699
 30
0.0
 10
-179.0488404387952
 20
567.7330649827701
 30
0.0
 10
-178.8853634106227
 20
564.1438057030626
 30
0.0
 10
-178.5950882112224
 20
556.6900716382355
 30
0.0
 10
-178.4682796776478
 20
552.8255737710263
 30
0.0
 10
-178.2570229333761
 20
544.823636736037
 30
0.0
 10
-178.1725708090175
 20
540.6862005352191
 30
0.0
 10
-178.0816572115251
 20
534.2722458560803
 30
0.0
 10
-178.0573105851364
 20
532.0995771757807
 30
0.0
 10
-178.0302152074841
 20
528.7876837512308
 30
0.0
 10
-178.0227541633851
 20
527.6749007603546
 30
0.0
 10
-178.011056000391
 20
525.4315105278434
 30
0.0
 10
-178.0068319338022
 20
524.3026428447342
 30
0.0
 10
-177.9939582812729
 20
518.6426520834702
 30
0.0
 10
-178.0099013288209
 20
514.0457333137276
 30
0.0
 10
-178.0950188979442
 20
504.7186458293479
 30
0.0
 10
-178.1641183195652
 20
499.9884640796964
 30
0.0
 10
-178.3583917073152
 20
490.3961961190894
 30
0.0
 10
-178.4834457792268
 20
485.5341083280697
 30
0.0
 10
-178.7974876897165
 20
475.6763808252878
 30
0.0
 10
-178.9862364581782
 20
470.6807495788829
 30
0.0
 10
-179.21588439379
 20
465.6159682602857
 30
0.0
  0
ARC
  5
197
330
1F
100
AcDbEntity
  8
0
  6
Continuous
 62
     8
370
     0
100
AcDbCircle
 10
-178.8148847767
 20
580.4499916874
 30
0.0
 40
9.278992748815329
100
AcDbArc
 50
267.4511551802
 51
332.3462117797
  0
ARC
  5
198
330
1F
100
AcDbEntity
  8
0
  6
Continuous
 62
     8
370
     0
100
AcDbCircle
 10
-176.427894017
 20
497.9413279266
 30
0.0
 40
32.44536597369122
100
AcDbArc
 50
265.0705619527
 51
280.3702176509
  0
LINE
  5
199
330
1F
100
AcDbEntity
  8
0
  6
Continuous
 62
     8
370
     0
100
AcDbLine
 10
119.5609043099
 20
906.1236969402
 30
0.0
 11
103.3292631365
 21
889.892070668
 31
0.0
  0
LINE
  5
19A
330
1F
100
AcDbEntity
  8
0
  6
Continuous
 62
     8
370
     0
100
AcDbLine
 10
134.8533401944
 20
858.367978709
 30
0.0
 11
151.0849813677
 21
874.5996049812
 31
0.0
  0
LINE
  5
19B
330
1F
100
AcDbEntity
  8
0
  6
Continuous
 62
     8
370
     0
100
AcDbLine
 10
96.9794760205
 20
896.2418428829
 30
0.0
 11
112.6914988019
 21
911.9538656642
 31
0.0
  0
LINE
  5
19C
330
1F
100
AcDbEntity
  8
0
  6
Continuous
 62
     8
370
     0
100
AcDbLine
 10
353.9722780444
 20
671.7123083045
 30
0.0
 11
337.7406517722
 21
655.4806671312
 31
0.0
  0
LINE
  5
19D
330
1F
100
AcDbEntity
  8
0
  6
Continuous
 62
     8
370
     0
100
AcDbLine
 10
369.2647437312
 20
623.9565900733
 30
0.0
 11
385.4963700034
 21
640.1882312467
 31
0.0
  0
LINE
  5
19E
330
1F
100
AcDbEntity
  8
0
  6
Continuous
 62
     8
370
     0
100
AcDbLine
 10
391.3265387274
 20
633.3188257387
 30
0.0
 11
375.6145159461
 21
617.6068029573
 31
0.0
  0
SPLINE
  5
19F
330
1F
100
AcDbEntity
  8
0
  6
Continuous
 62
     8
370
     0
100
AcDbSpline
210
0.0
220
0.0
230
1.0
 70
     8
 71
     3
 72
    10
 73
     6
 74
     0
 42
0.00000001
 43
0.00000001
 12
1.0
 22
0.0
 32
0.0
 13
1.0
 23
0.0
 33
0.0
 40
0.0
 40
0.0
 40
0.0
 40
0.0
 40
0.5
 40
0.5
 40
1.0
 40
1.0
 40
1.0
 40
1.0
 10
-179.21588439379
 20
465.6159682602857
 30
0.0
 10
-179.5359053470853
 20
458.5580509248197
 30
0.0
 10
-179.8582701594902
 20
451.5019040669054
 30
0.0
 10
-180.3580318535464
 20
437.3884062840844
 30
0.0
 10
-180.5370934747164
 20
430.3311070974782
 30
0.0
 10
-180.5370934747163
 20
423.2699257956133
 30
0.0
  0
LWPOLYLINE
  5
1A0
330
1F
100
AcDbEntity
  8
0
  6
Continuous
 62
     8
370
     0
100
AcDbPolyline
 90
       21
 70
   128
 43
0.0
 10
-171.5370943092
 20
422.121488603
 10
-171.5648402713
 20
422.2115940621
 10
-171.6478993438
 20
422.3011444529
 10
-171.7857648872
 20
422.3895865699
 10
-171.9775875352
 20
422.476374658
 10
-172.2221751951
 20
422.5609760007
 10
-172.5180377506
 20
422.6428690573
 10
-172.8633349083
 20
422.7215453257
 10
-173.2559432529
 20
422.7965223809
 10
-173.6934413455
 20
422.8673382869
 10
-174.1731320761
 20
422.9335571846
 10
-174.6920575641
 20
422.9947674295
 10
-175.247028961
 20
423.0505946299
 10
-175.8346040986
 20
423.1006923338
 10
-176.4511768959
 20
423.1447532048
 10
-177.0929401062
 20
423.1825052967
 10
-177.7559374712
 20
423.2137176415
 10
-178.4360860728
 20
423.2381946614
 10
-179.1291837834
 20
423.2557873448
 10
-179.8309614204
 20
423.2663857957
 10
-180.5370901965
 20
423.2699266841
  0
LINE
  5
1A1
330
1F
100
AcDbEntity
  8
0
  6
Continuous
 62
     8
370
     0
100
AcDbLine
 10
-204.0370931171
 20
616.0902372768
 30
0.0
 11
-204.0370931171
 21
274.0902296474
 31
0.0
  0
LINE
  5
1A2
330
1F
100
AcDbEntity
  8
0
  6
Continuous
 62
     8
370
     0
100
AcDbLine
 10
-180.5370901965
 20
274.0902296474
 30
0.0
 11
-180.5370901965
 21
423.2699266841
 31
0.0
  0
LINE
  5
1A3
330
1F
100
AcDbEntity
  8
0
  6
Continuous
 62
     8
370
     0
100
AcDbLine
 10
428.9628783919
 20
445.0902334621
 30
0.0
 11
428.9628783919
 21
609.090237992
 31
0.0
  0
LINE
  5
1A4
330
1F
100
AcDbEntity
  8
0
  6
Continuous
 62
     8
370
     0
100
AcDbLine
 10
428.9628783919
 20
281.0902289321
 30
0.0
 11
428.9628783919
 21
445.0902334621
 31
0.0
  0
LINE
  5
1A5
330
1F
100
AcDbEntity
  8
0
  6
Continuous
 62
     8
370
     0
100
AcDbLine
 10
-180.5370901965
 20
605.6105337312
 30
0.0
 11
-180.5370901965
 21
616.0902372768
 31
0.0
  0
SPLINE
  5
1A6
330
1F
100
AcDbEntity
  8
0
  6
Continuous
 62
     8
370
     0
100
AcDbSpline
210
0.0
220
0.0
230
1.0
 70
     8
 71
     3
 72
    16
 73
    12
 74
     0
 42
0.00000001
 43
0.00000001
 12
1.0
 22
0.0
 32
0.0
 13
1.0
 23
0.0
 33
0.0
 40
0.0
 40
0.0
 40
0.0
 40
0.0
 40
0.25
 40
0.25
 40
0.5
 40
0.5
 40
0.75
 40
0.75
 40
0.875
 40
0.875
 40
1.0
 40
1.0
 40
1.0
 40
1.0
 10
-180.5370934747163
 20
605.6105411285611
 30
0.0
 10
-180.5370934747164
 20
603.6799047766583
 30
0.0
 10
-180.5124070323973
 20
601.5077797622201
 30
0.0
 10
-180.4024414224027
 20
596.6975161474404
 30
0.0
 10
-180.3172040461603
 20
594.0593332555745
 30
0.0
 10
-180.0881782196816
 20
588.320054303194
 30
0.0
 10
-179.9444275557613
 20
585.2189772843888
 30
0.0
 10
-179.6953353450659
 20
580.2125445186921
 30
0.0
 10
-179.6067381698143
 20
578.4829902695353
 30
0.0
 10
-179.4216864707211
 20
574.9093025291519
 30
0.0
 10
-179.3255271035636
 20
573.0706639851375
 30
0.0
 10
-179.2275296332098
 20
571.1801818383699
 30
0.0
  0
SPLINE
  5
1A7
330
1F
100
AcDbEntity
  8
0
  6
Continuous
 62
     8
370
     0
100
AcDbSpline
210
0.0
220
0.0
230
1.0
 70
     8
 71
     3
 72
    67
 73
    63
 74
     0
 42
0.00000001
 43
0.00000001
 12
1.0
 22
0.0
 32
0.0
 13
1.0
 23
0.0
 33
0.0
 40
0.0
 40
0.0
 40
0.0
 40
0.0
 40
0.0625000000000002
 40
0.0625000000000002
 40
0.0937500000000003
 40
0.0937500000000003
 40
0.1250000000000004
 40
0.1250000000000004
 40
0.1562500000000006
 40
0.1562500000000006
 40
0.1875000000000007
 40
0.1875000000000007
 40
0.250000000000001
 40
0.250000000000001
 40
0.3125000000000012
 40
0.3125000000000012
 40
0.3750000000000013
 40
0.3750000000000013
 40
0.4375000000000017
 40
0.4375000000000017
 40
0.4687500000000018
 40
0.4687500000000018
 40
0.5000000000000019
 40
0.5000000000000019
 40
0.5625000000000021
 40
0.5625000000000021
 40
0.6250000000000022
 40
0.6250000000000022
 40
0.6328125000000022
 40
0.6328125000000022
 40
0.6406250000000022
 40
0.6406250000000022
 40
0.656250000000002
 40
0.6875000000000018
 40
0.6875000000000018
 40
0.7187500000000014
 40
0.7187500000000014
 40
0.7343750000000013
 40
0.7343750000000013
 40
0.7500000000000012
 40
0.7500000000000012
 40
0.7812500000000009
 40
0.7812500000000009
 40
0.7968750000000008
 40
0.7968750000000008
 40
0.8125000000000007
 40
0.8125000000000007
 40
0.8437500000000006
 40
0.8437500000000006
 40
0.8750000000000004
 40
0.8750000000000004
 40
0.9062500000000003
 40
0.9062500000000003
 40
0.9375000000000002
 40
0.9375000000000002
 40
0.9531250000000001
 40
0.9531250000000001
 40
0.9687500000000001
 40
0.9687500000000001
 40
0.984375
 40
0.984375
 40
1.0
 40
1.0
 40
1.0
 40
1.0
 10
297.4821605918881
 20
562.185789986013
 30
0.0
 10
290.2897636408834
 20
558.7597777328126
 30
0.0
 10
283.0558368434376
 20
555.2762514327441
 30
0.0
 10
272.1500967383409
 20
549.95254968053
 30
0.0
 10
268.5060582933037
 20
548.1617428272697
 30
0.0
 10
261.1994384004454
 20
544.5442151993369
 30
0.0
 10
257.5370666676492
 20
542.7175255097616
 30
0.0
 10
250.1996873804259
 20
539.0272432212145
 30
0.0
 10
246.5235299019816
 20
537.1630585811897
 30
0.0
 10
239.1690137696065
 20
533.3992824850413
 30
0.0
 10
235.4956952891276
 20
531.5022678044725
 30
0.0
 10
224.490192263857
 20
525.7600798246826
 30
0.0
 10
217.1721982281099
 20
521.8640502520211
 30
0.0
 10
202.5891653009301
 20
513.9053231724769
 30
0.0
 10
195.3253651280376
 20
509.8405483038644
 30
0.0
 10
180.8810851011268
 20
501.4870978475396
 30
0.0
 10
173.6997592805639
 20
497.2000006329268
 30
0.0
 10
159.452353301458
 20
488.3413162081494
 30
0.0
 10
152.3879422759398
 20
483.766540512569
 30
0.0
 10
141.9202639508436
 20
476.6085692054804
 30
0.0
 10
138.4539543381035
 20
474.1734644287075
 30
0.0
 10
131.5691155304066
 20
469.1811203013054
 30
0.0
 10
128.1493676851319
 20
466.622525479139
 30
0.0
 10
118.0524294487714
 20
458.7854770417064
 30
0.0
 10
111.5343220645804
 20
453.348385543876
 30
0.0
 10
99.08161260878504
 20
441.8847007786435
 30
0.0
 10
93.14374186913682
 20
435.8615571723766
 30
0.0
 10
86.91542186595471
 20
428.6247305272761
 30
0.0
 10
86.22966759839859
 20
427.8142318610549
 30
0.0
 10
84.87116852438034
 20
426.1799533913983
 30
0.0
 10
84.19768115297299
 20
425.3553354721882
 30
0.0
 10
82.20471990353676
 20
422.869062544019
 30
0.0
 10
78.32663243195331
 20
417.8449954629683
 30
0.0
 10
74.78545225865099
 20
412.6681475452765
 30
0.0
 10
70.38717801078786
 20
405.6330479557777
 30
0.0
 10
68.35175494545074
 20
402.0506543118776
 30
0.0
 10
65.54770261203355
 20
396.5683457790788
 30
0.0
 10
64.65509398097747
 20
394.7247748891302
 30
0.0
 10
62.95950041175821
 20
391.016859247014
 30
0.0
 10
62.15651214956144
 20
389.151205647734
 30
0.0
 10
59.89762036962149
 20
383.5724619853877
 30
0.0
 10
58.58511317024765
 20
379.8640498604759
 30
0.0
 10
56.87450235796193
 20
374.3314039601925
 30
0.0
 10
56.34726570790749
 20
372.4922114957027
 30
0.0
 10
55.37307025352575
 20
368.8263771725315
 30
0.0
 10
54.9262306670748
 20
367.000634605493
 30
0.0
 10
53.69684659565183
 20
361.5399706634167
 30
0.0
 10
53.02435231897359
 20
357.9134414849858
 30
0.0
 10
51.94753710006436
 20
350.8539485272738
 30
0.0
 10
51.54028283134077
 20
347.4251989872731
 30
0.0
 10
50.930794292951
 20
340.7731434556074
 30
0.0
 10
50.72890400676633
 20
337.549589392611
 30
0.0
 10
50.47566174474449
 20
331.3093615736224
 30
0.0
 10
50.42343648546971
 20
328.292383445189
 30
0.0
 10
50.42924792709394
 20
323.9270844398148
 30
0.0
 10
50.44508573757511
 20
322.4992199320542
 30
0.0
 10
50.50029413251036
 20
319.6946965450487
 30
0.0
 10
50.53970885526537
 20
318.3185120560697
 30
0.0
 10
50.63755396099221
 20
315.6312522476977
 30
0.0
 10
50.69601274436841
 20
314.3204004443234
 30
0.0
 10
50.82722187993713
 20
311.7758287238305
 30
0.0
 10
50.89976411314975
 20
310.540135294264
 30
0.0
 10
50.97773213382861
 20
309.3408814082621
 30
0.0
  0
SPLINE
  5
1A8
330
1F
100
AcDbEntity
  8
0
  6
Continuous
 62
     8
370
     0
100
AcDbSpline
210
0.0
220
0.0
230
1.0
 70
     8
 71
     3
 72
    14
 73
    10
 74
     0
 42
0.00000001
 43
0.00000001
 12
1.0
 22
0.0
 32
0.0
 13
1.0
 23
0.0
 33
0.0
 40
0.0
 40
0.0
 40
0.0
 40
0.0
 40
0.25
 40
0.25
 40
0.5
 40
0.5
 40
0.75
 40
0.75
 40
1.0
 40
1.0
 40
1.0
 40
1.0
 10
310.5784208812994
 20
583.2845922082386
 30
0.0
 10
310.5325658066092
 20
582.8883185883154
 30
0.0
 10
310.5177603423628
 20
582.441430440396
 30
0.0
 10
310.5677084670754
 20
581.4538597470746
 30
0.0
 10
310.6326564010279
 20
580.9131032308364
 30
0.0
 10
310.8528651875412
 20
579.7622173187715
 30
0.0
 10
311.0082632651194
 20
579.152230546988
 30
0.0
 10
311.4077277918665
 20
577.9039888190287
 30
0.0
 10
311.651774308061
 20
577.2660945798741
 30
0.0
 10
311.9320818374541
 20
576.6391084930749
 30
0.0
  0
SPLINE
  5
1A9
330
1F
100
AcDbEntity
  8
0
  6
Continuous
 62
     8
370
     0
100
AcDbSpline
210
0.0
220
0.0
230
1.0
 70
     8
 71
     3
 72
    18
 73
    14
 74
     0
 42
0.00000001
 43
0.00000001
 12
1.0
 22
0.0
 32
0.0
 13
1.0
 23
0.0
 33
0.0
 40
0.0
 40
0.0
 40
0.0
 40
0.0
 40
0.2499999999999991
 40
0.2499999999999991
 40
0.4999999999999981
 40
0.4999999999999981
 40
0.7499999999999971
 40
0.7499999999999971
 40
0.8749999999999976
 40
0.8749999999999976
 40
0.9374999999999988
 40
0.9374999999999988
 40
1.0
 40
1.0
 40
1.0
 40
1.0
 10
333.3141948907243
 20
578.2222217375257
 30
0.0
 10
337.9775292860915
 20
580.1806490334417
 30
0.0
 10
342.5664949457845
 20
582.1029888896788
 30
0.0
 10
351.5665073753711
 20
585.8651440926637
 30
0.0
 10
355.9777829700231
 20
587.7050513903655
 30
0.0
 10
364.5806134210466
 20
591.2866201232083
 30
0.0
 10
368.7726479226879
 20
593.0284765646647
 30
0.0
 10
374.8474807984201
 20
595.5486787964144
 30
0.0
 10
376.8366729324942
 20
596.3732264291345
 30
0.0
 10
379.7578245121096
 20
597.5831876818763
 30
0.0
 10
380.7210773886513
 20
597.9820211577
 30
0.0
 10
382.6247871567692
 20
598.7699669778806
 30
0.0
 10
383.5619867946605
 20
599.1577309634113
 30
0.0
 10
384.4813971567021
 20
599.5380061462165
 30
0.0
  0
SPLINE
  5
1AA
330
1F
100
AcDbEntity
  8
0
  6
Continuous
 62
     8
370
     0
100
AcDbSpline
210
0.0
220
0.0
230
1.0
 70
     8
 71
     3
 72
    36
 73
    32
 74
     0
 42
0.00000001
 43
0.00000001
 12
1.0
 22
0.0
 32
0.0
 13
1.0
 23
0.0
 33
0.0
 40
0.0
 40
0.0
 40
0.0
 40
0.0
 40
0.0312499999999999
 40
0.0312499999999999
 40
0.0624999999999998
 40
0.0624999999999998
 40
0.0937499999999997
 40
0.0937499999999997
 40
0.1249999999999996
 40
0.1249999999999996
 40
0.1874999999999994
 40
0.1874999999999994
 40
0.2499999999999991
 40
0.2499999999999991
 40
0.4999999999999993
 40
0.4999999999999993
 40
0.6249999999999998
 40
0.6249999999999998
 40
0.6875
 40
0.6875
 40
0.7500000000000002
 40
0.7500000000000002
 40
0.8125000000000006
 40
0.8125000000000006
 40
0.8750000000000008
 40
0.8750000000000008
 40
0.9062500000000003
 40
0.9062500000000003
 40
0.9375
 40
0.9375
 40
1.0
 40
1.0
 40
1.0
 40
1.0
 10
385.0180169237431
 20
609.0902334620877
 30
0.0
 10
385.0180169237433
 20
609.0902334620876
 30
0.0
 10
385.0742781004273
 20
609.0867883186684
 30
0.0
 10
385.2500843024016
 20
609.0735259142535
 30
0.0
 10
385.367200817892
 20
609.0637009250767
 30
0.0
 10
385.6211192488391
 20
609.0377910367134
 30
0.0
 10
385.7585392305151
 20
609.0217002732671
 30
0.0
 10
386.0390237974516
 20
608.9832492498608
 30
0.0
 10
386.1823971430133
 20
608.9608877795115
 30
0.0
 10
386.6124681811015
 20
608.8843504658007
 30
0.0
 10
386.8988452427226
 20
608.8207223605602
 30
0.0
 10
387.4518344729954
 20
608.6679479383891
 30
0.0
 10
387.7190089907406
 20
608.5787953921403
 30
0.0
 10
388.987161882061
 20
608.0679640442114
 30
0.0
 10
389.7777154804318
 20
607.4554953549102
 30
0.0
 10
390.349565354654
 20
606.2186133685394
 30
0.0
 10
390.4379694306583
 20
605.7531154375354
 30
0.0
 10
390.3613207505672
 20
604.97134632731
 30
0.0
 10
390.3001499735535
 20
604.6957274425255
 30
0.0
 10
390.0959319728041
 20
604.1227041702584
 30
0.0
 10
389.9532228150718
 20
603.8252249676219
 30
0.0
 10
389.5733452297061
 20
603.2101176683713
 30
0.0
 10
389.3363156861135
 20
602.8924780772372
 30
0.0
 10
388.7482384905751
 20
602.2393662411891
 30
0.0
 10
388.3975395469343
 20
601.9038660021575
 30
0.0
 10
387.7615457504631
 20
601.3897862890512
 30
0.0
 10
387.5318315180082
 20
601.2173356862385
 30
0.0
 10
387.0367766340703
 20
600.8742598106822
 30
0.0
 10
386.7709451757456
 20
600.7032057783117
 30
0.0
 10
385.9108439344124
 20
600.1937678172519
 30
0.0
 10
385.2564531312822
 20
599.858575246355
 30
0.0
 10
384.4813971567021
 20
599.5380061462165
 30
0.0
  0
LINE
  5
1AB
330
1F
100
AcDbEntity
  8
0
  6
Continuous
 62
     8
370
     0
100
AcDbLine
 10
392.3430363394
 20
751.0429016521
 30
0.0
 11
385.9790782191
 21
757.4068597724
 31
0.0
  0
LINE
  5
1AC
330
1F
100
AcDbEntity
  8
0
  6
Continuous
 62
     8
370
     0
100
AcDbLine
 10
230.4155747153
 20
912.9703632762
 30
0.0
 11
236.7795328356
 21
906.6064051559
 31
0.0
  0
SPLINE
  5
1AD
330
1F
100
AcDbEntity
  8
0
  6
Continuous
 62
     8
370
     0
100
AcDbSpline
210
0.0
220
0.0
230
1.0
 70
     8
 71
     3
 72
    11
 73
     7
 74
     0
 42
0.00000001
 43
0.00000001
 12
1.0
 22
0.0
 32
0.0
 13
1.0
 23
0.0
 33
0.0
 40
0.0
 40
0.0
 40
0.0
 40
0.0
 40
0.2499211245905631
 40
0.4998445080183802
 40
0.7499222194871038
 40
1.0
 40
1.0
 40
1.0
 40
1.0
 10
325.7149378515775
 20
590.42195894026
 30
0.0
 10
324.4977789011524
 20
589.864112654983
 30
0.0
 10
322.0634499993752
 20
588.7484150425029
 30
0.0
 10
318.3808360367905
 20
587.0576461211574
 30
0.0
 10
314.6788769725447
 20
585.3559539534126
 30
0.0
 10
312.1931995727154
 20
584.2111756718463
 30
0.0
 10
310.9503607012327
 20
583.6387864520474
 30
0.0
  0
LWPOLYLINE
  5
1AE
330
1F
100
AcDbEntity
  8
0
  6
Continuous
 62
     8
370
     0
100
AcDbPolyline
 90
       13
 70
   128
 43
0.0
 10
310.9503607012
 20
583.638786452
 10
309.6461812712
 20
584.9429509809
 10
308.3061198451
 20
586.2830273082
 10
306.9305042483
 20
587.658642905
 10
305.5197517134
 20
589.0693954399
 10
304.074279473
 20
590.5148527791
 10
302.5945345618
 20
591.9946125915
 10
301.08090441
 20
593.5082278421
 10
299.5338658549
 20
595.0552663972
 10
297.9538659312
 20
596.6352663209
 10
296.3413516738
 20
598.2477805784
 10
294.6968297221
 20
599.89230253
 10
293.020747111
 20
601.5683851411
  0
LWPOLYLINE
  5
1AF
330
1F
100
AcDbEntity
  8
0
  6
Continuous
 62
     8
370
     0
100
AcDbPolyline
 90
       17
 70
   128
 43
0.0
 10
80.9410582043
 20
813.6480740478
 10
79.342416928
 20
815.2467302253
 10
77.7724156834
 20
816.8167165687
 10
76.2315015055
 20
818.3576456478
 10
74.7200618245
 20
819.8690704276
 10
73.2384989716
 20
821.3506332805
 10
71.7872301795
 20
822.8019169738
 10
70.366627977
 20
824.2225042751
 10
68.9770648934
 20
825.6120673587
 10
67.6189134575
 20
826.9702187946
 10
66.2925312974
 20
828.2966009548
 10
64.9982909419
 20
829.5908562114
 10
63.7365202166
 20
830.8526269367
 10
62.5075618483
 20
832.081585305
 10
61.3117287613
 20
833.2774034908
 10
60.1493636824
 20
834.4397834709
 10
59.0207497336
 20
835.5683974197
  0
ARC
  5
1B0
330
1F
100
AcDbEntity
  8
0
  6
Continuous
 62
     8
370
     0
100
AcDbCircle
 10
317.9907642251
 20
575.8735416166
 30
0.0
 40
10.48171308198502
100
AcDbArc
 50
132.1972037511
 51
135.0049949342
  0
SPLINE
  5
1B1
330
1F
100
AcDbEntity
  8
0
  6
Continuous
 62
     8
370
     0
100
AcDbSpline
210
0.0
220
0.0
230
1.0
 70
     8
 71
     3
 72
    16
 73
    12
 74
     0
 42
0.00000001
 43
0.00000001
 12
1.0
 22
0.0
 32
0.0
 13
1.0
 23
0.0
 33
0.0
 40
0.0
 40
0.0
 40
0.0
 40
0.0
 40
0.1250000000000005
 40
0.1250000000000005
 40
0.2500000000000009
 40
0.2500000000000009
 40
0.5000000000000007
 40
0.5000000000000007
 40
0.7500000000000003
 40
0.7500000000000003
 40
1.0
 40
1.0
 40
1.0
 40
1.0
 10
-170.5958444636333
 20
576.1433547455672
 30
0.0
 10
-170.6665436601761
 20
578.1768289428966
 30
0.0
 10
-170.7359058285978
 20
580.1604293582168
 30
0.0
 10
-170.8693187821734
 20
584.0270033509214
 30
0.0
 10
-170.933165453003
 20
585.9042930007931
 30
0.0
 10
-171.1125758179978
 20
591.3560811104663
 30
0.0
 10
-171.2159408080596
 20
594.7568244510594
 30
0.0
 10
-171.3802506149545
 20
601.0909402229971
 30
0.0
 10
-171.4411771898622
 20
604.0243561771101
 30
0.0
 10
-171.5196034103651
 20
609.4099894519394
 30
0.0
 10
-171.5370934747164
 20
611.8623233720915
 30
0.0
 10
-171.5370934747164
 20
614.058978374165
 30
0.0
  0
ARC
  5
1B2
330
1F
100
AcDbEntity
  8
0
  6
Continuous
 62
     8
370
     0
100
AcDbCircle
 10
-180.269770319
 20
614.3437615291
 30
0.0
 40
8.737318106024095
100
AcDbArc
 50
268.2467513385
 51
358.132223726
  0
ARC
  5
1B3
330
1F
100
AcDbEntity
  8
0
  6
Continuous
 62
     8
370
     0
100
AcDbCircle
 10
324.7515940433
 20
582.5925357651
 30
0.0
 40
13.84083387162316
100
AcDbArc
 50
175.6647853915
 51
204.4651302027
  0
LWPOLYLINE
  5
1B4
330
1F
100
AcDbEntity
  8
0
  6
Continuous
 62
     8
370
     0
100
AcDbPolyline
 90
       29
 70
   128
 43
0.0
 10
378.7213484503
 20
614.4999853542
 10
378.4094075419
 20
614.0276632478
 10
378.1349877574
 20
613.5182074478
 10
377.8997282244
 20
612.9747770002
 10
377.7051190592
 20
612.4007097652
 10
377.5523523547
 20
611.7995522191
 10
377.4423519827
 20
611.1750296523
 10
377.3758331992
 20
610.5309865644
 10
377.3531536318
 20
609.8713866641
 10
377.374521897
 20
609.2003277709
 10
377.4397591807
 20
608.5219524076
 10
377.5484780528
 20
607.8404179981
 10
377.6999930598
 20
607.1599713733
 10
377.8933803298
 20
606.4847848585
 10
378.1274775721
 20
605.8190456798
 10
378.4007648684
 20
605.1668665578
 10
378.7116328932
 20
604.5322559049
 10
379.058084891
 20
603.9191327264
 10
379.4380645014
 20
603.3313117196
 10
379.8491577364
 20
602.7723840644
 10
380.288861201
 20
602.2458366325
 10
380.7544330813
 20
601.7548880746
 10
381.2430421568
 20
601.3025931289
 10
381.7516187884
 20
600.8917383125
 10
382.2770635344
 20
600.5248419216
 10
382.8161279418
 20
600.204198735
 10
383.3654741503
 20
599.931775706
 10
383.9217046954
 20
599.7092566659
 10
384.4813923098
 20
599.5380125215
  0
LINE
  5
1B5
330
1F
100
AcDbEntity
  8
FORMAT
100
AcDbLine
 10
-261.4778727759
 20
445.0902334621
 30
0.0
 11
476.6031964988
 21
445.0902334621
 31
0.0
  0
ARC
  5
1B6
330
1F
100
AcDbEntity
  8
0
  6
Continuous
 62
     7
370
    15
100
AcDbCircle
 10
195.2848037197
 20
-85.4000926531
 30
0.0
 40
203.9999999999999
100
AcDbArc
 50
42.9986097957
 51
57.7376840812
  0
ARC
  5
1B7
330
1F
100
AcDbEntity
  8
0
  6
Continuous
 62
     7
370
    15
100
AcDbCircle
 10
195.2848037197
 20
-85.4000926531
 30
0.0
 40
204.0
100
AcDbArc
 50
302.2623159188
 51
317.0013902043
  0
LINE
  5
1B8
330
1F
100
AcDbEntity
  8
0
  6
Continuous
 62
     7
370
    15
100
AcDbLine
 10
227.8521279551
 20
123.2584088527
 30
0.0
 11
178.6970714785
 21
119.2795752966
 31
0.0
  0
LINE
  5
1B9
330
1F
100
AcDbEntity
  8
0
  6
Continuous
 62
     7
370
    15
100
AcDbLine
 10
178.6970714785
 20
-290.0797606028
 30
0.0
 11
227.8521279551
 21
-294.058594159
 31
0.0
  0
LINE
  5
1BA
330
1F
100
AcDbEntity
  8
0
  6
Continuous
 62
     7
370
    15
100
AcDbLine
 10
249.7320393778
 20
123.599913665
 30
0.0
 11
236.2970034339
 21
123.599913665
 31
0.0
  0
LINE
  5
1BB
330
1F
100
AcDbEntity
  8
0
  6
Continuous
 62
     7
370
    15
100
AcDbLine
 10
236.2970034339
 20
-294.4000989712
 30
0.0
 11
249.7320393778
 21
-294.4000989712
 31
0.0
  0
LINE
  5
1BC
330
1F
100
AcDbEntity
  8
0
  6
Continuous
 62
     7
370
    15
100
AcDbLine
 10
182.6545218684
 20
119.5999055587
 30
0.0
 11
-78.6009116817
 21
119.5999055587
 31
0.0
  0
LINE
  5
1BD
330
1F
100
AcDbEntity
  8
0
  6
Continuous
 62
     7
370
    15
100
AcDbLine
 10
-78.6009116817
 20
-290.400090865
 30
0.0
 11
182.6545218684
 21
-290.400090865
 31
0.0
  0
LINE
  5
1BE
330
1F
100
AcDbEntity
  8
0
  6
Continuous
 62
     7
370
    15
100
AcDbLine
 10
459.4629327513
 20
-271.9000906266
 30
0.0
 11
462.4628941275
 21
-268.900099448
 31
0.0
  0
LINE
  5
1BF
330
1F
100
AcDbEntity
  8
0
  6
Continuous
 62
     7
370
    15
100
AcDbLine
 10
462.4628941275
 20
98.0999141418
 30
0.0
 11
459.4629327513
 21
101.0999053203
 31
0.0
  0
LINE
  5
1C0
330
1F
100
AcDbEntity
  8
0
  6
Continuous
 62
     7
370
    15
100
AcDbLine
 10
-234.5370878719
 20
101.0999053203
 30
0.0
 11
-237.5370939516
 21
98.0999141418
 31
0.0
  0
LINE
  5
1C1
330
1F
100
AcDbEntity
  8
0
  6
Continuous
 62
     7
370
    15
100
AcDbLine
 10
-237.5370939516
 20
-268.900099448
 30
0.0
 11
-234.5370878719
 21
-271.9000906266
 31
0.0
  0
ARC
  5
1C2
330
1F
100
AcDbEntity
  8
0
  6
Continuous
 62
     7
370
    15
100
AcDbCircle
 10
-204.0370934747
 20
94.5999073469
 30
0.0
 40
9.0
100
AcDbArc
 50
180.0
 51
270.0
  0
ARC
  5
1C3
330
1F
100
AcDbEntity
  8
0
  6
Continuous
 62
     7
370
    15
100
AcDbCircle
 10
-204.0370934747
 20
-265.4000926531
 30
0.0
 40
9.0
100
AcDbArc
 50
90.0
 51
180.0
  0
ARC
  5
1C4
330
1F
100
AcDbEntity
  8
0
  6
Continuous
 62
     7
370
    15
100
AcDbCircle
 10
428.9629065253
 20
-258.4000926531
 30
0.0
 40
9.000000000000057
100
AcDbArc
 50
0.0
 51
90.0
  0
ARC
  5
1C5
330
1F
100
AcDbEntity
  8
0
  6
Continuous
 62
     7
370
    15
100
AcDbCircle
 10
428.9629065253
 20
87.5999073469
 30
0.0
 40
9.000000000000014
100
AcDbArc
 50
270.0
 51
0.0
  0
LINE
  5
1C6
330
1F
100
AcDbEntity
  8
0
  6
Continuous
 62
     7
370
    15
100
AcDbLine
 10
-180.0841097973
 20
85.5999111616
 30
0.0
 11
-204.0370931171
 21
85.5999111616
 31
0.0
  0
LINE
  5
1C7
330
1F
100
AcDbEntity
  8
0
  6
Continuous
 62
     7
370
    15
100
AcDbLine
 10
-204.0370931171
 20
-256.4000964678
 30
0.0
 11
-180.0841097973
 21
-256.4000964678
 31
0.0
  0
LINE
  5
1C8
330
1F
100
AcDbEntity
  8
0
  6
Continuous
 62
     7
370
    15
100
AcDbLine
 10
428.9628783919
 20
78.5999118768
 30
0.0
 11
391.1069850184
 21
78.5999118768
 31
0.0
  0
LINE
  5
1C9
330
1F
100
AcDbEntity
  8
0
  6
Continuous
 62
     7
370
    15
100
AcDbLine
 10
391.1069850184
 20
-249.4000971831
 30
0.0
 11
428.9628783919
 21
-249.4000971831
 31
0.0
  0
SPLINE
  5
1CA
330
1F
100
AcDbEntity
  8
0
  6
Continuous
 62
     7
370
    15
100
AcDbSpline
210
0.0
220
0.0
230
1.0
 70
     8
 71
     3
 72
    37
 73
    33
 74
     0
 42
0.00000001
 43
0.00000001
 12
1.0
 22
0.0
 32
0.0
 13
1.0
 23
0.0
 33
0.0
 40
0.0
 40
0.0
 40
0.0
 40
0.0
 40
0.059543865714593
 40
0.1150527475672112
 40
0.166592505704507
 40
0.2143461172644081
 40
0.2585683265472305
 40
0.3059273365390062
 40
0.343783606784805
 40
0.3794555167330609
 40
0.4130933179391211
 40
0.4449867658448567
 40
0.4754132651325343
 40
0.5046350213232949
 40
0.5328973492013482
 40
0.5604258320777262
 40
0.5874240093489941
 40
0.6170607523174961
 40
0.64642327310757
 40
0.6756062983926326
 40
0.704726449439304
 40
0.7338301749471442
 40
0.7629280544988499
 40
0.792003967411187
 40
0.8210183564319047
 40
0.8499239192306615
 40
0.8786789394428537
 40
0.9072540561231223
 40
0.9356341052853598
 40
0.9638150613111288
 40
0.9918017601717005
 40
0.9999999999999999
 40
0.9999999999999999
 40
0.9999999999999999
 40
0.9999999999999999
 10
-171.537176265568
 20
93.1272327386542
 30
0.0
 10
-171.537292575489
 20
93.10905835315134
 30
0.0
 10
-171.5375173136013
 20
93.07394116748729
 30
0.0
 10
-171.5415953303394
 20
92.9742746193026
 30
0.0
 10
-171.5510684201185
 20
92.84513373679756
 30
0.0
 10
-171.5677778754331
 20
92.68674308549579
 30
0.0
 10
-171.5947000821666
 20
92.49329913208764
 30
0.0
 10
-171.6333323238011
 20
92.27370050366481
 30
0.0
 10
-171.6856837288892
 20
92.0309319732931
 30
0.0
 10
-171.749245607239
 20
91.78023253391216
 30
0.0
 10
-171.8285986686512
 20
91.51021479502388
 30
0.0
 10
-171.9255509745305
 20
91.2224393022156
 30
0.0
 10
-172.0420392061617
 20
90.91821909106204
 30
0.0
 10
-172.1801846444606
 20
90.59881105094844
 30
0.0
 10
-172.3422811326975
 20
90.26549539676179
 30
0.0
 10
-172.5307636455034
 20
89.9197897155064
 30
0.0
 10
-172.7561202655699
 20
89.55042948778669
 30
0.0
 10
-173.0252372794878
 20
89.15829493021974
 30
0.0
 10
-173.3453085575881
 20
88.7468259698768
 30
0.0
 10
-173.7084857090482
 20
88.33575641183009
 30
0.0
 10
-174.1154330049467
 20
87.93145700763542
 30
0.0
 10
-174.5657603827729
 20
87.54083712121094
 30
0.0
 10
-175.0574705972836
 20
87.1710061543321
 30
0.0
 10
-175.5871723594527
 20
86.82894446468151
 30
0.0
 10
-176.1502025754888
 20
86.52087734604913
 30
0.0
 10
-176.7409939288252
 20
86.2521453637807
 30
0.0
 10
-177.3534303924916
 20
86.02659896319092
 30
0.0
 10
-177.9812668803127
 20
85.8473277249159
 30
0.0
 10
-178.618526362697
 20
85.7146111917253
 30
0.0
 10
-179.2587805055093
 20
85.63319216133853
 30
0.0
 10
-179.7490998224666
 20
85.59739928817409
 30
0.0
 10
-180.0221919761316
 20
85.60335905993111
 30
0.0
 10
-180.0840650938456
 20
85.60470933548648
 30
0.0
  0
SPLINE
  5
1CB
330
1F
100
AcDbEntity
  8
0
  6
Continuous
 62
     7
370
    15
100
AcDbSpline
210
0.0
220
0.0
230
1.0
 70
     8
 71
     3
 72
    38
 73
    34
 74
     0
 42
0.00000001
 43
0.00000001
 12
1.0
 22
0.0
 32
0.0
 13
1.0
 23
0.0
 33
0.0
 40
0.0
 40
0.0
 40
0.0
 40
0.0
 40
0.0109457902024717
 40
0.0398206615696449
 40
0.0684974391288588
 40
0.096973212588937
 40
0.1252518240454714
 40
0.1533422353467566
 40
0.1812526582856255
 40
0.2089905812417448
 40
0.2365624382307366
 40
0.2639744640987347
 40
0.2912400712092874
 40
0.3183837982868949
 40
0.3454513135715283
 40
0.3725133428221182
 40
0.3996468067600452
 40
0.4269774789185011
 40
0.454661521584077
 40
0.4828830932872307
 40
0.5118512763442373
 40
0.5417961521095945
 40
0.5729656831470735
 40
0.6056240936113465
 40
0.6400497281387648
 40
0.6765329196198023
 40
0.7153733365614594
 40
0.7569044639094731
 40
0.8031060149285622
 40
0.8511533607283717
 40
0.9031025299023734
 40
0.9590916454888389
 40
1.0
 40
1.0
 40
1.0
 40
1.0
 10
-180.0841023467486
 20
-256.4058781183557
 30
0.0
 10
-180.0023117300089
 20
-256.4044053696342
 30
0.0
 10
-179.7047583868042
 20
-256.3990475263599
 30
0.0
 10
-179.1885551910987
 20
-256.4398705100111
 30
0.0
 10
-178.5445214391515
 20
-256.5276756549491
 30
0.0
 10
-177.9130919845928
 20
-256.6648186381531
 30
0.0
 10
-177.2998303076259
 20
-256.844960477588
 30
0.0
 10
-176.7092118952347
 20
-257.0661165470277
 30
0.0
 10
-176.1454261596145
 20
-257.3243278666096
 30
0.0
 10
-175.6121084336393
 20
-257.615328208861
 30
0.0
 10
-175.1124098235339
 20
-257.9342894167333
 30
0.0
 10
-174.6488445692953
 20
-258.2758686723577
 30
0.0
 10
-174.2231668469219
 20
-258.6345005308731
 30
0.0
 10
-173.8362709792587
 20
-259.0044917953798
 30
0.0
 10
-173.4881372690207
 20
-259.3803988197353
 30
0.0
 10
-173.1779625968566
 20
-259.7571165141197
 30
0.0
 10
-172.9041724521807
 20
-260.1301475634526
 30
0.0
 10
-172.6646058447032
 20
-260.4957976153913
 30
0.0
 10
-172.4566545188769
 20
-260.8511910235546
 30
0.0
 10
-172.2775690708467
 20
-261.1941214751567
 30
0.0
 10
-172.1246066009669
 20
-261.5229600359024
 30
0.0
 10
-171.9951323381536
 20
-261.8364245085091
 30
0.0
 10
-171.8867308468633
 20
-262.13341528786
 30
0.0
 10
-171.7971757918664
 20
-262.4129454844405
 30
0.0
 10
-171.7244360882038
 20
-262.6738076761336
 30
0.0
 10
-171.6666040429715
 20
-262.915226557161
 30
0.0
 10
-171.6222122170604
 20
-263.1339434190529
 30
0.0
 10
-171.5878683619047
 20
-263.3388113005419
 30
0.0
 10
-171.564154625411
 20
-263.5175225529663
 30
0.0
 10
-171.5489501005819
 20
-263.6701866744719
 30
0.0
 10
-171.5406955633301
 20
-263.7917849779199
 30
0.0
 10
-171.5375627950897
 20
-263.8762839241397
 30
0.0
 10
-171.537458651628
 20
-263.9033535535843
 30
0.0
 10
-171.5374146841471
 20
-263.9147818601922
 30
0.0
  0
LINE
  5
1CC
330
1F
100
AcDbEntity
  8
0
  6
Continuous
 62
     7
370
    15
100
AcDbLine
 10
-80.1247703165
 20
119.5936321699
 30
0.0
 11
-80.5249968797
 21
119.5910691702
 31
0.0
  0
SPLINE
  5
1CD
330
1F
100
AcDbEntity
  8
0
  6
Continuous
 62
     7
370
    15
100
AcDbSpline
210
0.0
220
0.0
230
1.0
 70
     8
 71
     3
 72
    18
 73
    14
 74
     0
 42
0.00000001
 43
0.00000001
 12
1.0
 22
0.0
 32
0.0
 13
1.0
 23
0.0
 33
0.0
 40
0.0
 40
0.0
 40
0.0
 40
0.0
 40
0.0456198711501279
 40
0.1484643940996547
 40
0.2512452419810514
 40
0.3539283732792964
 40
0.4564807031099917
 40
0.5588693177885151
 40
0.661061606021119
 40
0.7630250129583872
 40
0.8647272916732757
 40
0.966136634988231
 40
1.0
 40
1.0
 40
1.0
 40
1.0
 10
-80.52947700694251
 20
119.5874779903098
 30
0.0
 10
-81.5887218183008
 20
119.5820108974854
 30
0.0
 10
-85.03590689701332
 20
119.5642189002002
 30
0.0
 10
-90.86936402900747
 20
119.4987679936977
 30
0.0
 10
-98.0271869926975
 20
119.3744503082518
 30
0.0
 10
-105.177423073829
 20
119.2020170095133
 30
0.0
 10
-112.3174950273403
 20
118.982670431509
 30
0.0
 10
-119.4448613638857
 20
118.7162979639143
 30
0.0
 10
-126.5569859855507
 20
118.4030428016968
 30
0.0
 10
-133.6513699112619
 20
118.0433383038165
 30
0.0
 10
-140.7254744528697
 20
117.6367384885
 30
0.0
 10
-146.2187335251652
 20
117.2854755477264
 30
0.0
 10
-149.3535582162279
 20
117.0688916302582
 30
0.0
 10
-150.1383115790789
 20
117.0146733009024
 30
0.0
  0
SPLINE
  5
1CE
330
1F
100
AcDbEntity
  8
0
  6
Continuous
 62
     7
370
    15
100
AcDbSpline
210
0.0
220
0.0
230
1.0
 70
     8
 71
     3
 72
    10
 73
     6
 74
     0
 42
0.00000001
 43
0.00000001
 12
1.0
 22
0.0
 32
0.0
 13
1.0
 23
0.0
 33
0.0
 40
0.0
 40
0.0
 40
0.0
 40
0.0
 40
0.1774503897772678
 40
0.9812416178406785
 40
1.0
 40
1.0
 40
1.0
 40
1.0
 10
-79.56135508343625
 20
119.5958226405784
 30
0.0
 10
-79.5940277213166
 20
119.5956040348755
 30
0.0
 10
-79.7746965386299
 20
119.5943952180683
 30
0.0
 10
-79.96407405221568
 20
119.5927041192047
 30
0.0
 10
-80.12550290763501
 20
119.5911784686802
 30
0.0
 10
-80.12918431982446
 20
119.5911436759635
 30
0.0
  0
LINE
  5
1CF
330
1F
100
AcDbEntity
  8
0
  6
Continuous
 62
     7
370
    15
100
AcDbLine
 10
-79.5053346336
 20
119.5962100708
 30
0.0
 11
-79.5613550834
 21
119.5958226406
 31
0.0
  0
SPLINE
  5
1D0
330
1F
100
AcDbEntity
  8
0
  6
Continuous
 62
     7
370
    15
100
AcDbSpline
210
0.0
220
0.0
230
1.0
 70
     8
 71
     3
 72
    18
 73
    14
 74
     0
 42
0.00000001
 43
0.00000001
 12
1.0
 22
0.0
 32
0.0
 13
1.0
 23
0.0
 33
0.0
 40
0.0
 40
0.0
 40
0.0
 40
0.0
 40
0.0538270615566522
 40
0.1551169065445632
 40
0.2566600050540145
 40
0.3584808248902179
 40
0.4605473457020996
 40
0.5628274429048797
 40
0.6652885990340065
 40
0.7678981584345502
 40
0.8706232190878292
 40
0.9734307637827342
 40
1.0
 40
1.0
 40
1.0
 40
1.0
 10
-150.1383115790789
 20
-287.8148586071329
 30
0.0
 10
-148.8908894719532
 20
-287.9005600384079
 30
0.0
 10
-145.2961129261631
 20
-288.1475313669808
 30
0.0
 10
-139.3461147998457
 20
-288.5197339818371
 30
0.0
 10
-132.2813576702726
 20
-288.9166846073115
 30
0.0
 10
-125.1965204330496
 20
-289.2668019790246
 30
0.0
 10
-118.0928195311089
 20
-289.5706273073351
 30
0.0
 10
-110.9727384642157
 20
-289.8277899789359
 30
0.0
 10
-103.8387903259507
 20
-290.0380488916491
 30
0.0
 10
-96.69350500230244
 20
-290.2014904162859
 30
0.0
 10
-89.53942339726942
 20
-290.3170253833674
 30
0.0
 10
-84.15038376597143
 20
-290.3706040011003
 30
0.0
 10
-81.14638977103084
 20
-290.3850782482863
 30
0.0
 10
-80.52947980091024
 20
-290.3880507267313
 30
0.0
  0
LINE
  5
1D1
330
1F
100
AcDbEntity
  8
0
  6
Continuous
 62
     7
370
    15
100
AcDbLine
 10
-80.525118883
 20
-290.3911948717
 30
0.0
 11
-80.1214524798
 21
-290.3920144356
 31
0.0
  0
SPLINE
  5
1D2
330
1F
100
AcDbEntity
  8
0
  6
Continuous
 62
     7
370
    15
100
AcDbSpline
210
0.0
220
0.0
230
1.0
 70
     8
 71
     3
 72
     9
 73
     5
 74
     0
 42
0.00000001
 43
0.00000001
 12
1.0
 22
0.0
 32
0.0
 13
1.0
 23
0.0
 33
0.0
 40
0.0
 40
0.0
 40
0.0
 40
0.0
 40
0.5907304280830986
 40
1.0
 40
1.0
 40
1.0
 40
1.0
 10
-80.12310976833153
 20
-290.3913438833551
 30
0.0
 10
-79.99874148989095
 20
-290.3925030884629
 30
0.0
 10
-79.78820844041837
 20
-290.3944654134976
 30
0.0
 10
-79.58776295741477
 20
-290.3958137440212
 30
0.0
 10
-79.50572672039318
 20
-290.3963655746774
 30
0.0
  0
SPLINE
  5
1D3
330
1F
100
AcDbEntity
  8
0
  6
Continuous
 62
     7
370
    15
100
AcDbSpline
210
0.0
220
0.0
230
1.0
 70
     8
 71
     3
 72
    10
 73
     6
 74
     0
 42
0.00000001
 43
0.00000001
 12
1.0
 22
0.0
 32
0.0
 13
1.0
 23
0.0
 33
0.0
 40
0.0
 40
0.0
 40
0.0
 40
0.0
 40
0.392373764526065
 40
0.8471404931663635
 40
0.9999999999999999
 40
0.9999999999999999
 40
0.9999999999999999
 40
0.9999999999999999
 10
-78.89935167245615
 20
119.5992946111365
 30
0.0
 10
-78.97237560752754
 20
119.5990475421985
 30
0.0
 10
-79.13003531355825
 20
119.5985141168755
 30
0.0
 10
-79.33613781467089
 20
119.5973712913982
 30
0.0
 10
-79.47227441502014
 20
119.5964434789751
 30
0.0
 10
-79.5065220698719
 20
119.5962100707694
 30
0.0
  0
SPLINE
  5
1D4
330
1F
100
AcDbEntity
  8
0
  6
Continuous
 62
     7
370
    15
100
AcDbSpline
210
0.0
220
0.0
230
1.0
 70
     8
 71
     3
 72
    11
 73
     7
 74
     0
 42
0.00000001
 43
0.00000001
 12
1.0
 22
0.0
 32
0.0
 13
1.0
 23
0.0
 33
0.0
 40
0.0
 40
0.0
 40
0.0
 40
0.0
 40
0.0925849139294153
 40
0.4703116440204153
 40
0.9595301634632634
 40
1.0
 40
1.0
 40
1.0
 40
1.0
 10
-79.50630274340558
 20
-290.396410278161
 30
0.0
 10
-79.4858764475096
 20
-290.3965519048814
 30
0.0
 10
-79.38211521475172
 20
-290.3972713384575
 30
0.0
 10
-79.18994554093439
 20
-290.3983365106683
 30
0.0
 10
-79.01186234207653
 20
-290.3992648388166
 30
0.0
 10
-78.92065532212811
 20
-290.3994508076119
 30
0.0
 10
-78.91368682235527
 20
-290.3994650162057
 30
0.0
  0
ARC
  5
1D5
330
1F
100
AcDbEntity
  8
0
  6
Continuous
 62
     7
370
    15
100
AcDbCircle
 10
-148.5370934747
 20
94.0704847343
 30
0.0
 40
23.00000000000003
100
AcDbArc
 50
93.9920621694
 51
180.0
  0
ARC
  5
1D6
330
1F
100
AcDbEntity
  8
0
  6
Continuous
 62
     7
370
    15
100
AcDbCircle
 10
-148.5370934747
 20
-264.8706700405
 30
0.0
 40
23.00000000000003
100
AcDbArc
 50
180.0
 51
266.0079378306
  0
LWPOLYLINE
  5
1D7
330
1F
100
AcDbEntity
  8
0
  6
Continuous
 62
     7
370
    15
100
AcDbPolyline
 90
       44
 70
   128
 43
0.0
 10
230.4155747153
 20
50.8853166782
 10
231.5427283503
 20
50.5774735891
 10
232.6622227885
 20
50.2180575811
 10
233.7728659369
 20
49.8074113809
 10
234.8735253073
 20
49.3460118257
 10
235.9629790045
 20
48.8343059503
 10
237.0401243426
 20
48.2728450977
 10
238.1038288333
 20
47.6622402155
 10
239.1529301859
 20
47.0031022512
 10
240.1863555171
 20
46.2961613619
 10
241.2030021407
 20
45.5421328031
 10
242.2018269755
 20
44.7418212377
 10
243.1817273356
 20
43.896090933
 10
244.1417197444
 20
43.0057912552
 10
245.0807313181
 20
42.0719056808
 10
245.997838185
 20
41.0953878843
 10
246.8920270659
 20
40.0772809469
 10
247.7624038912
 20
39.0186577522
 10
248.6079851843
 20
37.9206284367
 10
249.4279364802
 20
36.784355291
 10
250.2213637091
 20
35.6110378586
 10
250.9874324061
 20
34.4019054853
 10
251.7253379084
 20
33.1582396709
 10
252.4343053557
 20
31.8813442671
 10
253.1135896899
 20
30.57258273
 10
253.7624458529
 20
29.2333110654
 10
254.380247996
 20
27.8649597847
 10
254.9663106658
 20
26.46896685
 10
255.5200080134
 20
25.0468000256
 10
256.0407439925
 20
23.5999568783
 10
256.5280119635
 20
22.1299722277
 10
256.981305287
 20
20.638388344
 10
257.4000875212
 20
19.1267772996
 10
257.7839414336
 20
17.5967409693
 10
258.1324795939
 20
16.0498812281
 10
258.445314572
 20
14.4878372037
 10
258.7221483447
 20
12.9122554742
 10
258.962623284
 20
11.3247900688
 10
259.1665605761
 20
9.7271173679
 10
259.3337218024
 20
8.1209286534
 10
259.4638983466
 20
6.5079152071
 10
259.5570008017
 20
4.8897683107
 10
259.6128801562
 20
3.2682015978
 10
259.6315066077
 20
1.644928702
  0
LINE
  5
1D8
330
1F
100
AcDbEntity
  8
0
  6
Continuous
 62
     7
370
    15
100
AcDbLine
 10
259.6315066077
 20
1.644928702
 30
0.0
 11
259.6315066077
 21
-172.4451140083
 31
0.0
  0
LWPOLYLINE
  5
1D9
330
1F
100
AcDbEntity
  8
0
  6
Continuous
 62
     7
370
    15
100
AcDbPolyline
 90
       44
 70
   128
 43
0.0
 10
259.6315066077
 20
-172.4451140083
 10
259.6128801562
 20
-174.0683869041
 10
259.5570008017
 20
-175.6899536169
 10
259.4638983466
 20
-177.3081005133
 10
259.3337218024
 20
-178.9211139596
 10
259.1665605761
 20
-180.5273026741
 10
258.962623284
 20
-182.124975375
 10
258.7221483447
 20
-183.7124407805
 10
258.445314572
 20
-185.2880225099
 10
258.1324795939
 20
-186.8500665344
 10
257.7839414336
 20
-188.3969262756
 10
257.4000875212
 20
-189.9269626058
 10
256.981305287
 20
-191.4385736502
 10
256.5280119635
 20
-192.930157534
 10
256.0407439925
 20
-194.4001421846
 10
255.5200080134
 20
-195.8469853319
 10
254.9663106658
 20
-197.2691521562
 10
254.380247996
 20
-198.6651450909
 10
253.7624458529
 20
-200.0334963716
 10
253.1135896899
 20
-201.3727680362
 10
252.4343053557
 20
-202.6815295733
 10
251.7253379084
 20
-203.9584249771
 10
250.9874324061
 20
-205.2020907915
 10
250.2213637091
 20
-206.4112231649
 10
249.4279364802
 20
-207.5845405973
 10
248.6079851843
 20
-208.720813743
 10
247.7624038912
 20
-209.8188430584
 10
246.8920270659
 20
-210.8774662531
 10
245.997838185
 20
-211.8955731905
 10
245.0807313181
 20
-212.872090987
 10
244.1417197444
 20
-213.8059765614
 10
243.1817273356
 20
-214.6962762392
 10
242.2018269755
 20
-215.542006544
 10
241.2030021407
 20
-216.3423181094
 10
240.1863555171
 20
-217.0963466681
 10
239.1529301859
 20
-217.8032875574
 10
238.1038288333
 20
-218.4624255217
 10
237.0401243426
 20
-219.0730304039
 10
235.9629790045
 20
-219.6344912566
 10
234.8735253073
 20
-220.146197132
 10
233.7728659369
 20
-220.6075966872
 10
232.6622227885
 20
-221.0182428873
 10
231.5427283503
 20
-221.3776588953
 10
230.4155747153
 20
-221.6855019844
  0
LINE
  5
1DA
330
1F
100
AcDbEntity
  8
0
  6
Continuous
 62
     7
370
    15
100
AcDbLine
 10
230.4155747153
 20
-221.6855019844
 30
0.0
 11
168.7682936646
 21
-237.0581061161
 31
0.0
  0
LINE
  5
1DB
330
1F
100
AcDbEntity
  8
0
  6
Continuous
 62
     7
370
    15
100
AcDbLine
 10
168.7682936646
 20
-235.6557131327
 30
0.0
 11
168.7682936646
 21
-237.0581061161
 31
0.0
  0
LWPOLYLINE
  5
1DC
330
1F
100
AcDbEntity
  8
0
  6
Continuous
 62
     7
370
    15
100
AcDbPolyline
 90
      121
 70
   128
 43
0.0
 10
168.7682936646
 20
64.8555278265
 10
170.7020471551
 20
63.4223639452
 10
172.6169208743
 20
61.9394450866
 10
174.5123187758
 20
60.407248088
 10
176.3875703074
 20
58.8262795889
 10
178.2420794226
 20
57.1970909321
 10
180.0752202727
 20
55.5202185594
 10
181.8863670088
 20
53.7962287151
 10
183.6749235846
 20
52.025672742
 10
185.4402641512
 20
50.209176489
 10
187.1818522669
 20
48.3473211013
 10
188.8990322806
 20
46.4407324278
 10
190.5912975527
 20
44.4900661194
 10
192.2580818392
 20
42.4959629261
 10
193.8987592913
 20
40.459078499
 10
195.5128530718
 20
38.3801131927
 10
197.0997969367
 20
36.2597599112
 10
198.659054444
 20
34.0987115585
 10
200.190089152
 20
31.897705742
 10
201.6924242236
 20
29.6574800693
 10
203.1655530192
 20
27.3787721478
 10
204.6089390971
 20
25.0623493873
 10
206.0221652247
 20
22.7089866482
 10
207.4046949603
 20
20.3194736921
 10
208.7561110713
 20
17.8946002804
 10
210.0759665228
 20
15.4351934277
 10
211.3637844779
 20
12.9420577966
 10
212.6191477038
 20
10.4160353028
 10
213.8416389681
 20
7.8579753124
 10
215.0308410384
 20
5.2687271916
 10
216.1863664843
 20
2.6491626584
 10
217.3078576781
 20
0.00014598
 10
218.3948675849
 20
-2.6774213231
 10
219.4470981814
 20
-5.3826600827
 10
220.4641620375
 20
-8.1146538771
 10
221.4457313277
 20
-10.8724862851
 10
222.3914782263
 20
-13.6552483357
 10
223.3011047103
 20
-16.4620087064
 10
224.1742531516
 20
-19.2918137229
 10
225.0106851317
 20
-22.1437246121
 10
225.8101026274
 20
-25.0167988754
 10
226.5722374178
 20
-27.9100604869
 10
227.2968212821
 20
-30.8225445963
 10
227.9836456038
 20
-33.7532826281
 10
228.6324421622
 20
-36.7012948311
 10
229.2430321433
 20
-39.665590278
 10
229.8151473261
 20
-42.6451780415
 10
230.3486685015
 20
-45.6390634693
 10
230.8434168555
 20
-48.6462481833
 10
231.2991539694
 20
-51.6657226301
 10
231.7157904364
 20
-54.6964772559
 10
232.0931772448
 20
-57.7375006444
 10
232.431165383
 20
-60.7877739287
 10
232.729665444
 20
-63.846278242
 10
232.9885582186
 20
-66.9119909919
 10
233.2077542998
 20
-69.9838867924
 10
233.3872238852
 20
-73.0609365321
 10
233.5268775679
 20
-76.1421129621
 10
233.6266557433
 20
-79.2263860396
 10
233.6865286089
 20
-82.312722928
 10
233.7064961649
 20
-85.4000926531
 10
233.6865286089
 20
-88.4874623782
 10
233.6266557433
 20
-91.5737992666
 10
233.5268775679
 20
-94.6580723441
 10
233.3872238852
 20
-97.7392487741
 10
233.2077542998
 20
-100.8162985138
 10
232.9885582186
 20
-103.8881943143
 10
232.729665444
 20
-106.9539070643
 10
232.431165383
 20
-110.0124113775
 10
232.0931772448
 20
-113.0626846618
 10
231.7157904364
 20
-116.1037080503
 10
231.2991539694
 20
-119.1344626761
 10
230.8434168555
 20
-122.1539371229
 10
230.3486685015
 20
-125.161121837
 10
229.8151473261
 20
-128.1550072647
 10
229.2430321433
 20
-131.1345950282
 10
228.6324421622
 20
-134.0988904751
 10
227.9836456038
 20
-137.0469026781
 10
227.2968212821
 20
-139.97764071
 10
226.5722374178
 20
-142.8901248194
 10
225.8101026274
 20
-145.7833864308
 10
225.0106851317
 20
-148.6564606942
 10
224.1742531516
 20
-151.5083715833
 10
223.3011047103
 20
-154.3381765998
 10
222.3914782263
 20
-157.1449369706
 10
221.4457313277
 20
-159.9276990212
 10
220.4641620375
 20
-162.6855314291
 10
219.4470981814
 20
-165.4175252236
 10
218.3948675849
 20
-168.1227639831
 10
217.3078576781
 20
-170.8003312863
 10
216.1863664843
 20
-173.4493479646
 10
215.0308410384
 20
-176.0689124978
 10
213.8416389681
 20
-178.6581606186
 10
212.6191477038
 20
-181.216220609
 10
211.3637844779
 20
-183.7422431029
 10
210.0759665228
 20
-186.235378734
 10
208.7561110713
 20
-188.6947855867
 10
207.4046949603
 20
-191.1196589983
 10
206.0221652247
 20
-193.5091719545
 10
204.6089390971
 20
-195.8625346936
 10
203.1655530192
 20
-198.178957454
 10
201.6924242236
 20
-200.4576653756
 10
200.190089152
 20
-202.6978910483
 10
198.659054444
 20
-204.8988968647
 10
197.0997969367
 20
-207.0599452175
 10
195.5128530718
 20
-209.1802984989
 10
193.8987592913
 20
-211.2592638052
 10
192.2580818392
 20
-213.2961482323
 10
190.5912975527
 20
-215.2902514256
 10
188.8990322806
 20
-217.240917734
 10
187.1818522669
 20
-219.1475064076
 10
185.4402641512
 20
-221.0093617953
 10
183.6749235846
 20
-222.8258580483
 10
181.8863670088
 20
-224.5964140213
 10
180.0752202727
 20
-226.3204038657
 10
178.2420794226
 20
-227.9972762383
 10
176.3875703074
 20
-229.6264648951
 10
174.5123187758
 20
-231.2074333943
 10
172.6169208743
 20
-232.7396303929
 10
170.7020471551
 20
-234.2225492514
 10
168.7682936646
 20
-235.6557131327
  0
LINE
  5
1DD
330
1F
100
AcDbEntity
  8
0
  6
Continuous
 62
     7
370
    15
100
AcDbLine
 10
168.7682936646
 20
66.2579208099
 30
0.0
 11
168.7682936646
 21
64.8555278265
 31
0.0
  0
LINE
  5
1DE
330
1F
100
AcDbEntity
  8
0
  6
Continuous
 62
     7
370
    15
100
AcDbLine
 10
168.7682936646
 20
66.2579208099
 30
0.0
 11
230.4155747153
 21
50.8853166782
 31
0.0
  0
LWPOLYLINE
  5
1DF
330
1F
100
AcDbEntity
  8
0
  6
Continuous
 62
     7
370
    15
100
AcDbPolyline
 90
       44
 70
   128
 43
0.0
 10
236.7795328356
 20
50.8853166782
 10
237.9066864707
 20
50.5774735891
 10
239.0261809088
 20
50.2180575811
 10
240.1368240573
 20
49.8074113809
 10
241.2374834277
 20
49.3460118257
 10
242.3269371249
 20
48.8343059503
 10
243.4040824629
 20
48.2728450977
 10
244.4677869536
 20
47.6622402155
 10
245.5168883063
 20
47.0031022512
 10
246.5503136374
 20
46.2961613619
 10
247.5669900633
 20
45.5421328031
 10
248.5657850958
 20
44.7418212377
 10
249.5456854559
 20
43.896090933
 10
250.5056778647
 20
43.0057912552
 10
251.4446894385
 20
42.0719056808
 10
252.3617963053
 20
41.0953878843
 10
253.2559851862
 20
40.0772809469
 10
254.1263620116
 20
39.0186577522
 10
254.9719433047
 20
37.9206284367
 10
255.7918946005
 20
36.784355291
 10
256.5853218295
 20
35.6110378586
 10
257.3513905264
 20
34.4019054853
 10
258.0892960288
 20
33.1582396709
 10
258.798263476
 20
31.8813442671
 10
259.4775478102
 20
30.57258273
 10
260.1264039733
 20
29.2333110654
 10
260.7442061163
 20
27.8649597847
 10
261.3302687861
 20
26.46896685
 10
261.8839661337
 20
25.0468000256
 10
262.4047319151
 20
23.5999568783
 10
262.8919998862
 20
22.1299722277
 10
263.3452634074
 20
20.638388344
 10
263.7640456416
 20
19.1267772996
 10
264.1478995539
 20
17.5967409693
 10
264.4964377142
 20
16.0498812281
 10
264.8092726924
 20
14.4878372037
 10
265.086106465
 20
12.9122554742
 10
265.3266112067
 20
11.3247900688
 10
265.5305186965
 20
9.7271173679
 10
265.6976799227
 20
8.1209286534
 10
265.8278564669
 20
6.5079152071
 10
265.9209589221
 20
4.8897683107
 10
265.9768382765
 20
3.2682015978
 10
265.9954945303
 20
1.644928702
  0
LINE
  5
1E0
330
1F
100
AcDbEntity
  8
0
  6
Continuous
 62
     7
370
    15
100
AcDbLine
 10
265.9954945303
 20
1.644928702
 30
0.0
 11
265.9954945303
 21
-172.4451140083
 31
0.0
  0
LWPOLYLINE
  5
1E1
330
1F
100
AcDbEntity
  8
0
  6
Continuous
 62
     7
370
    15
100
AcDbPolyline
 90
       44
 70
   128
 43
0.0
 10
265.9954945303
 20
-172.4451140083
 10
265.9768382765
 20
-174.0683869041
 10
265.9209589221
 20
-175.6899536169
 10
265.8278564669
 20
-177.3081005133
 10
265.6976799227
 20
-178.9211139596
 10
265.5305186965
 20
-180.5273026741
 10
265.3266112067
 20
-182.124975375
 10
265.086106465
 20
-183.7124407805
 10
264.8092726924
 20
-185.2880225099
 10
264.4964377142
 20
-186.8500665344
 10
264.1478995539
 20
-188.3969262756
 10
263.7640456416
 20
-189.9269626058
 10
263.3452634074
 20
-191.4385736502
 10
262.8919998862
 20
-192.930157534
 10
262.4047319151
 20
-194.4001421846
 10
261.8839661337
 20
-195.8469853319
 10
261.3302687861
 20
-197.2691521562
 10
260.7442061163
 20
-198.6651450909
 10
260.1264039733
 20
-200.0334963716
 10
259.4775478102
 20
-201.3727680362
 10
258.798263476
 20
-202.6815295733
 10
258.0892960288
 20
-203.9584249771
 10
257.3513905264
 20
-205.2020907915
 10
256.5853218295
 20
-206.4112231649
 10
255.7918946005
 20
-207.5845405973
 10
254.9719433047
 20
-208.720813743
 10
254.1263620116
 20
-209.8188430584
 10
253.2559851862
 20
-210.8774662531
 10
252.3617963053
 20
-211.8955731905
 10
251.4446894385
 20
-212.872090987
 10
250.5056778647
 20
-213.8059765614
 10
249.5456854559
 20
-214.6962762392
 10
248.5657850958
 20
-215.542006544
 10
247.5669900633
 20
-216.3423181094
 10
246.5503136374
 20
-217.0963466681
 10
245.5168883063
 20
-217.8032875574
 10
244.4677869536
 20
-218.4624255217
 10
243.4040824629
 20
-219.0730304039
 10
242.3269371249
 20
-219.6344912566
 10
241.2374834277
 20
-220.146197132
 10
240.1368240573
 20
-220.6075966872
 10
239.0261809088
 20
-221.0182428873
 10
237.9066864707
 20
-221.3776588953
 10
236.7795328356
 20
-221.6855019844
  0
LWPOLYLINE
  5
1E2
330
1F
100
AcDbEntity
  8
0
  6
Continuous
 62
     7
370
    15
100
AcDbPolyline
 90
      111
 70
   128
 43
0.0
 10
168.7682936646
 20
-235.6557131327
 10
167.0031766154
 20
-233.720275811
 10
165.2611861683
 20
-231.7433834589
 10
163.5428140618
 20
-229.725557617
 10
161.8485371329
 20
-227.6673943318
 10
160.1788322188
 20
-225.5694598473
 10
158.5341612555
 20
-223.4323353089
 10
156.9150010802
 20
-221.2566316641
 10
155.3217689253
 20
-219.0429300583
 10
153.7549416281
 20
-216.7918712414
 10
152.2149513222
 20
-214.504066161
 10
150.7022152402
 20
-212.1801853693
 10
149.2171655156
 20
-209.8208547152
 10
147.760219381
 20
-207.4267373002
 10
146.3317791678
 20
-204.9985036767
 10
144.9322472073
 20
-202.5368318475
 10
143.5620258309
 20
-200.0424147166
 10
142.2214726664
 20
-197.5159451879
 10
140.9109900452
 20
-194.9581310666
 10
139.630920694
 20
-192.3696876086
 10
138.3816371419
 20
-189.75133752
 10
137.1634821154
 20
-187.1038109577
 10
135.9767983414
 20
-184.42785298
 10
134.8219285466
 20
-181.7242160953
 10
133.6991707541
 20
-178.9936379112
 10
132.6088527896
 20
-176.2369007386
 10
131.5512875773
 20
-173.4547645367
 10
130.5267582394
 20
-170.6480116165
 10
129.5355627991
 20
-167.8174242891
 10
128.5779545762
 20
-164.9637997664
 10
127.6542315938
 20
-162.08792781
 10
126.7646322705
 20
-159.1906130827
 10
125.9094099261
 20
-156.2726751483
 10
125.0888178803
 20
-153.3349186695
 10
124.3030647494
 20
-150.3781706608
 10
123.5523740508
 20
-147.4032544113
 10
122.8369693018
 20
-144.411004386
 10
122.1570293166
 20
-141.4022587753
 10
121.5127627112
 20
-138.3778557695
 10
120.9043482997
 20
-135.3386372841
 10
120.3319499947
 20
-132.2854638613
 10
119.795716808
 20
-129.2191774166
 10
119.2958126523
 20
-126.1406422175
 10
118.8323865391
 20
-123.0507150806
 10
118.4055576779
 20
-119.9502639986
 10
118.0154303767
 20
-116.8401532389
 10
117.6621387459
 20
-113.7212526567
 10
117.3457572915
 20
-110.5944339699
 10
117.0664052226
 20
-107.4605707593
 10
116.8241272427
 20
-104.3205403305
 10
116.6190127589
 20
-101.1752218521
 10
116.4511213757
 20
-98.0254907674
 10
116.3204828955
 20
-94.8722309015
 10
116.2271420218
 20
-91.7163232855
 10
116.1711285569
 20
-88.558649649
 10
116.1524574019
 20
-85.4000926531
 10
116.1711285569
 20
-82.2415356572
 10
116.2271420218
 20
-79.0838620208
 10
116.3204828955
 20
-75.9279544047
 10
116.4511213757
 20
-72.7746945388
 10
116.6190127589
 20
-69.6249634541
 10
116.8241272427
 20
-66.4796449757
 10
117.0664052226
 20
-63.339614547
 10
117.3457572915
 20
-60.2057513363
 10
117.6621387459
 20
-57.0789326496
 10
118.0154303767
 20
-53.9600320674
 10
118.4055576779
 20
-50.8499213076
 10
118.8323865391
 20
-47.7494702257
 10
119.2958126523
 20
-44.6595430888
 10
119.795716808
 20
-41.5810078896
 10
120.3319499947
 20
-38.5147214449
 10
120.9043482997
 20
-35.4615480221
 10
121.5127627112
 20
-32.4223295368
 10
122.1570293166
 20
-29.3979265309
 10
122.8369693018
 20
-26.3891809202
 10
123.5523740508
 20
-23.3969308949
 10
124.3030647494
 20
-20.4220146454
 10
125.0888178803
 20
-17.4652666367
 10
125.9094099261
 20
-14.5275101579
 10
126.7646322705
 20
-11.6095722235
 10
127.6542315938
 20
-8.7122574962
 10
128.5779545762
 20
-5.8363855398
 10
129.5355627991
 20
-2.9827610172
 10
130.5267582394
 20
-0.1521736897
 10
131.5512875773
 20
2.6545792305
 10
132.6088527896
 20
5.4367154323
 10
133.6991707541
 20
8.1934526049
 10
134.8219285466
 20
10.9240307891
 10
135.9767983414
 20
13.6276676737
 10
137.1634821154
 20
16.3036256515
 10
138.3816371419
 20
18.9511522137
 10
139.630920694
 20
21.5695023023
 10
140.9109900452
 20
24.1579457604
 10
142.2214726664
 20
26.7157598817
 10
143.5620258309
 20
29.2422294103
 10
144.9322472073
 20
31.7366465413
 10
146.3317791678
 20
34.1983183705
 10
147.760219381
 20
36.626551994
 10
149.2171655156
 20
39.020669409
 10
150.7022152402
 20
41.3800000631
 10
152.2149513222
 20
43.7038808548
 10
153.7549416281
 20
45.9916859352
 10
155.3217689253
 20
48.2427447521
 10
156.9150010802
 20
50.4564463579
 10
158.5341612555
 20
52.6321500026
 10
160.1788322188
 20
54.7692745411
 10
161.8485371329
 20
56.8672090255
 10
163.5428140618
 20
58.9253723108
 10
165.2611861683
 20
60.9431981527
 10
167.0031766154
 20
62.9200905048
 10
168.7682936646
 20
64.8555278265
  0
LINE
  5
1E3
330
1F
100
AcDbEntity
  8
0
  6
Continuous
 62
     7
370
    15
100
AcDbLine
 10
168.7682936646
 20
-237.0581061161
 30
0.0
 11
170.0864205815
 21
-237.0581061161
 31
0.0
  0
LWPOLYLINE
  5
1E4
330
1F
100
AcDbEntity
  8
0
  6
Continuous
 62
     7
370
    15
100
AcDbPolyline
 90
       64
 70
   128
 43
0.0
 10
304.1792432524
 20
-257.9051584519
 10
302.1756629206
 20
-259.1422230519
 10
300.1030604102
 20
-260.364416293
 10
298.0162421919
 20
-261.5371674813
 10
295.9157745101
 20
-262.66013389
 10
293.802253411
 20
-263.7330174959
 10
291.6762749411
 20
-264.7554904736
 10
289.538435147
 20
-265.727284602
 10
287.3893598773
 20
-266.6481316603
 10
285.2296451785
 20
-267.5177485264
 10
283.059887097
 20
-268.3358967818
 10
280.8807114817
 20
-269.1023529089
 10
278.6927441813
 20
-269.8168784893
 10
276.4965812422
 20
-270.4793096102
 10
274.2928783156
 20
-271.0894376553
 10
272.0822016455
 20
-271.6470689095
 10
269.8652366854
 20
-272.1520841635
 10
267.6425496794
 20
-272.6043344057
 10
265.4148260809
 20
-273.0036557234
 10
263.1826619364
 20
-273.3499736107
 10
260.946712897
 20
-273.6431837595
 10
258.707575009
 20
-273.8831967629
 10
256.4659039237
 20
-274.069938115
 10
254.2223254897
 20
-274.2033631123
 10
251.9774953581
 20
-274.2834270514
 10
249.7320393778
 20
-274.3101299322
 10
247.4865535952
 20
-274.2834270514
 10
245.2417234637
 20
-274.2033631123
 10
242.9981450297
 20
-274.069938115
 10
240.7564739443
 20
-273.8831967629
 10
238.5173360564
 20
-273.6431837595
 10
236.2813870169
 20
-273.3499736107
 10
234.0492228724
 20
-273.0036557234
 10
231.8214992739
 20
-272.6043344057
 10
229.5988122679
 20
-272.1520841635
 10
227.3818473078
 20
-271.6470689095
 10
225.1711706378
 20
-271.0894376553
 10
222.9674677111
 20
-270.4793096102
 10
220.771304772
 20
-269.8168784893
 10
218.5833374716
 20
-269.1023529089
 10
216.4041618563
 20
-268.3358967818
 10
214.2344037749
 20
-267.5177485264
 10
212.0746890761
 20
-266.6481316603
 10
209.9256138064
 20
-265.727284602
 10
207.7877740122
 20
-264.7554904736
 10
205.6617955424
 20
-263.7330174959
 10
203.5482744433
 20
-262.66013389
 10
201.4478067614
 20
-261.5371674813
 10
199.3609885432
 20
-260.364416293
 10
197.2883860327
 20
-259.1422230519
 10
195.2306250788
 20
-257.8709453858
 10
193.1882421233
 20
-256.5509111203
 10
191.1618630148
 20
-255.1825225867
 10
189.1520241953
 20
-253.7661374129
 10
187.1592919089
 20
-252.3021877325
 10
185.1842622019
 20
-250.7910609759
 10
183.2274715163
 20
-249.2332041777
 10
181.2894860961
 20
-247.6290494717
 10
179.3708125807
 20
-245.9790438927
 10
177.4720470168
 20
-244.2836642779
 10
175.5936960436
 20
-242.5433725632
 10
173.736281202
 20
-240.7586902893
 10
171.9003538348
 20
-238.9300942934
 10
170.0864205815
 20
-237.0581061161
  0
LWPOLYLINE
  5
1E5
330
1F
100
AcDbEntity
  8
0
  6
Continuous
 62
     7
370
    15
100
AcDbPolyline
 90
       64
 70
   128
 43
0.0
 10
170.0864205815
 20
66.2579208099
 10
171.9003538348
 20
68.1299089872
 10
173.736281202
 20
69.9585049831
 10
175.5936960436
 20
71.743187257
 10
177.4720470168
 20
73.4834789716
 10
179.3708125807
 20
75.1788585865
 10
181.2894860961
 20
76.8288641655
 10
183.2274715163
 20
78.4330188715
 10
185.1842622019
 20
79.9908756696
 10
187.1592919089
 20
81.5020024263
 10
189.1520241953
 20
82.9659521066
 10
191.1618630148
 20
84.3823372804
 10
193.1882421233
 20
85.750725814
 10
195.2306250788
 20
87.0707600795
 10
197.2883860327
 20
88.3420377456
 10
199.3609885432
 20
89.5642309868
 10
201.4478067614
 20
90.736982175
 10
203.5482744433
 20
91.8599485838
 10
205.6617955424
 20
92.9328321897
 10
207.7877740122
 20
93.9553051674
 10
209.9256138064
 20
94.9270992958
 10
212.0746890761
 20
95.8479463541
 10
214.2344037749
 20
96.7175632202
 10
216.4041618563
 20
97.5357114755
 10
218.5833374716
 20
98.3021676027
 10
220.771304772
 20
99.0166931831
 10
222.9674677111
 20
99.679124304
 10
225.1711706378
 20
100.2892523491
 10
227.3818473078
 20
100.8468836033
 10
229.5988122679
 20
101.3518988573
 10
231.8214992739
 20
101.8041490995
 10
234.0492228724
 20
102.2034704172
 10
236.2813870169
 20
102.5497883045
 10
238.5173360564
 20
102.8429984533
 10
240.7564739443
 20
103.0830114566
 10
242.9981450297
 20
103.2697528087
 10
245.2417234637
 20
103.4031778061
 10
247.4865535952
 20
103.4832417452
 10
249.7320393778
 20
103.509944626
 10
251.9774953581
 20
103.4832417452
 10
254.2223254897
 20
103.4031778061
 10
256.4659039237
 20
103.2697528087
 10
258.707575009
 20
103.0830114566
 10
260.946712897
 20
102.8429984533
 10
263.1826619364
 20
102.5497883045
 10
265.4148260809
 20
102.2034704172
 10
267.6425496794
 20
101.8041490995
 10
269.8652366854
 20
101.3518988573
 10
272.0822016455
 20
100.8468836033
 10
274.2928783156
 20
100.2892523491
 10
276.4965812422
 20
99.679124304
 10
278.6927441813
 20
99.0166931831
 10
280.8807114817
 20
98.3021676027
 10
283.059887097
 20
97.5357114755
 10
285.2296451785
 20
96.7175632202
 10
287.3893598773
 20
95.8479463541
 10
289.538435147
 20
94.9270992958
 10
291.6762749411
 20
93.9553051674
 10
293.802253411
 20
92.9328321897
 10
295.9157745101
 20
91.8599485838
 10
298.0162421919
 20
90.736982175
 10
300.1030604102
 20
89.5642309868
 10
302.1756629206
 20
88.3420377456
 10
304.1792432524
 20
87.1049731456
  0
LINE
  5
1E6
330
1F
100
AcDbEntity
  8
0
  6
Continuous
 62
     7
370
    15
100
AcDbLine
 10
170.0864205815
 20
66.2579208099
 30
0.0
 11
168.7682936646
 21
66.2579208099
 31
0.0
  0
LINE
  5
1E7
330
1F
100
AcDbEntity
  8
0
  6
Continuous
 62
     7
370
    15
100
AcDbLine
 10
390.7900969245
 20
56.8569570266
 30
0.0
 11
391.0573343493
 21
51.2059151613
 31
0.0
  0
LINE
  5
1E8
330
1F
100
AcDbEntity
  8
0
  6
Continuous
 62
     7
370
    15
100
AcDbLine
 10
390.7900969245
 20
-227.6571423329
 30
0.0
 11
391.0573343493
 21
-222.0061004675
 31
0.0
  0
LINE
  5
1E9
330
1F
100
AcDbEntity
  8
0
  6
Continuous
 62
     7
370
    15
100
AcDbLine
 10
390.7900969245
 20
-227.6571423329
 30
0.0
 11
368.3955291964
 21
-227.6571423329
 31
0.0
  0
LINE
  5
1EA
330
1F
100
AcDbEntity
  8
0
  6
Continuous
 62
     7
370
    15
100
AcDbLine
 10
344.8117295958
 20
-233.5380942143
 30
0.0
 11
344.8117295958
 21
-263.6780769146
 31
0.0
  0
LWPOLYLINE
  5
1EB
330
1F
100
AcDbEntity
  8
0
  6
Continuous
 62
     7
370
    15
100
AcDbPolyline
 90
       29
 70
   128
 43
0.0
 10
334.7851852633
 20
-256.3179761685
 10
335.2018515326
 20
-255.9367448605
 10
335.6382767417
 20
-255.6025863207
 10
336.0917488791
 20
-255.3175420082
 10
336.5595857359
 20
-255.0833255566
 10
337.0388964869
 20
-254.9013972796
 10
337.5267605044
 20
-254.7728151596
 10
338.0202273585
 20
-254.6983987606
 10
338.516316817
 20
-254.6785951174
 10
339.0119592406
 20
-254.7135085381
 10
339.5041743971
 20
-254.8029453076
 10
339.9899820544
 20
-254.9463540829
 10
340.4664019801
 20
-255.1428556956
 10
340.9305433489
 20
-255.3912580527
 10
341.3796047427
 20
-255.6900561369
 10
341.8108145453
 20
-256.0374320067
 10
342.2215799548
 20
-256.431269697
 10
342.6094273783
 20
-256.869170121
 10
342.9719130255
 20
-257.348480872
 10
343.3069209315
 20
-257.8662813223
 10
343.6123649336
 20
-258.419427327
 10
343.8864270903
 20
-259.0045512236
 10
344.1273788668
 20
-259.6180916346
 10
344.333819554
 20
-260.2563232697
 10
344.504467652
 20
-260.915371827
 10
344.6382800795
 20
-261.5912139929
 10
344.7344223715
 20
-262.279737047
 10
344.7923580863
 20
-262.9767686642
 10
344.8117295958
 20
-263.6780769146
  0
LWPOLYLINE
  5
1EC
330
1F
100
AcDbEntity
  8
0
  6
Continuous
 62
     7
370
    15
100
AcDbPolyline
 90
       78
 70
   128
 43
0.0
 10
164.6788785912
 20
-256.3179761685
 10
166.6146288373
 20
-258.2121223725
 10
168.5714642264
 20
-260.0624144591
 10
170.5488930203
 20
-261.8684053934
 10
172.5464085795
 20
-263.6296183384
 10
174.5635191657
 20
-265.3456062592
 10
176.5996734358
 20
-267.0159519232
 10
178.6544243552
 20
-268.6402231968
 10
180.7271758772
 20
-270.2180028475
 10
182.8174213625
 20
-271.7488885439
 10
184.9246839739
 20
-273.232507757
 10
187.048367665
 20
-274.6684581555
 10
189.1879359938
 20
-276.0563970126
 10
191.342882321
 20
-277.3959667004
 10
193.5126404025
 20
-278.6868393935
 10
195.6966737963
 20
-279.9286574639
 10
197.8944162585
 20
-281.1211228884
 10
200.1053015448
 20
-282.2639376438
 10
202.3287634112
 20
-283.356803707
 10
204.5642654158
 20
-284.3994528569
 10
206.8112413146
 20
-285.3916168726
 10
209.0690652587
 20
-286.3330424345
 10
211.3372306086
 20
-287.223491124
 10
213.615141318
 20
-288.0627245224
 10
215.9022311427
 20
-288.8505489148
 10
218.1978742339
 20
-289.5867556847
 10
220.5015341498
 20
-290.2711660183
 10
222.8125850417
 20
-290.9035862006
 10
225.1304904677
 20
-291.4838821209
 10
227.4546245791
 20
-292.0118898667
 10
229.7844211318
 20
-292.4874753273
 10
232.1192840792
 20
-292.9105341948
 10
234.4585875727
 20
-293.2809323586
 10
236.8017951705
 20
-293.5985953129
 10
239.1482512213
 20
-293.863448552
 10
241.4974192835
 20
-294.0754026688
 10
243.8486735083
 20
-294.2344129599
 10
246.2014178492
 20
-294.3404347218
 10
248.5550562598
 20
-294.3934679545
 10
250.9089926936
 20
-294.3934679545
 10
253.2626311041
 20
-294.3404347218
 10
255.615375445
 20
-294.2344129599
 10
257.9666296698
 20
-294.0754026688
 10
260.315797732
 20
-293.863448552
 10
262.6622537829
 20
-293.5985953129
 10
265.0054613806
 20
-293.2809323586
 10
267.3447648741
 20
-292.9105341948
 10
269.6796278216
 20
-292.4874753273
 10
272.0094243743
 20
-292.0118898667
 10
274.3335584857
 20
-291.4838821209
 10
276.6514639117
 20
-290.9035862006
 10
278.9625148036
 20
-290.2711660183
 10
281.2661747195
 20
-289.5867556847
 10
283.561847613
 20
-288.8505489148
 10
285.8489076354
 20
-288.0627245224
 10
288.1268183447
 20
-287.223491124
 10
290.3949836947
 20
-286.3330424345
 10
292.6528374411
 20
-285.3916168726
 10
294.8997835375
 20
-284.3994528569
 10
297.1352855422
 20
-283.356803707
 10
299.3587474085
 20
-282.2639376438
 10
301.5696326949
 20
-281.1211228884
 10
303.767375157
 20
-279.9286574639
 10
305.9514085509
 20
-278.6868393935
 10
308.1211666323
 20
-277.3959667004
 10
310.2761129595
 20
-276.0563970126
 10
312.4156812884
 20
-274.6684581555
 10
314.5393649794
 20
-273.232507757
 10
316.6466275908
 20
-271.7488885439
 10
318.7368730761
 20
-270.2180028475
 10
320.8096544005
 20
-268.6402231968
 10
322.8643755175
 20
-267.0159519232
 10
324.9005297877
 20
-265.3456062592
 10
326.9176403739
 20
-263.6296183384
 10
328.9151708342
 20
-261.8684053934
 10
330.892584727
 20
-260.0624144591
 10
332.8494350173
 20
-258.2121223725
 10
334.7851852633
 20
-256.3179761685
  0
ARC
  5
1ED
330
1F
100
AcDbEntity
  8
0
  6
Continuous
 62
     7
370
    15
100
AcDbCircle
 10
160.9677212894
 20
-259.8720484542
 30
0.0
 40
5.138493780339323
100
AcDbArc
 50
43.7613734405
 51
150.6363722892
  0
LINE
  5
1EE
330
1F
100
AcDbEntity
  8
0
  6
Continuous
 62
     7
370
    15
100
AcDbLine
 10
108.6739520289
 20
-227.6571423329
 30
0.0
 11
154.6523342587
 21
-227.6571423329
 31
0.0
  0
LINE
  5
1EF
330
1F
100
AcDbEntity
  8
0
  6
Continuous
 62
     7
370
    15
100
AcDbLine
 10
108.6739520289
 20
-227.6571423329
 30
0.0
 11
103.2627890564
 21
-113.230319
 31
0.0
  0
ARC
  5
1F0
330
1F
100
AcDbEntity
  8
0
  6
Continuous
 62
     7
370
    15
100
AcDbCircle
 10
396.7472728951
 20
-85.4000926531
 30
0.0
 40
294.8010579230399
100
AcDbArc
 50
174.5830163598
 51
185.4169836402
  0
LINE
  5
1F1
330
1F
100
AcDbEntity
  8
0
  6
Continuous
 62
     7
370
    15
100
AcDbLine
 10
108.6739520289
 20
56.8569570266
 30
0.0
 11
103.2627890564
 21
-57.5698663063
 31
0.0
  0
LINE
  5
1F2
330
1F
100
AcDbEntity
  8
0
  6
Continuous
 62
     7
370
    15
100
AcDbLine
 10
108.6739520289
 20
56.8569570266
 30
0.0
 11
154.6523342587
 21
56.8569570266
 31
0.0
  0
ARC
  5
1F3
330
1F
100
AcDbEntity
  8
0
  6
Continuous
 62
     7
370
    15
100
AcDbCircle
 10
160.9722342266
 20
89.1075923771
 30
0.0
 40
5.160027845023378
100
AcDbArc
 50
209.6848171913
 51
315.917437079
  0
LWPOLYLINE
  5
1F4
330
1F
100
AcDbEntity
  8
0
  6
Continuous
 62
     7
370
    15
100
AcDbPolyline
 90
       78
 70
   128
 43
0.0
 10
334.7851852633
 20
85.5177908622
 10
332.8494350173
 20
87.4119370662
 10
330.892584727
 20
89.2622291528
 10
328.9151708342
 20
91.0682200872
 10
326.9176403739
 20
92.8294330322
 10
324.9005297877
 20
94.545420953
 10
322.8643755175
 20
96.215766617
 10
320.8096544005
 20
97.8400378906
 10
318.7368730761
 20
99.4178175413
 10
316.6466275908
 20
100.9487032377
 10
314.5393649794
 20
102.4323224508
 10
312.4156812884
 20
103.8682728492
 10
310.2761129595
 20
105.2562117063
 10
308.1211666323
 20
106.5957813942
 10
305.9514085509
 20
107.8866540872
 10
303.767375157
 20
109.1284721576
 10
301.5696326949
 20
110.3209375822
 10
299.3587474085
 20
111.4637523376
 10
297.1352855422
 20
112.5566184007
 10
294.8997835375
 20
113.5992675506
 10
292.6528374411
 20
114.5914315664
 10
290.3949836947
 20
115.5328571283
 10
288.1268183447
 20
116.4233058178
 10
285.8489076354
 20
117.2625392162
 10
283.561847613
 20
118.0503636085
 10
281.2661747195
 20
118.7865703785
 10
278.9625148036
 20
119.4709807121
 10
276.6514639117
 20
120.1034008943
 10
274.3335584857
 20
120.6836968147
 10
272.0094243743
 20
121.2117045604
 10
269.6796278216
 20
121.6872900211
 10
267.3447648741
 20
122.1103488886
 10
265.0054613806
 20
122.4807470524
 10
262.6622537829
 20
122.7984100067
 10
260.315797732
 20
123.0632632457
 10
257.9666296698
 20
123.2752173626
 10
255.615375445
 20
123.4342276537
 10
253.2626311041
 20
123.5402494156
 10
250.9089926936
 20
123.5932826482
 10
248.5550562598
 20
123.5932826482
 10
246.2014178492
 20
123.5402494156
 10
243.8486735083
 20
123.4342276537
 10
241.4974192835
 20
123.2752173626
 10
239.1482512213
 20
123.0632632457
 10
236.8017951705
 20
122.7984100067
 10
234.4585875727
 20
122.4807470524
 10
232.1192840792
 20
122.1103488886
 10
229.7844211318
 20
121.6872900211
 10
227.4546245791
 20
121.2117045604
 10
225.1304904677
 20
120.6836968147
 10
222.8125850417
 20
120.1034008943
 10
220.5015341498
 20
119.4709807121
 10
218.1978742339
 20
118.7865703785
 10
215.9022311427
 20
118.0503636085
 10
213.615141318
 20
117.2625392162
 10
211.3372306086
 20
116.4233058178
 10
209.0690652587
 20
115.5328571283
 10
206.8112413146
 20
114.5914315664
 10
204.5642654158
 20
113.5992675506
 10
202.3287634112
 20
112.5566184007
 10
200.1053015448
 20
111.4637523376
 10
197.8944162585
 20
110.3209375822
 10
195.6966737963
 20
109.1284721576
 10
193.5126404025
 20
107.8866540872
 10
191.342882321
 20
106.5957813942
 10
189.1879359938
 20
105.2562117063
 10
187.048367665
 20
103.8682728492
 10
184.9246839739
 20
102.4323224508
 10
182.8174213625
 20
100.9487032377
 10
180.7271758772
 20
99.4178175413
 10
178.6544243552
 20
97.8400378906
 10
176.5996734358
 20
96.215766617
 10
174.5635191657
 20
94.545420953
 10
172.5464085795
 20
92.8294330322
 10
170.5488930203
 20
91.0682200872
 10
168.5714642264
 20
89.2622291528
 10
166.6146288373
 20
87.4119370662
 10
164.6788785912
 20
85.5177908622
  0
LWPOLYLINE
  5
1F5
330
1F
100
AcDbEntity
  8
0
  6
Continuous
 62
     7
370
    15
100
AcDbPolyline
 90
       29
 70
   128
 43
0.0
 10
344.8117295958
 20
92.8778916084
 10
344.7923580863
 20
92.176583358
 10
344.7344223715
 20
91.4795517408
 10
344.6382800795
 20
90.7910286867
 10
344.504467652
 20
90.1151865207
 10
344.333819554
 20
89.4561379635
 10
344.1273788668
 20
88.8179063284
 10
343.8864270903
 20
88.2043659174
 10
343.6123649336
 20
87.6192420208
 10
343.3069209315
 20
87.0660960161
 10
342.9719130255
 20
86.5482955658
 10
342.6094273783
 20
86.0689848148
 10
342.2215799548
 20
85.6310843908
 10
341.8108145453
 20
85.2372467004
 10
341.3796047427
 20
84.8898708307
 10
340.9305433489
 20
84.5910727464
 10
340.4664019801
 20
84.3426703893
 10
339.9899820544
 20
84.1461687767
 10
339.5041743971
 20
84.0027600013
 10
339.0119592406
 20
83.9133232319
 10
338.516316817
 20
83.8784098112
 10
338.0202273585
 20
83.8982134544
 10
337.5267605044
 20
83.9726298534
 10
337.0388964869
 20
84.1012119733
 10
336.5595857359
 20
84.2831402504
 10
336.0917488791
 20
84.517356702
 10
335.6382767417
 20
84.8024010145
 10
335.2018515326
 20
85.1365595543
 10
334.7851852633
 20
85.5177908622
  0
LINE
  5
1F6
330
1F
100
AcDbEntity
  8
0
  6
Continuous
 62
     7
370
    15
100
AcDbLine
 10
344.8117295958
 20
92.8778916084
 30
0.0
 11
344.8117295958
 21
62.737908908
 31
0.0
  0
LINE
  5
1F7
330
1F
100
AcDbEntity
  8
0
  6
Continuous
 62
     7
370
    15
100
AcDbLine
 10
390.7900969245
 20
56.8569570266
 30
0.0
 11
368.3955291964
 21
56.8569570266
 31
0.0
  0
LINE
  5
1F8
330
1F
100
AcDbEntity
  8
0
  6
Continuous
 62
     7
370
    15
100
AcDbLine
 10
103.2627890564
 20
-113.230319
 30
0.0
 11
89.8277531125
 21
-113.230319
 31
0.0
  0
ARC
  5
1F9
330
1F
100
AcDbEntity
  8
0
  6
Continuous
 62
     7
370
    15
100
AcDbCircle
 10
383.3163142343
 20
-85.4000926531
 30
0.0
 40
294.8051169974619
100
AcDbArc
 50
174.5830911675
 51
185.4169088325
  0
LINE
  5
1FA
330
1F
100
AcDbEntity
  8
0
  6
Continuous
 62
     7
370
    15
100
AcDbLine
 10
89.8277531125
 20
-57.5698663063
 30
0.0
 11
103.2627890564
 21
-57.5698663063
 31
0.0
  0
LINE
  5
1FB
330
1F
100
AcDbEntity
  8
0
  6
Continuous
 62
     7
370
    15
100
AcDbLine
 10
96.9794760205
 20
93.6634510242
 30
0.0
 11
89.8277531125
 21
-57.5698663063
 31
0.0
  0
LINE
  5
1FC
330
1F
100
AcDbEntity
  8
0
  6
Continuous
 62
     7
370
    15
100
AcDbLine
 10
108.6739520289
 20
56.8569570266
 30
0.0
 11
112.6914988019
 21
93.6634510242
 31
0.0
  0
LINE
  5
1FD
330
1F
100
AcDbEntity
  8
0
  6
Continuous
 62
     7
370
    15
100
AcDbLine
 10
108.6739520289
 20
-227.6571423329
 30
0.0
 11
112.6914988019
 21
-264.4636363304
 31
0.0
  0
LINE
  5
1FE
330
1F
100
AcDbEntity
  8
0
  6
Continuous
 62
     7
370
    15
100
AcDbLine
 10
96.9794760205
 20
-264.4636363304
 30
0.0
 11
89.8277531125
 21
-113.230319
 31
0.0
  0
LWPOLYLINE
  5
1FF
330
1F
100
AcDbEntity
  8
0
  6
Continuous
 62
     7
370
    15
100
AcDbPolyline
 90
      109
 70
   128
 43
0.0
 10
344.4843212821
 20
-224.5241433895
 10
344.5790926673
 20
-224.4223982609
 10
346.2760667063
 20
-222.5658029831
 10
347.9499439456
 20
-220.6677824772
 10
349.6002475478
 20
-218.7289029873
 10
351.2264708735
 20
-216.749775461
 10
352.8281370856
 20
-214.7309810437
 10
354.4047693469
 20
-212.6731157816
 10
355.9558610179
 20
-210.576835326
 10
357.4809650637
 20
-208.4427357233
 10
358.9796046473
 20
-206.2714875258
 10
360.4513625361
 20
-204.0637389339
 10
361.8957618929
 20
-201.8201530493
 10
363.3123854853
 20
-199.5414153255
 10
364.7007564761
 20
-197.2282037652
 10
366.0605470397
 20
-194.8812187231
 10
367.3912505366
 20
-192.5011754549
 10
368.6925391413
 20
-190.0887892164
 10
369.963965819
 20
-187.6447901643
 10
371.2051729418
 20
-185.1699159063
 10
372.4158028819
 20
-182.6649115003
 10
373.5954384066
 20
-180.130529455
 10
374.7437814929
 20
-177.5675446308
 10
375.8604447104
 20
-174.9767318881
 10
376.945130036
 20
-172.3588586367
 10
377.9974500395
 20
-169.7147295392
 10
379.0171365
 20
-167.0451418079
 10
380.003861592
 20
-164.3508926547
 10
380.9573570944
 20
-161.6328016437
 10
381.8772653796
 20
-158.8916957892
 10
382.7634076335
 20
-156.1283946551
 10
383.6154262282
 20
-153.3437327064
 10
384.4331125475
 20
-150.5385518587
 10
385.2161983706
 20
-147.713697753
 10
385.9644452788
 20
-144.8700309313
 10
386.6776446559
 20
-142.0084044851
 10
387.3555878855
 20
-139.1296789563
 10
387.9980365492
 20
-136.2347335137
 10
388.6048416354
 20
-133.3244324244
 10
389.1757945277
 20
-130.3996623076
 10
389.7107164122
 20
-127.4613023318
 10
390.2094284751
 20
-124.510239116
 10
390.6718413092
 20
-121.5473630048
 10
391.0977462985
 20
-118.5735755182
 10
391.4870540358
 20
-115.5897688634
 10
391.839645312
 20
-112.5968445606
 10
392.15543072
 20
-109.5957078553
 10
392.4342612483
 20
-106.5872639931
 10
392.6761070944
 20
-103.5724219448
 10
392.8808490492
 20
-100.5520916126
 10
393.0484573103
 20
-97.5271866239
 10
393.1788722731
 20
-94.4986187435
 10
393.2720343329
 20
-91.4673039272
 10
393.327973292
 20
-88.434156268
 10
393.3465997435
 20
-85.4000926531
 10
393.327973292
 20
-82.3660290382
 10
393.2720343329
 20
-79.3328813791
 10
393.1788722731
 20
-76.3015665627
 10
393.0484573103
 20
-73.2729986823
 10
392.8808490492
 20
-70.2480936936
 10
392.6761070944
 20
-67.2277633614
 10
392.4342612483
 20
-64.2129213131
 10
392.15543072
 20
-61.2044774509
 10
391.839645312
 20
-58.2033407456
 10
391.4870540358
 20
-55.2104164428
 10
391.0977462985
 20
-52.226609788
 10
390.6718413092
 20
-49.2528223015
 10
390.2094284751
 20
-46.2899461902
 10
389.7107164122
 20
-43.3388829745
 10
389.1757945277
 20
-40.4005229987
 10
388.6048416354
 20
-37.4757528818
 10
387.9980365492
 20
-34.5654517926
 10
387.3555878855
 20
-31.6705063499
 10
386.6776446559
 20
-28.7917808212
 10
385.9644452788
 20
-25.9301543749
 10
385.2161983706
 20
-23.0864875532
 10
384.4331125475
 20
-20.2616334475
 10
383.6154262282
 20
-17.4564525998
 10
382.7634076335
 20
-14.6717906512
 10
381.8772653796
 20
-11.9084895171
 10
380.9573570944
 20
-9.1673836625
 10
380.003861592
 20
-6.4492926515
 10
379.0171365
 20
-3.7550434984
 10
377.9974500395
 20
-1.085455767
 10
376.945130036
 20
1.5586733305
 10
375.8604447104
 20
4.1765465819
 10
374.7437814929
 20
6.7673593246
 10
373.5954384066
 20
9.3303441488
 10
372.4158028819
 20
11.8647261941
 10
371.2051729418
 20
14.3697306
 10
369.963965819
 20
16.8446048581
 10
368.6925391413
 20
19.2886039101
 10
367.3912505366
 20
21.7009901487
 10
366.0605470397
 20
24.0810334169
 10
364.7007564761
 20
26.428018459
 10
363.3123854853
 20
28.7412300193
 10
361.8957618929
 20
31.0199677431
 10
360.4513625361
 20
33.2635536277
 10
358.9796046473
 20
35.4713022196
 10
357.4809650637
 20
37.6425504171
 10
355.9558610179
 20
39.7766500198
 10
354.4047693469
 20
41.8729304754
 10
352.8281370856
 20
43.9307957374
 10
351.2264708735
 20
45.9495901548
 10
349.6002475478
 20
47.9287176811
 10
347.9499439456
 20
49.867597171
 10
346.2760667063
 20
51.7656176769
 10
344.5790926673
 20
53.6222129547
 10
344.4843212821
 20
53.7239580833
  0
LWPOLYLINE
  5
200
330
1F
100
AcDbEntity
  8
0
  6
Continuous
 62
     7
370
    15
100
AcDbPolyline
 90
        9
 70
   128
 43
0.0
 10
170.0864205815
 20
-237.0581061161
 10
171.88373904
 20
-236.7502481259
 10
173.6918757416
 20
-236.4446104086
 10
175.5103985526
 20
-236.1412674702
 10
177.3388306357
 20
-235.8402938164
 10
179.1767398573
 20
-235.5417788542
 10
181.023619578
 20
-235.2457672871
 10
182.8790823676
 20
-234.9523783243
 10
184.7425917841
 20
-234.6616417683
  0
LWPOLYLINE
  5
201
330
1F
100
AcDbEntity
  8
0
  6
Continuous
 62
     7
370
    15
100
AcDbPolyline
 90
        9
 70
   128
 43
0.0
 10
184.7425917841
 20
63.8614564621
 10
182.8790823676
 20
64.1521930181
 10
181.023619578
 20
64.4455819809
 10
179.1767398573
 20
64.741593548
 10
177.3388306357
 20
65.0401085102
 10
175.5103985526
 20
65.341082164
 10
173.6918757416
 20
65.6444251024
 10
171.88373904
 20
65.9500628196
 10
170.0864205815
 20
66.2579208099
  0
LINE
  5
202
330
1F
100
AcDbEntity
  8
0
  6
Continuous
 62
     7
370
    15
100
AcDbLine
 10
184.7425917841
 20
63.8614564621
 30
0.0
 11
236.7795328356
 21
50.8853166782
 31
0.0
  0
LINE
  5
203
330
1F
100
AcDbEntity
  8
0
  6
Continuous
 62
     7
370
    15
100
AcDbLine
 10
236.7795328356
 20
-221.6855019844
 30
0.0
 11
184.7425917841
 21
-234.6616417683
 31
0.0
  0
ELLIPSE
  5
204
330
1F
100
AcDbEntity
  8
0
  6
Continuous
 62
     7
370
    15
100
AcDbEllipse
 10
150.5282127286
 20
93.0628941445
 30
0.0
 11
1.101134461225854
 21
8.966764124245401
 31
0.0
210
0.0
220
0.0
230
1.0
 40
0.7017754025
 41
4.798355836934179
 42
6.369152163729066
  0
LINE
  5
205
330
1F
100
AcDbEntity
  8
0
  6
Continuous
 62
     7
370
    15
100
AcDbLine
 10
156.8921725012
 20
93.0628895246
 30
0.0
 11
154.6523342587
 21
56.8569570266
 31
0.0
  0
ELLIPSE
  5
206
330
1F
100
AcDbEntity
  8
0
  6
Continuous
 62
     7
370
    15
100
AcDbEllipse
 10
119.0041257536
 20
93.0628941445
 30
0.0
 11
1.101134461225854
 21
8.966764124245401
 31
0.0
210
0.0
220
0.0
230
1.0
 40
0.7017754025
 41
0.0859668565494831
 42
1.589985348815606
  0
LINE
  5
207
330
1F
100
AcDbEntity
  8
0
  6
Continuous
 62
     7
370
    15
100
AcDbLine
 10
119.5609043099
 20
102.0628928625
 30
0.0
 11
151.0849813677
 21
102.0628928625
 31
0.0
  0
LINE
  5
208
330
1F
100
AcDbEntity
  8
0
  6
Continuous
 62
     7
370
    15
100
AcDbLine
 10
103.3292631365
 20
102.0628928625
 30
0.0
 11
119.5609043099
 21
102.0628928625
 31
0.0
  0
LWPOLYLINE
  5
209
330
1F
100
AcDbEntity
  8
0
  6
Continuous
 62
     7
370
    15
100
AcDbPolyline
 90
       20
 70
   128
 43
0.0
 10
96.9794760205
 20
93.6634510242
 10
97.0329413868
 20
94.3716734134
 10
97.1258501269
 20
95.0716852628
 10
97.257591293
 20
95.7591354334
 10
97.4273602225
 20
96.4296876871
 10
97.6340989329
 20
97.0791547977
 10
97.8765110232
 20
97.7034687483
 10
98.1530616738
 20
98.2987254345
 10
98.4620372511
 20
98.8611846649
 10
98.8014857031
 20
99.3873446666
 10
99.169305966
 20
99.8738824808
 10
99.5631585576
 20
100.3177582704
 10
99.9806145884
 20
100.7162004196
 10
100.4190365531
 20
101.0667204343
 10
100.8756826378
 20
101.3671129429
 10
101.347706721
 20
101.6154854976
 10
101.8321285702
 20
101.8103032791
 10
102.325938151
 20
101.950344392
 10
102.8260211207
 20
102.0347147667
 10
103.3292631365
 20
102.0628928625
  0
ELLIPSE
  5
20A
330
1F
100
AcDbEntity
  8
0
  6
Continuous
 62
     7
370
    15
100
AcDbEllipse
 10
119.0041257536
 20
-263.8630794508
 30
0.0
 11
-1.101134461225868
 21
8.966764124245401
 31
0.0
210
0.0
220
0.0
230
1.0
 40
0.7017754025
 41
1.551607304774186
 42
3.055625797040308
  0
LINE
  5
20B
330
1F
100
AcDbEntity
  8
0
  6
Continuous
 62
     7
370
    15
100
AcDbLine
 10
156.8921725012
 20
-263.8630748308
 30
0.0
 11
154.6523342587
 21
-227.6571423329
 31
0.0
  0
ELLIPSE
  5
20C
330
1F
100
AcDbEntity
  8
0
  6
Continuous
 62
     7
370
    15
100
AcDbEllipse
 10
150.5282127286
 20
-263.8630794508
 30
0.0
 11
-1.101134461225882
 21
8.966764124245401
 31
0.0
210
0.0
220
0.0
230
1.0
 40
0.7017754025
 41
3.055625797040308
 42
4.626422123835221
  0
LINE
  5
20D
330
1F
100
AcDbEntity
  8
0
  6
Continuous
 62
     7
370
    15
100
AcDbLine
 10
119.5609043099
 20
-272.8630781687
 30
0.0
 11
151.0849813677
 21
-272.8630781687
 31
0.0
  0
LINE
  5
20E
330
1F
100
AcDbEntity
  8
0
  6
Continuous
 62
     7
370
    15
100
AcDbLine
 10
119.5609043099
 20
-272.8630781687
 30
0.0
 11
103.3292631365
 21
-272.8630781687
 31
0.0
  0
LWPOLYLINE
  5
20F
330
1F
100
AcDbEntity
  8
0
  6
Continuous
 62
     7
370
    15
100
AcDbPolyline
 90
       20
 70
   128
 43
0.0
 10
103.3292631365
 20
-272.8630781687
 10
102.8260211207
 20
-272.8349000729
 10
102.325938151
 20
-272.7505296982
 10
101.8321285702
 20
-272.6104885853
 10
101.347706721
 20
-272.4156708039
 10
100.8756826378
 20
-272.1672982491
 10
100.4190365531
 20
-271.8669057406
 10
99.9806145884
 20
-271.5163857258
 10
99.5631585576
 20
-271.1179435767
 10
99.169305966
 20
-270.674067787
 10
98.8014857031
 20
-270.1875299729
 10
98.4620372511
 20
-269.6613699711
 10
98.1530616738
 20
-269.0989107407
 10
97.8765110232
 20
-268.5036540545
 10
97.6340989329
 20
-267.8793401039
 10
97.4273602225
 20
-267.2298729933
 10
97.257591293
 20
-266.5593207396
 10
97.1258501269
 20
-265.8718705691
 10
97.0329413868
 20
-265.1718587197
 10
96.9794760205
 20
-264.4636363304
  0
LWPOLYLINE
  5
210
330
1F
100
AcDbEntity
  8
0
  6
Continuous
 62
     7
370
    15
100
AcDbPolyline
 90
       38
 70
   128
 43
0.0
 10
236.2970034339
 20
123.599913665
 10
235.1200203158
 20
123.5932826482
 10
232.7663819052
 20
123.5402494156
 10
230.4136375643
 20
123.4342276537
 10
228.0623833396
 20
123.2752173626
 10
225.7132450797
 20
123.0632632457
 10
223.3667592265
 20
122.7984100067
 10
221.0235516287
 20
122.4807470524
 10
218.6842481352
 20
122.1103488886
 10
216.3493851878
 20
121.6872900211
 10
214.0195886351
 20
121.2117045604
 10
211.6954545237
 20
120.6836968147
 10
209.3775490977
 20
120.1034008943
 10
207.0664982058
 20
119.4709807121
 10
204.7628382899
 20
118.7865703785
 10
202.4671951987
 20
118.0503636085
 10
200.1801351763
 20
117.2625392162
 10
197.9022244669
 20
116.4233058178
 10
195.634059117
 20
115.5328571283
 10
193.3762053706
 20
114.5914315664
 10
191.1292294718
 20
113.5992675506
 10
188.8937274672
 20
112.5566184007
 10
186.6702656008
 20
111.4637523376
 10
184.4593803145
 20
110.3209375822
 10
182.2616378523
 20
109.1284721576
 10
180.0776342608
 20
107.8866540872
 10
177.9078761794
 20
106.5957813942
 10
175.7529298522
 20
105.2562117063
 10
173.613331721
 20
103.8682728492
 10
171.48964803
 20
102.4323224508
 10
169.3824003197
 20
100.9487032377
 10
167.2921399333
 20
99.4178175413
 10
165.2193884112
 20
97.8400378906
 10
163.164652393
 20
96.215766617
 10
161.1284832217
 20
94.545420953
 10
159.1113875367
 20
92.8294330322
 10
157.1138719775
 20
91.0682200872
 10
156.7484209992
 20
90.7391875469
  0
LWPOLYLINE
  5
211
330
1F
100
AcDbEntity
  8
0
  6
Continuous
 62
     7
370
    15
100
AcDbPolyline
 90
       38
 70
   128
 43
0.0
 10
156.7484209992
 20
-261.5393728531
 10
157.1138719775
 20
-261.8684053934
 10
159.1113875367
 20
-263.6296183384
 10
161.1284832217
 20
-265.3456062592
 10
163.164652393
 20
-267.0159519232
 10
165.2193884112
 20
-268.6402231968
 10
167.2921399333
 20
-270.2180028475
 10
169.3824003197
 20
-271.7488885439
 10
171.48964803
 20
-273.232507757
 10
173.613331721
 20
-274.6684581555
 10
175.7529298522
 20
-276.0563970126
 10
177.9078761794
 20
-277.3959667004
 10
180.0776342608
 20
-278.6868393935
 10
182.2616378523
 20
-279.9286574639
 10
184.4593803145
 20
-281.1211228884
 10
186.6702656008
 20
-282.2639376438
 10
188.8937274672
 20
-283.356803707
 10
191.1292294718
 20
-284.3994528569
 10
193.3762053706
 20
-285.3916168726
 10
195.634059117
 20
-286.3330424345
 10
197.9022244669
 20
-287.223491124
 10
200.1801351763
 20
-288.0627245224
 10
202.4671951987
 20
-288.8505489148
 10
204.7628382899
 20
-289.5867556847
 10
207.0664982058
 20
-290.2711660183
 10
209.3775490977
 20
-290.9035862006
 10
211.6954545237
 20
-291.4838821209
 10
214.0195886351
 20
-292.0118898667
 10
216.3493851878
 20
-292.4874753273
 10
218.6842481352
 20
-292.9105341948
 10
221.0235516287
 20
-293.2809323586
 10
223.3667592265
 20
-293.5985953129
 10
225.7132450797
 20
-293.863448552
 10
228.0623833396
 20
-294.0754026688
 10
230.4136375643
 20
-294.2344129599
 10
232.7663819052
 20
-294.3404347218
 10
235.1200203158
 20
-294.3934679545
 10
236.2970034339
 20
-294.4000989712
  0
LINE
  5
212
330
1F
100
AcDbEntity
  8
0
  6
Continuous
 62
     7
370
    15
100
AcDbLine
 10
178.6970714785
 20
-290.0797606028
 30
0.0
 11
177.9237608172
 21
-290.0142252959
 31
0.0
  0
SPLINE
  5
213
330
1F
100
AcDbEntity
  8
0
  6
Continuous
 62
     7
370
    15
100
AcDbSpline
210
0.0
220
0.0
230
1.0
 70
     8
 71
     3
 72
     9
 73
     5
 74
     0
 42
0.00000001
 43
0.00000001
 12
1.0
 22
0.0
 32
0.0
 13
1.0
 23
0.0
 33
0.0
 40
0.0
 40
0.0
 40
0.0
 40
0.0
 40
0.5044772023023307
 40
0.9999999999999999
 40
0.9999999999999999
 40
0.9999999999999999
 40
0.9999999999999999
 10
75.917221114784
 20
-136.1539692200021
 30
0.0
 10
78.47651107069903
 20
-137.110506604692
 30
0.0
 10
83.54966391930138
 20
-139.0066029601356
 30
0.0
 10
88.64546884097687
 20
-140.7578337665492
 30
0.0
 10
91.17055635228705
 20
-141.6256085551576
 30
0.0
  0
SPLINE
  5
214
330
1F
100
AcDbEntity
  8
0
  6
Continuous
 62
     7
370
    15
100
AcDbSpline
210
0.0
220
0.0
230
1.0
 70
     8
 71
     3
 72
    10
 73
     6
 74
     0
 42
0.00000001
 43
0.00000001
 12
1.0
 22
0.0
 32
0.0
 13
1.0
 23
0.0
 33
0.0
 40
0.0
 40
0.0
 40
0.0
 40
0.0
 40
0.4297170687163716
 40
0.7148585081395701
 40
1.0
 40
1.0
 40
1.0
 40
1.0
 10
77.62481968179297
 20
-155.8819965041475
 30
0.0
 10
73.53712948324295
 20
-154.9080682991385
 30
0.0
 10
66.73702697439678
 20
-153.2878839630881
 30
0.0
 10
57.23828357385133
 20
-150.9082418546993
 30
0.0
 10
51.82692982476153
 20
-149.5074535143399
 30
0.0
 10
49.12125270143103
 20
-148.8070592797594
 30
0.0
  0
SPLINE
  5
215
330
1F
100
AcDbEntity
  8
0
  6
Continuous
 62
     7
370
    15
100
AcDbSpline
210
0.0
220
0.0
230
1.0
 70
     8
 71
     3
 72
    10
 73
     6
 74
     0
 42
0.00000001
 43
0.00000001
 12
1.0
 22
0.0
 32
0.0
 13
1.0
 23
0.0
 33
0.0
 40
0.0
 40
0.0
 40
0.0
 40
0.0
 40
0.4297170687163716
 40
0.7148585081395701
 40
1.0
 40
1.0
 40
1.0
 40
1.0
 10
77.62481968179297
 20
-14.91818880208297
 30
0.0
 10
73.53712948324295
 20
-15.89211700709192
 30
0.0
 10
66.73702697439678
 20
-17.5123013431423
 30
0.0
 10
57.23828357385133
 20
-19.89194345153117
 30
0.0
 10
51.82692982476153
 20
-21.29273179189054
 30
0.0
 10
49.12125270143103
 20
-21.99312602647109
 30
0.0
  0
SPLINE
  5
216
330
1F
100
AcDbEntity
  8
0
  6
Continuous
 62
     7
370
    15
100
AcDbSpline
210
0.0
220
0.0
230
1.0
 70
     8
 71
     3
 72
     9
 73
     5
 74
     0
 42
0.00000001
 43
0.00000001
 12
1.0
 22
0.0
 32
0.0
 13
1.0
 23
0.0
 33
0.0
 40
0.0
 40
0.0
 40
0.0
 40
0.0
 40
0.5044772023023307
 40
0.9999999999999999
 40
0.9999999999999999
 40
0.9999999999999999
 40
0.9999999999999999
 10
75.917221114784
 20
-34.64621608622832
 30
0.0
 10
78.47651107069903
 20
-33.68967870153848
 30
0.0
 10
83.54966391930138
 20
-31.79358234609488
 30
0.0
 10
88.64546884097687
 20
-30.04235153968126
 30
0.0
 10
91.17055635228705
 20
-29.17457675107284
 30
0.0
  0
LINE
  5
217
330
1F
100
AcDbEntity
  8
0
  6
Continuous
 62
     7
370
    15
100
AcDbLine
 10
178.6970714785
 20
119.2795752966
 30
0.0
 11
177.9245058753
 21
119.2141144954
 31
0.0
  0
LINE
  5
218
330
1F
100
AcDbEntity
  8
0
  6
Continuous
 62
     7
370
    15
100
AcDbLine
 10
103.3292631365
 20
102.0628928625
 30
0.0
 11
94.5482621647
 21
102.0628928625
 31
0.0
  0
LINE
  5
219
330
1F
100
AcDbEntity
  8
0
  6
Continuous
 62
     7
370
    15
100
AcDbLine
 10
94.5482621647
 20
102.0628928625
 30
0.0
 11
91.4574633099
 21
-23.107248596
 31
0.0
  0
LINE
  5
21A
330
1F
100
AcDbEntity
  8
0
  6
Continuous
 62
     7
370
    15
100
AcDbLine
 10
87.7502928235
 20
102.0628928625
 30
0.0
 11
94.5482621647
 21
102.0628928625
 31
0.0
  0
LINE
  5
21B
330
1F
100
AcDbEntity
  8
0
  6
Continuous
 62
     7
370
    15
100
AcDbLine
 10
75.9172211148
 20
-34.6462160862
 30
0.0
 11
87.7502928235
 21
102.0628928625
 31
0.0
  0
LINE
  5
21C
330
1F
100
AcDbEntity
  8
0
  6
Continuous
 62
     7
370
    15
100
AcDbLine
 10
94.5482621647
 20
-272.8630781687
 30
0.0
 11
91.4574633099
 21
-147.6929367102
 31
0.0
  0
LINE
  5
21D
330
1F
100
AcDbEntity
  8
0
  6
Continuous
 62
     7
370
    15
100
AcDbLine
 10
87.7502928235
 20
-272.8630781687
 30
0.0
 11
94.5482621647
 21
-272.8630781687
 31
0.0
  0
LINE
  5
21E
330
1F
100
AcDbEntity
  8
0
  6
Continuous
 62
     7
370
    15
100
AcDbLine
 10
75.9172211148
 20
-136.15396922
 30
0.0
 11
87.7502928235
 21
-272.8630781687
 31
0.0
  0
LINE
  5
21F
330
1F
100
AcDbEntity
  8
0
  6
Continuous
 62
     7
370
    15
100
AcDbLine
 10
103.3292631365
 20
-272.8630781687
 30
0.0
 11
94.5482621647
 21
-272.8630781687
 31
0.0
  0
LINE
  5
220
330
1F
100
AcDbEntity
  8
0
  6
Continuous
 62
     7
370
    15
100
AcDbLine
 10
28.4337769009
 20
59.6768080675
 30
0.0
 11
28.4337769009
 21
-22.0405340708
 31
0.0
  0
LINE
  5
221
330
1F
100
AcDbEntity
  8
0
  6
Continuous
 62
     7
370
    15
100
AcDbLine
 10
48.7581933595
 20
-22.0405340708
 30
0.0
 11
49.1212527014
 21
-21.9931260265
 31
0.0
  0
LINE
  5
222
330
1F
100
AcDbEntity
  8
0
  6
Continuous
 62
     7
370
    15
100
AcDbLine
 10
48.7581933595
 20
-22.0405340708
 30
0.0
 11
28.4337769009
 21
-22.0405340708
 31
0.0
  0
LINE
  5
223
330
1F
100
AcDbEntity
  8
0
  6
Continuous
 62
     7
370
    15
100
AcDbLine
 10
28.4337769009
 20
59.6768080675
 30
0.0
 11
87.6816729762
 21
101.2701212846
 31
0.0
  0
LINE
  5
224
330
1F
100
AcDbEntity
  8
0
  6
Continuous
 62
     7
370
    15
100
AcDbLine
 10
48.7581933595
 20
-148.7596512354
 30
0.0
 11
49.1212527014
 21
-148.8070592798
 31
0.0
  0
LINE
  5
225
330
1F
100
AcDbEntity
  8
0
  6
Continuous
 62
     7
370
    15
100
AcDbLine
 10
28.4337769009
 20
-230.4769933737
 30
0.0
 11
87.6816729762
 21
-272.0703065909
 31
0.0
  0
LINE
  5
226
330
1F
100
AcDbEntity
  8
0
  6
Continuous
 62
     7
370
    15
100
AcDbLine
 10
28.4337769009
 20
-230.4769933737
 30
0.0
 11
28.4337769009
 21
-148.7596512354
 31
0.0
  0
LINE
  5
227
330
1F
100
AcDbEntity
  8
0
  6
Continuous
 62
     7
370
    15
100
AcDbLine
 10
48.7581933595
 20
-148.7596512354
 30
0.0
 11
28.4337769009
 21
-148.7596512354
 31
0.0
  0
SPLINE
  5
228
330
1F
100
AcDbEntity
  8
0
  6
Continuous
 62
     7
370
    15
100
AcDbSpline
210
0.0
220
0.0
230
1.0
 70
     8
 71
     3
 72
    11
 73
     7
 74
     0
 42
0.00000001
 43
0.00000001
 12
1.0
 22
0.0
 32
0.0
 13
1.0
 23
0.0
 33
0.0
 40
0.0
 40
0.0
 40
0.0
 40
0.0
 40
0.0069960022418124
 40
0.3875302140408521
 40
0.4972980656625663
 40
0.9999999999999999
 40
0.9999999999999999
 40
0.9999999999999999
 40
0.9999999999999999
 10
-78.6009119145577
 20
-290.4000759638147
 30
0.0
 10
-78.60252702849787
 20
-290.4000810384589
 30
0.0
 10
-78.69199318778392
 20
-290.4003621387098
 30
0.0
 10
-78.8438523799528
 20
-290.3994519418067
 30
0.0
 10
-79.10388220971105
 20
-290.3990941672438
 30
0.0
 10
-79.31160764827177
 20
-290.3976610530535
 30
0.0
 10
-79.48210418894935
 20
-290.396484783967
 30
0.0
  0
SPLINE
  5
229
330
1F
100
AcDbEntity
  8
0
  6
Continuous
 62
     7
370
    15
100
AcDbSpline
210
0.0
220
0.0
230
1.0
 70
     8
 71
     3
 72
    11
 73
     7
 74
     0
 42
0.00000001
 43
0.00000001
 12
1.0
 22
0.0
 32
0.0
 13
1.0
 23
0.0
 33
0.0
 40
0.0
 40
0.0
 40
0.0
 40
0.0
 40
0.0069960022420764
 40
0.369814081737712
 40
0.4972980656435915
 40
0.9999999999999999
 40
0.9999999999999999
 40
0.9999999999999999
 40
0.9999999999999999
 10
-78.6009119145577
 20
119.5998906575843
 30
0.0
 10
-78.60252690166772
 20
119.5998957340265
 30
0.0
 10
-78.6878963676059
 20
119.6001640786864
 30
0.0
 10
-78.83948240220442
 20
119.5992918421883
 30
0.0
 10
-79.0982832355485
 20
119.5989217118833
 30
0.0
 10
-79.31178941747827
 20
119.5974630546739
 30
0.0
 10
-79.48210418894935
 20
119.5962994777365
 30
0.0
  0
LINE
  5
22A
330
1F
100
AcDbEntity
  8
0
  6
Continuous
 62
     7
370
    15
100
AcDbLine
 10
334.4883839346
 20
63.7252300464
 30
0.0
 11
385.9790782191
 21
50.8853166782
 31
0.0
  0
LWPOLYLINE
  5
22B
330
1F
100
AcDbEntity
  8
0
  6
Continuous
 62
     7
370
    15
100
AcDbPolyline
 90
       44
 70
   128
 43
0.0
 10
385.9790782191
 20
50.8853166782
 10
387.1062318541
 20
50.5774735891
 10
388.2257262923
 20
50.2180575811
 10
389.3363694407
 20
49.8074113809
 10
390.4369990088
 20
49.3460118257
 10
391.5264825083
 20
48.8343059503
 10
392.6036278464
 20
48.2728450977
 10
393.6673025347
 20
47.6622402155
 10
394.7164336897
 20
47.0031022512
 10
395.7498590209
 20
46.2961613619
 10
396.7665056445
 20
45.5421328031
 10
397.765300677
 20
44.7418212377
 10
398.7452308394
 20
43.896090933
 10
399.7051934458
 20
43.0057912552
 10
400.6442348219
 20
42.0719056808
 10
401.5613416888
 20
41.0953878843
 10
402.4555305697
 20
40.0772809469
 10
403.3258775927
 20
39.0186577522
 10
404.1714886881
 20
37.9206284367
 10
404.9914101817
 20
36.784355291
 10
405.7848374106
 20
35.6110378586
 10
406.5509061076
 20
34.4019054853
 10
407.2888116099
 20
33.1582396709
 10
407.9977790572
 20
31.8813442671
 10
408.6770633914
 20
30.57258273
 10
409.3259493567
 20
29.2333110654
 10
409.9437514998
 20
27.8649597847
 10
410.5297843672
 20
26.46896685
 10
411.0834817149
 20
25.0468000256
 10
411.6042474963
 20
23.5999568783
 10
412.0915154673
 20
22.1299722277
 10
412.5447789885
 20
20.638388344
 10
412.9635612227
 20
19.1267772996
 10
413.3474449374
 20
17.5967409693
 10
413.6959532954
 20
16.0498812281
 10
414.0088180758
 20
14.4878372037
 10
414.2856220461
 20
12.9122554742
 10
414.5261267878
 20
11.3247900688
 10
414.7300640799
 20
9.7271173679
 10
414.8971955039
 20
8.1209286534
 10
415.0274018504
 20
6.5079152071
 10
415.1204745032
 20
4.8897683107
 10
415.17638366
 20
3.2682015978
 10
415.1950101115
 20
1.644928702
  0
LINE
  5
22C
330
1F
100
AcDbEntity
  8
0
  6
Continuous
 62
     7
370
    15
100
AcDbLine
 10
415.1950101115
 20
1.644928702
 30
0.0
 11
415.1950101115
 21
-172.4451140083
 31
0.0
  0
LWPOLYLINE
  5
22D
330
1F
100
AcDbEntity
  8
0
  6
Continuous
 62
     7
370
    15
100
AcDbPolyline
 90
       44
 70
   128
 43
0.0
 10
415.1950101115
 20
-172.4451140083
 10
415.17638366
 20
-174.0683869041
 10
415.1204745032
 20
-175.6899536169
 10
415.0274018504
 20
-177.3081005133
 10
414.8971955039
 20
-178.9211139596
 10
414.7300640799
 20
-180.5273026741
 10
414.5261267878
 20
-182.124975375
 10
414.2856220461
 20
-183.7124407805
 10
414.0088180758
 20
-185.2880225099
 10
413.6959532954
 20
-186.8500665344
 10
413.3474449374
 20
-188.3969262756
 10
412.9635612227
 20
-189.9269626058
 10
412.5447789885
 20
-191.4385736502
 10
412.0915154673
 20
-192.930157534
 10
411.6042474963
 20
-194.4001421846
 10
411.0834817149
 20
-195.8469853319
 10
410.5297843672
 20
-197.2691521562
 10
409.9437514998
 20
-198.6651450909
 10
409.3259493567
 20
-200.0334963716
 10
408.6770633914
 20
-201.3727680362
 10
407.9977790572
 20
-202.6815295733
 10
407.2888116099
 20
-203.9584249771
 10
406.5509061076
 20
-205.2020907915
 10
405.7848374106
 20
-206.4112231649
 10
404.9914101817
 20
-207.5845405973
 10
404.1714886881
 20
-208.720813743
 10
403.3258775927
 20
-209.8188430584
 10
402.4555305697
 20
-210.8774662531
 10
401.5613416888
 20
-211.8955731905
 10
400.6442348219
 20
-212.872090987
 10
399.7051934458
 20
-213.8059765614
 10
398.7452308394
 20
-214.6962762392
 10
397.765300677
 20
-215.542006544
 10
396.7665056445
 20
-216.3423181094
 10
395.7498590209
 20
-217.0963466681
 10
394.7164336897
 20
-217.8032875574
 10
393.6673025347
 20
-218.4624255217
 10
392.6036278464
 20
-219.0730304039
 10
391.5264825083
 20
-219.6344912566
 10
390.4369990088
 20
-220.146197132
 10
389.3363694407
 20
-220.6075966872
 10
388.2257262923
 20
-221.0182428873
 10
387.1062318541
 20
-221.3776588953
 10
385.9790782191
 20
-221.6855019844
  0
LINE
  5
22E
330
1F
100
AcDbEntity
  8
0
  6
Continuous
 62
     7
370
    15
100
AcDbLine
 10
385.9790782191
 20
-221.6855019844
 30
0.0
 11
334.4883839346
 21
-234.5254153527
 31
0.0
  0
LWPOLYLINE
  5
22F
330
1F
100
AcDbEntity
  8
0
  6
Continuous
 62
     7
370
    15
100
AcDbPolyline
 90
       44
 70
   128
 43
0.0
 10
392.3430363394
 20
50.8853166782
 10
393.4701899745
 20
50.5774735891
 10
394.5896844126
 20
50.2180575811
 10
395.7003275611
 20
49.8074113809
 10
396.8009571292
 20
49.3460118257
 10
397.8904406287
 20
48.8343059503
 10
398.9675859667
 20
48.2728450977
 10
400.0312606551
 20
47.6622402155
 10
401.0803918101
 20
47.0031022512
 10
402.1138171412
 20
46.2961613619
 10
403.1304637648
 20
45.5421328031
 10
404.1292885996
 20
44.7418212377
 10
405.1091889597
 20
43.896090933
 10
406.0691515662
 20
43.0057912552
 10
407.0081929423
 20
42.0719056808
 10
407.9252998091
 20
41.0953878843
 10
408.81948869
 20
40.0772809469
 10
409.6898357131
 20
39.0186577522
 10
410.5354468085
 20
37.9206284367
 10
411.355368302
 20
36.784355291
 10
412.1487955309
 20
35.6110378586
 10
412.9148642279
 20
34.4019054853
 10
413.6527697302
 20
33.1582396709
 10
414.3617371775
 20
31.8813442671
 10
415.0410215117
 20
30.57258273
 10
415.6899074771
 20
29.2333110654
 10
416.3077096201
 20
27.8649597847
 10
416.8937424876
 20
26.46896685
 10
417.4474398352
 20
25.0468000256
 10
417.9682056166
 20
23.5999568783
 10
418.4554735877
 20
22.1299722277
 10
418.9087371089
 20
20.638388344
 10
419.327519343
 20
19.1267772996
 10
419.7114030577
 20
17.5967409693
 10
420.059941218
 20
16.0498812281
 10
420.3727761962
 20
14.4878372037
 10
420.6495801665
 20
12.9122554742
 10
420.8900849082
 20
11.3247900688
 10
421.0940222003
 20
9.7271173679
 10
421.2611834265
 20
8.1209286534
 10
421.3913599707
 20
6.5079152071
 10
421.4844326235
 20
4.8897683107
 10
421.5403417803
 20
3.2682015978
 10
421.5589682318
 20
1.644928702
  0
LINE
  5
230
330
1F
100
AcDbEntity
  8
0
  6
Continuous
 62
     7
370
    15
100
AcDbLine
 10
421.5589682318
 20
1.644928702
 30
0.0
 11
421.5589682318
 21
-172.4451140083
 31
0.0
  0
LWPOLYLINE
  5
231
330
1F
100
AcDbEntity
  8
0
  6
Continuous
 62
     7
370
    15
100
AcDbPolyline
 90
       44
 70
   128
 43
0.0
 10
421.5589682318
 20
-172.4451140083
 10
421.5403417803
 20
-174.0683869041
 10
421.4844326235
 20
-175.6899536169
 10
421.3913599707
 20
-177.3081005133
 10
421.2611834265
 20
-178.9211139596
 10
421.0940222003
 20
-180.5273026741
 10
420.8900849082
 20
-182.124975375
 10
420.6495801665
 20
-183.7124407805
 10
420.3727761962
 20
-185.2880225099
 10
420.059941218
 20
-186.8500665344
 10
419.7114030577
 20
-188.3969262756
 10
419.327519343
 20
-189.9269626058
 10
418.9087371089
 20
-191.4385736502
 10
418.4554735877
 20
-192.930157534
 10
417.9682056166
 20
-194.4001421846
 10
417.4474398352
 20
-195.8469853319
 10
416.8937424876
 20
-197.2691521562
 10
416.3077096201
 20
-198.6651450909
 10
415.6899074771
 20
-200.0334963716
 10
415.0410215117
 20
-201.3727680362
 10
414.3617371775
 20
-202.6815295733
 10
413.6527697302
 20
-203.9584249771
 10
412.9148642279
 20
-205.2020907915
 10
412.1487955309
 20
-206.4112231649
 10
411.355368302
 20
-207.5845405973
 10
410.5354468085
 20
-208.720813743
 10
409.6898357131
 20
-209.8188430584
 10
408.81948869
 20
-210.8774662531
 10
407.9252998091
 20
-211.8955731905
 10
407.0081929423
 20
-212.872090987
 10
406.0691515662
 20
-213.8059765614
 10
405.1091889597
 20
-214.6962762392
 10
404.1292885996
 20
-215.542006544
 10
403.1304637648
 20
-216.3423181094
 10
402.1138171412
 20
-217.0963466681
 10
401.0803918101
 20
-217.8032875574
 10
400.0312606551
 20
-218.4624255217
 10
398.9675859667
 20
-219.0730304039
 10
397.8904406287
 20
-219.6344912566
 10
396.8009571292
 20
-220.146197132
 10
395.7003275611
 20
-220.6075966872
 10
394.5896844126
 20
-221.0182428873
 10
393.4701899745
 20
-221.3776588953
 10
392.3430363394
 20
-221.6855019844
  0
LINE
  5
232
330
1F
100
AcDbEntity
  8
0
  6
Continuous
 62
     7
370
    15
100
AcDbLine
 10
332.1178476073
 20
65.9033029758
 30
0.0
 11
392.3430363394
 21
50.8853166782
 31
0.0
  0
LINE
  5
233
330
1F
100
AcDbEntity
  8
0
  6
Continuous
 62
     7
370
    15
100
AcDbLine
 10
392.3430363394
 20
-221.6855019844
 30
0.0
 11
332.1178476073
 21
-236.703488282
 31
0.0
  0
ARC
  5
234
330
1F
100
AcDbEntity
  8
0
  6
Continuous
 62
     7
370
    15
100
AcDbCircle
 10
319.1589380995
 20
92.8415371592
 30
0.0
 40
12.21780963928143
100
AcDbArc
 50
343.149087831
 51
0.1704855158
  0
ARC
  5
235
330
1F
100
AcDbEntity
  8
0
  6
Continuous
 62
     7
370
    15
100
AcDbCircle
 10
319.1589380995
 20
-263.6417224655
 30
0.0
 40
12.21780963928143
100
AcDbArc
 50
359.8295144842
 51
16.850912169
  0
LINE
  5
236
330
1F
100
AcDbEntity
  8
0
  6
Continuous
 62
     7
370
    15
100
AcDbLine
 10
337.7406517722
 20
102.0628928625
 30
0.0
 11
353.9722780444
 21
102.0628928625
 31
0.0
  0
ELLIPSE
  5
237
330
1F
100
AcDbEntity
  8
0
  6
Continuous
 62
     7
370
    15
100
AcDbEllipse
 10
353.4155143564
 20
93.0628941445
 30
0.0
 11
1.101134461225854
 21
8.966764124245401
 31
0.0
210
0.0
220
0.0
230
1.0
 40
0.7017754025
 41
0.0859668565494805
 42
1.656763183344383
  0
LWPOLYLINE
  5
238
330
1F
100
AcDbEntity
  8
0
  6
Continuous
 62
     7
370
    15
100
AcDbPolyline
 90
       21
 70
   128
 43
0.0
 10
331.3766936518
 20
93.0628895246
 10
331.39630358
 20
93.7690257513
 10
331.4550439574
 20
94.4708108389
 10
331.5525273539
 20
95.1639085495
 10
331.6881577231
 20
95.8440422498
 10
331.8611005999
 20
96.5070396148
 10
332.0703129031
 20
97.1488028251
 10
332.3144833304
 20
97.765383073
 10
332.5920919634
 20
98.3529656612
 10
332.9014400698
 20
98.9079296076
 10
333.2406501032
 20
99.4268625461
 10
333.6075762965
 20
99.9065458261
 10
334.0000132777
 20
100.3440439188
 10
334.4154874541
 20
100.7366597139
 10
334.8514656283
 20
101.0819494211
 10
335.3052655913
 20
101.3778119766
 10
335.7740859248
 20
101.6223996364
 10
336.2550060011
 20
101.8142222845
 10
336.7451051928
 20
101.9520878278
 10
337.2413436629
 20
102.0351469003
 10
337.7406517722
 20
102.0628928625
  0
ELLIPSE
  5
239
330
1F
100
AcDbEntity
  8
0
  6
Continuous
 62
     7
370
    15
100
AcDbEllipse
 10
384.9396013313
 20
93.0628941445
 30
0.0
 11
1.101134461225854
 21
8.966764124245401
 31
0.0
210
0.0
220
0.0
230
1.0
 40
0.7017754025
 41
4.865133671462955
 42
6.369152163729058
  0
LINE
  5
23A
330
1F
100
AcDbEntity
  8
0
  6
Continuous
 62
     7
370
    15
100
AcDbLine
 10
390.7900969245
 20
56.8569570266
 30
0.0
 11
391.3265387274
 21
93.6634510242
 31
0.0
  0
LINE
  5
23B
330
1F
100
AcDbEntity
  8
0
  6
Continuous
 62
     7
370
    15
100
AcDbLine
 10
347.0515529372
 20
93.0628895246
 30
0.0
 11
345.1700131156
 21
62.6485615455
 31
0.0
  0
LINE
  5
23C
330
1F
100
AcDbEntity
  8
0
  6
Continuous
 62
     7
370
    15
100
AcDbLine
 10
385.4963700034
 20
102.0628928625
 30
0.0
 11
353.9722780444
 21
102.0628928625
 31
0.0
  0
LINE
  5
23D
330
1F
100
AcDbEntity
  8
0
  6
Continuous
 62
     7
370
    15
100
AcDbLine
 10
390.7900969245
 20
-227.6571423329
 30
0.0
 11
391.3265387274
 21
-264.4636363304
 31
0.0
  0
ELLIPSE
  5
23E
330
1F
100
AcDbEntity
  8
0
  6
Continuous
 62
     7
370
    15
100
AcDbEllipse
 10
384.9396013313
 20
-263.8630794508
 30
0.0
 11
-1.101134461225797
 21
8.966764124245401
 31
0.0
210
0.0
220
0.0
230
1.0
 40
0.7017754025
 41
3.055625797040331
 42
4.559644289306449
  0
LINE
  5
23F
330
1F
100
AcDbEntity
  8
0
  6
Continuous
 62
     7
370
    15
100
AcDbLine
 10
385.4963700034
 20
-272.8630781687
 30
0.0
 11
353.9722780444
 21
-272.8630781687
 31
0.0
  0
ELLIPSE
  5
240
330
1F
100
AcDbEntity
  8
0
  6
Continuous
 62
     7
370
    15
100
AcDbEllipse
 10
353.4155143564
 20
-263.8630794508
 30
0.0
 11
-1.101134461225911
 21
8.966764124245346
 31
0.0
210
0.0
220
0.0
230
1.0
 40
0.7017754025
 41
1.484829470245409
 42
3.055625797040311
  0
LINE
  5
241
330
1F
100
AcDbEntity
  8
0
  6
Continuous
 62
     7
370
    15
100
AcDbLine
 10
347.0515529372
 20
-263.8630748308
 30
0.0
 11
345.1700131156
 21
-233.4487468518
 31
0.0
  0
LINE
  5
242
330
1F
100
AcDbEntity
  8
0
  6
Continuous
 62
     7
370
    15
100
AcDbLine
 10
353.9722780444
 20
-272.8630781687
 30
0.0
 11
337.7406517722
 21
-272.8630781687
 31
0.0
  0
LWPOLYLINE
  5
243
330
1F
100
AcDbEntity
  8
0
  6
Continuous
 62
     7
370
    15
100
AcDbPolyline
 90
       21
 70
   128
 43
0.0
 10
337.7406517722
 20
-272.8630781687
 10
337.2413436629
 20
-272.8353322066
 10
336.7451051928
 20
-272.7522731341
 10
336.2550060011
 20
-272.6144075907
 10
335.7740859248
 20
-272.4225849427
 10
335.3052655913
 20
-272.1779972828
 10
334.8514656283
 20
-271.8821347273
 10
334.4154874541
 20
-271.5368450201
 10
334.0000132777
 20
-271.144229225
 10
333.6075762965
 20
-270.7067311323
 10
333.2406501032
 20
-270.2270478524
 10
332.9014400698
 20
-269.7081149138
 10
332.5920919634
 20
-269.1531509674
 10
332.3144833304
 20
-268.5655683792
 10
332.0703129031
 20
-267.9489881314
 10
331.8611005999
 20
-267.3072249211
 10
331.6881577231
 20
-266.6442275561
 10
331.5525273539
 20
-265.9640938557
 10
331.4550439574
 20
-265.2709961451
 10
331.39630358
 20
-264.5692110575
 10
331.3766936518
 20
-263.8630748308
  0
LINE
  5
244
330
1F
100
AcDbEntity
  8
0
  6
Continuous
 62
     7
370
    15
100
AcDbLine
 10
331.3766936518
 20
92.8778916084
 30
0.0
 11
331.3766936518
 21
93.0628895246
 31
0.0
  0
LINE
  5
245
330
1F
100
AcDbEntity
  8
0
  6
Continuous
 62
     7
370
    15
100
AcDbLine
 10
331.3766936518
 20
-263.8630748308
 30
0.0
 11
331.3766936518
 21
-263.6780769146
 31
0.0
  0
LINE
  5
246
330
1F
100
AcDbEntity
  8
0
  6
Continuous
 62
     7
370
    15
100
AcDbLine
 10
-234.5370878719
 20
-312.8463209189
 30
0.0
 11
-213.0370964549
 21
-312.8463209189
 31
0.0
  0
LINE
  5
247
330
1F
100
AcDbEntity
  8
0
  6
Continuous
 62
     7
370
    15
100
AcDbLine
 10
-234.5370878719
 20
142.0461356126
 30
0.0
 11
-234.5370878719
 21
-312.8463209189
 31
0.0
  0
LINE
  5
248
330
1F
100
AcDbEntity
  8
0
  6
Continuous
 62
     7
370
    15
100
AcDbLine
 10
-234.5370878719
 20
142.0461356126
 30
0.0
 11
-213.0370964549
 21
142.0461356126
 31
0.0
  0
LINE
  5
249
330
1F
100
AcDbEntity
  8
0
  6
Continuous
 62
     7
370
    15
100
AcDbLine
 10
-213.0370964549
 20
142.0461356126
 30
0.0
 11
-213.0370964549
 21
-312.8463209189
 31
0.0
  0
LINE
  5
24A
330
1F
100
AcDbEntity
  8
0
  6
Continuous
 62
     7
370
    15
100
AcDbLine
 10
437.9628817298
 20
-312.8463209189
 30
0.0
 11
459.4629327513
 21
-312.8463209189
 31
0.0
  0
LINE
  5
24B
330
1F
100
AcDbEntity
  8
0
  6
Continuous
 62
     7
370
    15
100
AcDbLine
 10
437.9628817298
 20
142.0461356126
 30
0.0
 11
459.4629327513
 21
142.0461356126
 31
0.0
  0
LINE
  5
24C
330
1F
100
AcDbEntity
  8
0
  6
Continuous
 62
     7
370
    15
100
AcDbLine
 10
459.4629327513
 20
142.0461356126
 30
0.0
 11
459.4629327513
 21
-312.8463209189
 31
0.0
  0
LINE
  5
24D
330
1F
100
AcDbEntity
  8
0
  6
Continuous
 62
     7
370
    15
100
AcDbLine
 10
437.9628817298
 20
142.0461356126
 30
0.0
 11
437.9628817298
 21
-312.8463209189
 31
0.0
  0
LINE
  5
24E
330
1F
100
AcDbEntity
  8
0
  6
Continuous
 62
     7
370
    15
100
AcDbLine
 10
337.7406517722
 20
102.0628928625
 30
0.0
 11
328.5482744433
 21
102.0628928625
 31
0.0
  0
LINE
  5
24F
330
1F
100
AcDbEntity
  8
0
  6
Continuous
 62
     7
370
    15
100
AcDbLine
 10
328.5482744433
 20
102.0628928625
 30
0.0
 11
328.2905439593
 21
91.6256725275
 31
0.0
  0
LINE
  5
250
330
1F
100
AcDbEntity
  8
0
  6
Continuous
 62
     7
370
    15
100
AcDbLine
 10
321.750305102
 20
102.0628928625
 30
0.0
 11
328.5482744433
 21
102.0628928625
 31
0.0
  0
LINE
  5
251
330
1F
100
AcDbEntity
  8
0
  6
Continuous
 62
     7
370
    15
100
AcDbLine
 10
321.3484207846
 20
97.4199890577
 30
0.0
 11
321.750305102
 21
102.0628928625
 31
0.0
  0
LINE
  5
252
330
1F
100
AcDbEntity
  8
0
  6
Continuous
 62
     7
370
    15
100
AcDbLine
 10
337.7406517722
 20
-272.8630781687
 30
0.0
 11
328.5482744433
 21
-272.8630781687
 31
0.0
  0
LINE
  5
253
330
1F
100
AcDbEntity
  8
0
  6
Continuous
 62
     7
370
    15
100
AcDbLine
 10
328.5482744433
 20
-272.8630781687
 30
0.0
 11
328.2905439593
 21
-262.4258578337
 31
0.0
  0
LINE
  5
254
330
1F
100
AcDbEntity
  8
0
  6
Continuous
 62
     7
370
    15
100
AcDbLine
 10
321.750305102
 20
-272.8630781687
 30
0.0
 11
328.5482744433
 21
-272.8630781687
 31
0.0
  0
LINE
  5
255
330
1F
100
AcDbEntity
  8
0
  6
Continuous
 62
     7
370
    15
100
AcDbLine
 10
321.3484207846
 20
-268.2201743639
 30
0.0
 11
321.750305102
 21
-272.8630781687
 31
0.0
  0
LINE
  5
256
330
1F
100
AcDbEntity
  8
0
  6
Continuous
 62
     7
370
    15
100
AcDbLine
 10
318.8851992346
 20
99.3069230997
 30
0.0
 11
321.6816703536
 21
101.2701212846
 31
0.0
  0
LINE
  5
257
330
1F
100
AcDbEntity
  8
0
  6
Continuous
 62
     7
370
    15
100
AcDbLine
 10
318.8851992346
 20
-270.1071084059
 30
0.0
 11
321.6816703536
 21
-272.0703065909
 31
0.0
  0
LINE
  5
258
330
1F
100
AcDbEntity
  8
0
  6
Continuous
 62
     7
370
    15
100
AcDbLine
 10
-171.5370943092
 20
-147.4449404097
 30
0.0
 11
-171.5370943092
 21
-23.3552448965
 31
0.0
  0
LINE
  5
259
330
1F
100
AcDbEntity
  8
0
  6
Continuous
 62
     7
370
    15
100
AcDbLine
 10
462.4628941275
 20
98.0999141418
 30
0.0
 11
462.4628941275
 21
-268.900099448
 31
0.0
  0
LINE
  5
25A
330
1F
100
AcDbEntity
  8
0
  6
Continuous
 62
     7
370
    15
100
AcDbLine
 10
-237.5370939516
 20
98.0999141418
 30
0.0
 11
-237.5370939516
 21
-268.900099448
 31
0.0
  0
LINE
  5
25B
330
1F
100
AcDbEntity
  8
0
  6
Continuous
 62
     7
370
    15
100
AcDbLine
 10
-171.5370943092
 20
93.1284397327
 30
0.0
 11
-171.5370943092
 21
94.0704911434
 31
0.0
  0
LINE
  5
25C
330
1F
100
AcDbEntity
  8
0
  6
Continuous
 62
     7
370
    15
100
AcDbLine
 10
-171.5370943092
 20
-263.9286250389
 30
0.0
 11
-171.5370943092
 21
-264.8706764496
 31
0.0
  0
LINE
  5
25D
330
1F
100
AcDbEntity
  8
0
  6
Continuous
 62
     8
370
     0
100
AcDbLine
 10
259.6315066077
 20
1.644928702
 30
0.0
 11
265.9954945303
 21
1.644928702
 31
0.0
  0
LINE
  5
25E
330
1F
100
AcDbEntity
  8
0
  6
Continuous
 62
     8
370
     0
100
AcDbLine
 10
230.4155747153
 20
50.8853166782
 30
0.0
 11
236.7795328356
 21
50.8853166782
 31
0.0
  0
LINE
  5
25F
330
1F
100
AcDbEntity
  8
0
  6
Continuous
 62
     8
370
     0
100
AcDbLine
 10
259.6315066077
 20
-172.4451140083
 30
0.0
 11
265.9954945303
 21
-172.4451140083
 31
0.0
  0
LINE
  5
260
330
1F
100
AcDbEntity
  8
0
  6
Continuous
 62
     8
370
     0
100
AcDbLine
 10
230.4155747153
 20
-221.6855019844
 30
0.0
 11
236.7795328356
 21
-221.6855019844
 31
0.0
  0
LINE
  5
261
330
1F
100
AcDbEntity
  8
0
  6
Continuous
 62
     8
370
     0
100
AcDbLine
 10
112.6914988019
 20
93.6634510242
 30
0.0
 11
96.9794760205
 21
93.6634510242
 31
0.0
  0
LINE
  5
262
330
1F
100
AcDbEntity
  8
0
  6
Continuous
 62
     8
370
     0
100
AcDbLine
 10
96.9794760205
 20
-264.4636363304
 30
0.0
 11
112.6914988019
 21
-264.4636363304
 31
0.0
  0
ARC
  5
263
330
1F
100
AcDbEntity
  8
0
  6
Continuous
 62
     8
370
     0
100
AcDbCircle
 10
188.7141255914
 20
-178.4038261646
 30
0.0
 40
112.1307859876232
100
AcDbArc
 50
237.3946917557
 51
264.4778721283
  0
ARC
  5
264
330
1F
100
AcDbEntity
  8
0
  6
Continuous
 62
     8
370
     0
100
AcDbCircle
 10
327.7652583295
 20
-85.4000926531
 30
0.0
 40
285.7672572028666
100
AcDbArc
 50
167.1803307901
 51
192.8196692099
  0
ARC
  5
265
330
1F
100
AcDbEntity
  8
0
  6
Continuous
 62
     8
370
     0
100
AcDbCircle
 10
188.7141596268
 20
7.603558486
 30
0.0
 40
112.1308737182439
100
AcDbArc
 50
95.521758531
 51
122.6053002145
  0
LINE
  5
266
330
1F
100
AcDbEntity
  8
0
  6
Continuous
 62
     8
370
     0
100
AcDbLine
 10
157.3537210681
 20
85.5177908622
 30
0.0
 11
164.6788785912
 21
85.5177908622
 31
0.0
  0
LINE
  5
267
330
1F
100
AcDbEntity
  8
0
  6
Continuous
 62
     8
370
     0
100
AcDbLine
 10
164.6788785912
 20
-256.3179761685
 30
0.0
 11
157.3537210681
 21
-256.3179761685
 31
0.0
  0
ARC
  5
268
330
1F
100
AcDbEntity
  8
0
  6
Continuous
 62
     8
370
     0
100
AcDbCircle
 10
327.3978129023
 20
-85.4000926531
 30
0.0
 40
285.7524649809681
100
AcDbArc
 50
167.1894044217
 51
192.8105955783
  0
ARC
  5
269
330
1F
100
AcDbEntity
  8
0
  6
Continuous
 62
     8
370
     0
100
AcDbCircle
 10
188.0778157595
 20
-179.0727249213
 30
0.0
 40
111.40631766658
100
AcDbArc
 50
237.3387999107
 51
265.8766189244
  0
SPLINE
  5
26A
330
1F
100
AcDbEntity
  8
0
  6
Continuous
 62
     8
370
     0
100
AcDbSpline
210
0.0
220
0.0
230
1.0
 70
     8
 71
     3
 72
     8
 73
     4
 74
     0
 42
0.00000001
 43
0.00000001
 12
1.0
 22
0.0
 32
0.0
 13
1.0
 23
0.0
 33
0.0
 40
0.0
 40
0.0
 40
0.0
 40
0.0
 40
1.0
 40
1.0
 40
1.0
 40
1.0
 10
-79.48210415597356
 20
-290.3964787592149
 30
0.0
 10
-79.77126409571656
 20
-290.3945214322499
 30
0.0
 10
-80.0738751182112
 20
-290.3917992083205
 30
0.0
 10
-80.38776519231361
 20
-290.3884761190556
 30
0.0
  0
ELLIPSE
  5
26B
330
1F
100
AcDbEntity
  8
0
  6
Continuous
 62
     8
370
     0
100
AcDbEllipse
 10
-75.5370934747
 20
-85.4000926531
 30
0.0
 11
455.6503243191941
 21
0.0
 31
0.0
210
0.0
220
0.0
230
1.0
 40
0.4499064064
 41
4.545474401358642
 42
4.701743177926858
  0
ELLIPSE
  5
26C
330
1F
100
AcDbEntity
  8
0
  6
Continuous
 62
     8
370
     0
100
AcDbEllipse
 10
-148.5370934747
 20
-85.4000926531
 30
0.0
 11
0.0
 21
205.0000000000007
 31
0.0
210
0.0
220
0.0
230
1.0
 40
0.0793339315
 41
2.775142271667309
 42
2.974678074563732
  0
SPLINE
  5
26D
330
1F
100
AcDbEntity
  8
0
  6
Continuous
 62
     8
370
     0
100
AcDbSpline
210
0.0
220
0.0
230
1.0
 70
     8
 71
     3
 72
    24
 73
    20
 74
     0
 42
0.00000001
 43
0.00000001
 12
1.0
 22
0.0
 32
0.0
 13
1.0
 23
0.0
 33
0.0
 40
0.0
 40
0.0
 40
0.0
 40
0.0
 40
0.1249999999999997
 40
0.1249999999999997
 40
0.2499999999999994
 40
0.2499999999999994
 40
0.3124999999999993
 40
0.3124999999999993
 40
0.3749999999999993
 40
0.3749999999999993
 40
0.4999999999999993
 40
0.4999999999999993
 40
0.6249999999999994
 40
0.6249999999999994
 40
0.7499999999999997
 40
0.7499999999999997
 40
0.8749999999999998
 40
0.8749999999999998
 40
1.0
 40
1.0
 40
1.0
 40
1.0
 10
-154.3643508134613
 20
-276.7891311887378
 30
0.0
 10
-154.6783347301757
 20
-275.2702052970836
 30
0.0
 10
-155.0306662866598
 20
-273.6141499958786
 30
0.0
 10
-155.7558607644845
 20
-270.0289119625698
 30
0.0
 10
-156.1287660837279
 20
-268.0998163453028
 30
0.0
 10
-156.6725776776299
 20
-265.0022596708325
 30
0.0
 10
-156.8513682780038
 20
-263.9357474585526
 30
0.0
 10
-157.2002916523394
 20
-261.7345932268016
 30
0.0
 10
-157.370445203687
 20
-260.5996069661704
 30
0.0
 10
-157.8622236062816
 20
-257.1058241992869
 30
0.0
 10
-158.1651947447403
 20
-254.6543846507084
 30
0.0
 10
-158.7182146156917
 20
-249.5054320886509
 30
0.0
 10
-158.968431987747
 20
-246.8079930660871
 30
0.0
 10
-159.432098700298
 20
-241.1541556814501
 30
0.0
 10
-159.645903003788
 20
-238.1977272885489
 30
0.0
 10
-160.0641273072652
 20
-232.0007181112009
 30
0.0
 10
-160.2688934125362
 20
-228.7600616597136
 30
0.0
 10
-160.6963352191396
 20
-221.958979291532
 30
0.0
 10
-160.9192028563167
 20
-218.3985225615527
 30
0.0
 10
-161.1603855865207
 20
-214.6561237319079
 30
0.0
  0
ELLIPSE
  5
26E
330
1F
100
AcDbEntity
  8
0
  6
Continuous
 62
     8
370
     0
100
AcDbEllipse
 10
-148.5370934747
 20
-85.4000926531
 30
0.0
 11
0.0
 21
205.0000000000007
 31
0.0
210
0.0
220
0.0
230
1.0
 40
0.0793339315
 41
0.8885769191747287
 42
2.253015734415065
  0
SPLINE
  5
26F
330
1F
100
AcDbEntity
  8
0
  6
Continuous
 62
     8
370
     0
100
AcDbSpline
210
0.0
220
0.0
230
1.0
 70
     8
 71
     3
 72
    24
 73
    20
 74
     0
 42
0.00000001
 43
0.00000001
 12
1.0
 22
0.0
 32
0.0
 13
1.0
 23
0.0
 33
0.0
 40
0.0
 40
0.0
 40
0.0
 40
0.0
 40
0.1249999999999997
 40
0.1249999999999997
 40
0.2499999999999994
 40
0.2499999999999994
 40
0.3124999999999993
 40
0.3124999999999993
 40
0.3749999999999993
 40
0.3749999999999993
 40
0.4999999999999993
 40
0.4999999999999993
 40
0.6249999999999994
 40
0.6249999999999994
 40
0.7499999999999997
 40
0.7499999999999997
 40
0.8749999999999998
 40
0.8749999999999998
 40
1.0
 40
1.0
 40
1.0
 40
1.0
 10
-154.3643508134613
 20
105.9889458825074
 30
0.0
 10
-154.6783347301757
 20
104.4700199908531
 30
0.0
 10
-155.0306662866598
 20
102.8139646896482
 30
0.0
 10
-155.7558607644845
 20
99.22872665633936
 30
0.0
 10
-156.1287660837279
 20
97.29963103907238
 30
0.0
 10
-156.6725776776299
 20
94.20207436460201
 30
0.0
 10
-156.8513682780038
 20
93.13556215232214
 30
0.0
 10
-157.2002916523394
 20
90.9344079205712
 30
0.0
 10
-157.370445203687
 20
89.7994216599399
 30
0.0
 10
-157.8622236062816
 20
86.30563889305643
 30
0.0
 10
-158.1651947447403
 20
83.85419934447802
 30
0.0
 10
-158.7182146156917
 20
78.70524678242047
 30
0.0
 10
-158.968431987747
 20
76.00780775985669
 30
0.0
 10
-159.432098700298
 20
70.35397037521967
 30
0.0
 10
-159.645903003788
 20
67.39754198231854
 30
0.0
 10
-160.0641273072652
 20
61.20053280497051
 30
0.0
 10
-160.2688934125362
 20
57.95987635348321
 30
0.0
 10
-160.6963352191396
 20
51.15879398530157
 30
0.0
 10
-160.9192028563167
 20
47.59833725532231
 30
0.0
 10
-161.1603855865207
 20
43.85593842567742
 30
0.0
  0
ELLIPSE
  5
270
330
1F
100
AcDbEntity
  8
0
  6
Continuous
 62
     8
370
     0
100
AcDbEllipse
 10
-148.5370934747
 20
-85.4000926531
 30
0.0
 11
0.0
 21
205.0000000000007
 31
0.0
210
0.0
220
0.0
230
1.0
 40
0.0793339315
 41
0.1669145790260634
 42
0.3664503819224863
  0
ELLIPSE
  5
271
330
1F
100
AcDbEntity
  8
0
  6
Continuous
 62
     8
370
     0
100
AcDbEllipse
 10
-75.5370934747
 20
-85.4000926531
 30
0.0
 11
455.6503243191941
 21
0.0
 31
0.0
210
0.0
220
0.0
230
1.0
 40
0.4499064064
 41
1.581442129252735
 42
1.737710905820951
  0
SPLINE
  5
272
330
1F
100
AcDbEntity
  8
0
  6
Continuous
 62
     8
370
     0
100
AcDbSpline
210
0.0
220
0.0
230
1.0
 70
     8
 71
     3
 72
     8
 73
     4
 74
     0
 42
0.00000001
 43
0.00000001
 12
1.0
 22
0.0
 32
0.0
 13
1.0
 23
0.0
 33
0.0
 40
0.0
 40
0.0
 40
0.0
 40
0.0
 40
1.0
 40
1.0
 40
1.0
 40
1.0
 10
-79.48210415597356
 20
119.5962934529845
 30
0.0
 10
-79.77126409571656
 20
119.5943361260194
 30
0.0
 10
-80.0738751182112
 20
119.5916139020892
 30
0.0
 10
-80.38776519231361
 20
119.5882908128252
 30
0.0
  0
ARC
  5
273
330
1F
100
AcDbEntity
  8
0
  6
Continuous
 62
     8
370
     0
100
AcDbCircle
 10
188.0778157595
 20
8.272539615
 30
0.0
 40
111.40631766658
100
AcDbArc
 50
94.1233810756
 51
122.6612000893
  0
LINE
  5
274
330
1F
100
AcDbEntity
  8
0
  6
Continuous
 62
     8
370
     0
100
AcDbLine
 10
392.3430363394
 20
50.8853166782
 30
0.0
 11
385.9790782191
 21
50.8853166782
 31
0.0
  0
LINE
  5
275
330
1F
100
AcDbEntity
  8
0
  6
Continuous
 62
     8
370
     0
100
AcDbLine
 10
421.5589682318
 20
1.644928702
 30
0.0
 11
415.1950101115
 21
1.644928702
 31
0.0
  0
LINE
  5
276
330
1F
100
AcDbEntity
  8
0
  6
Continuous
 62
     8
370
     0
100
AcDbLine
 10
421.5589682318
 20
-172.4451140083
 30
0.0
 11
415.1950101115
 21
-172.4451140083
 31
0.0
  0
LINE
  5
277
330
1F
100
AcDbEntity
  8
0
  6
Continuous
 62
     8
370
     0
100
AcDbLine
 10
392.3430363394
 20
-221.6855019844
 30
0.0
 11
385.9790782191
 21
-221.6855019844
 31
0.0
  0
LINE
  5
278
330
1F
100
AcDbEntity
  8
0
  6
Continuous
 62
     8
370
     0
100
AcDbLine
 10
331.3766936518
 20
92.8778916084
 30
0.0
 11
344.8117295958
 21
92.8778916084
 31
0.0
  0
LINE
  5
279
330
1F
100
AcDbEntity
  8
0
  6
Continuous
 62
     8
370
     0
100
AcDbLine
 10
344.8117295958
 20
-263.6780769146
 30
0.0
 11
331.3766936518
 21
-263.6780769146
 31
0.0
  0
LINE
  5
27A
330
1F
100
AcDbEntity
  8
0
  6
Continuous
 62
     8
370
     0
100
AcDbLine
 10
347.0515529372
 20
93.0628895246
 30
0.0
 11
331.3766936518
 21
93.0628895246
 31
0.0
  0
LINE
  5
27B
330
1F
100
AcDbEntity
  8
0
  6
Continuous
 62
     8
370
     0
100
AcDbLine
 10
331.3766936518
 20
-263.8630748308
 30
0.0
 11
347.0515529372
 21
-263.8630748308
 31
0.0
  0
ARC
  5
27C
330
1F
100
AcDbEntity
  8
0
  6
Continuous
 62
     8
370
     0
100
AcDbCircle
 10
-153.4124948532
 20
-197.5961889493
 30
0.0
 40
18.7368889562387
100
AcDbArc
 50
203.4961658741
 51
245.5744749291
  0
SPLINE
  5
27D
330
1F
100
AcDbEntity
  8
0
  6
Continuous
 62
     8
370
     0
100
AcDbSpline
210
0.0
220
0.0
230
1.0
 70
     8
 71
     3
 72
    16
 73
    12
 74
     0
 42
0.00000001
 43
0.00000001
 12
1.0
 22
0.0
 32
0.0
 13
1.0
 23
0.0
 33
0.0
 40
0.0
 40
0.0
 40
0.0
 40
0.0
 40
0.1250000000000005
 40
0.1250000000000005
 40
0.2500000000000009
 40
0.2500000000000009
 40
0.5000000000000007
 40
0.5000000000000007
 40
0.7500000000000003
 40
0.7500000000000003
 40
1.0
 40
1.0
 40
1.0
 40
1.0
 10
-170.5958444636333
 20
-205.0663570956391
 30
0.0
 10
-170.6665436601761
 20
-202.9788163962209
 30
0.0
 10
-170.7359058285978
 20
-200.8450882733102
 30
0.0
 10
-170.8693187821734
 20
-196.4843589251777
 30
0.0
 10
-170.933165453003
 20
-194.2636024518315
 30
0.0
 10
-171.1125758179978
 20
-187.4970852619733
 30
0.0
 10
-171.2159408080596
 20
-182.8407130760284
 30
0.0
 10
-171.3802506149545
 20
-173.2372267474384
 30
0.0
 10
-171.4411771898622
 20
-168.290139365723
 30
0.0
 10
-171.5196034103651
 20
-158.0966242088647
 30
0.0
 10
-171.5370934747164
 20
-152.8502686828305
 30
0.0
 10
-171.5370934747164
 20
-147.4449412937344
 30
0.0
  0
SPLINE
  5
27E
330
1F
100
AcDbEntity
  8
0
  6
Continuous
 62
     8
370
     0
100
AcDbSpline
210
0.0
220
0.0
230
1.0
 70
     8
 71
     3
 72
    16
 73
    12
 74
     0
 42
0.00000001
 43
0.00000001
 12
1.0
 22
0.0
 32
0.0
 13
1.0
 23
0.0
 33
0.0
 40
0.0
 40
0.0
 40
0.0
 40
0.0
 40
0.1250000000000005
 40
0.1250000000000005
 40
0.2500000000000009
 40
0.2500000000000009
 40
0.5000000000000007
 40
0.5000000000000007
 40
0.7500000000000003
 40
0.7500000000000003
 40
1.0
 40
1.0
 40
1.0
 40
1.0
 10
-170.5958444636333
 20
34.26617178940867
 30
0.0
 10
-170.6665436601761
 20
32.17863108999046
 30
0.0
 10
-170.7359058285978
 20
30.04490296707975
 30
0.0
 10
-170.8693187821734
 20
25.68417361894722
 30
0.0
 10
-170.933165453003
 20
23.46341714560107
 30
0.0
 10
-171.1125758179978
 20
16.69689995574286
 30
0.0
 10
-171.2159408080596
 20
12.04052776979793
 30
0.0
 10
-171.3802506149545
 20
2.43704144120796
 30
0.0
 10
-171.4411771898622
 20
-2.510045940507508
 30
0.0
 10
-171.5196034103651
 20
-12.70356109736573
 30
0.0
 10
-171.5370934747164
 20
-17.94991662339997
 30
0.0
 10
-171.5370934747164
 20
-23.35524401249603
 30
0.0
  0
ARC
  5
27F
330
1F
100
AcDbEntity
  8
0
  6
Continuous
 62
     8
370
     0
100
AcDbCircle
 10
-153.4124948532
 20
26.7960036431
 30
0.0
 40
18.73688895623871
100
AcDbArc
 50
114.4255250709
 51
156.5038341259
  0
LINE
  5
280
330
1F
100
AcDbEntity
  8
0
  6
Continuous
 62
     8
370
     0
100
AcDbLine
 10
-204.0370931171
 20
85.5999111616
 30
0.0
 11
-204.0370931171
 21
-256.4000964678
 31
0.0
  0
LWPOLYLINE
  5
281
330
1F
100
AcDbEntity
  8
0
  6
Continuous
 62
     8
370
     0
100
AcDbPolyline
 90
       21
 70
   128
 43
0.0
 10
-171.5370943092
 20
-147.4449404097
 10
-171.5648402713
 20
-147.2015411175
 10
-171.6478993438
 20
-146.9596431173
 10
-171.7857648872
 20
-146.7207365251
 10
-171.9775875352
 20
-146.4862965561
 10
-172.2221751951
 20
-146.2577648974
 10
-172.5180377506
 20
-146.0365534342
 10
-172.8633349083
 20
-145.8240256227
 10
-173.2559432529
 20
-145.6214890397
 10
-173.6934413455
 20
-145.4301953829
 10
-174.1731320761
 20
-145.2513255692
 10
-174.6920575641
 20
-145.0859785593
 10
-175.247028961
 20
-144.9351750828
 10
-175.8346040986
 20
-144.7998464621
 10
-176.4511768959
 20
-144.6808234371
 10
-177.0929401062
 20
-144.5788436151
 10
-177.7559374712
 20
-144.4945328451
 10
-178.4360860728
 20
-144.4284126676
 10
-179.1291837834
 20
-144.3808928645
 10
-179.8309614204
 20
-144.3522602833
 10
-180.5370901965
 20
-144.3426974631
  0
LINE
  5
282
330
1F
100
AcDbEntity
  8
0
  6
Continuous
 62
     8
370
     0
100
AcDbLine
 10
-180.5370901965
 20
-144.3426974631
 30
0.0
 11
-180.5370901965
 21
-26.4574878431
 31
0.0
  0
LWPOLYLINE
  5
283
330
1F
100
AcDbEntity
  8
0
  6
Continuous
 62
     8
370
     0
100
AcDbPolyline
 90
       21
 70
   128
 43
0.0
 10
-171.5370943092
 20
-23.3552448965
 10
-171.5648402713
 20
-23.5986441887
 10
-171.6478993438
 20
-23.840542189
 10
-171.7857648872
 20
-24.0794487811
 10
-171.9775875352
 20
-24.3138887502
 10
-172.2221751951
 20
-24.5424204088
 10
-172.5180377506
 20
-24.763631872
 10
-172.8633349083
 20
-24.9761596835
 10
-173.2559432529
 20
-25.1786962665
 10
-173.6934413455
 20
-25.3699899233
 10
-174.1731320761
 20
-25.548859737
 10
-174.6920575641
 20
-25.7142067469
 10
-175.247028961
 20
-25.8650102235
 10
-175.8346040986
 20
-26.0003388441
 10
-176.4511768959
 20
-26.1193618692
 10
-177.0929401062
 20
-26.2213416911
 10
-177.7559374712
 20
-26.3056524611
 10
-178.4360860728
 20
-26.3717726386
 10
-179.1291837834
 20
-26.4192924417
 10
-179.8309614204
 20
-26.4479250229
 10
-180.5370901965
 20
-26.4574878431
  0
LINE
  5
284
330
1F
100
AcDbEntity
  8
0
  6
Continuous
 62
     8
370
     0
100
AcDbLine
 10
428.9628783919
 20
-249.4000971831
 30
0.0
 11
428.9628783919
 21
78.5999118768
 31
0.0
  0
SPLINE
  5
285
330
1F
100
AcDbEntity
  8
0
  6
Continuous
 62
     8
370
     0
100
AcDbSpline
210
0.0
220
0.0
230
1.0
 70
     8
 71
     3
 72
    26
 73
    22
 74
     0
 42
0.00000001
 43
0.00000001
 12
1.0
 22
0.0
 32
0.0
 13
1.0
 23
0.0
 33
0.0
 40
0.0
 40
0.0
 40
0.0
 40
0.0
 40
0.1250000000000008
 40
0.1250000000000008
 40
0.2500000000000017
 40
0.2500000000000017
 40
0.3750000000000025
 40
0.3750000000000025
 40
0.4375000000000027
 40
0.4375000000000027
 40
0.4687500000000026
 40
0.4687500000000026
 40
0.5000000000000023
 40
0.5000000000000023
 40
0.6250000000000019
 40
0.6250000000000019
 40
0.7500000000000013
 40
0.7500000000000013
 40
0.8750000000000007
 40
0.8750000000000007
 40
1.0
 40
1.0
 40
1.0
 40
1.0
 10
-179.2275296332098
 20
-200.9090746348921
 30
0.0
 10
-179.0488404387952
 20
-204.6719576498092
 30
0.0
 10
-178.8853634106227
 20
-208.2525459580213
 30
0.0
 10
-178.5950882112224
 20
-215.0610137721201
 30
0.0
 10
-178.4682796776478
 20
-218.2888632328032
 30
0.0
 10
-178.2570229333761
 20
-224.3949744619773
 30
0.0
 10
-178.1725708090175
 20
-227.2732399114188
 30
0.0
 10
-178.0816572115251
 20
-231.3246052401497
 30
0.0
 10
-178.0573105851364
 20
-232.6306566320329
 30
0.0
 10
-178.0302152074841
 20
-234.522032792237
 30
0.0
 10
-178.0227541633851
 20
-235.1412035883647
 30
0.0
 10
-178.011056000391
 20
-236.3567313820283
 30
0.0
 10
-178.0068319338022
 20
-236.9521073620891
 30
0.0
 10
-177.9939582812729
 20
-239.8570287738135
 30
0.0
 10
-178.0099013288209
 20
-241.9614804842087
 30
0.0
 10
-178.0950188979442
 20
-245.745911301272
 30
0.0
 10
-178.1641183195652
 20
-247.4258539400586
 30
0.0
 10
-178.3583917073152
 20
-250.3653398819789
 30
0.0
 10
-178.4834457792268
 20
-251.6248857392782
 30
0.0
 10
-178.7974876897165
 20
-253.717876740803
 30
0.0
 10
-178.9862364581782
 20
-254.5513636891805
 30
0.0
 10
-179.21588439379
 20
-255.1637348471788
 30
0.0
  0
SPLINE
  5
286
330
1F
100
AcDbEntity
  8
0
  6
Continuous
 62
     8
370
     0
100
AcDbSpline
210
0.0
220
0.0
230
1.0
 70
     8
 71
     3
 72
    11
 73
     7
 74
     0
 42
0.00000001
 43
0.00000001
 12
1.0
 22
0.0
 32
0.0
 13
1.0
 23
0.0
 33
0.0
 40
0.0
 40
0.0
 40
0.0
 40
0.0
 40
0.2557452299365938
 40
0.5116121358408985
 40
0.7674774494145837
 40
1.0
 40
1.0
 40
1.0
 40
1.0
 10
-179.2158861897891
 20
-255.1637322223978
 30
0.0
 10
-179.2950390878231
 20
-255.3589310924751
 30
0.0
 10
-179.453382542484
 20
-255.7494217024417
 30
0.0
 10
-179.6855412325461
 20
-256.1271519704607
 30
0.0
 10
-179.9007452231355
 20
-256.3621162276102
 30
0.0
 10
-180.0249673607566
 20
-256.3833035932665
 30
0.0
 10
-180.0841097973292
 20
-256.3933909452753
 30
0.0
  0
SPLINE
  5
287
330
1F
100
AcDbEntity
  8
0
  6
Continuous
 62
     8
370
     0
100
AcDbSpline
210
0.0
220
0.0
230
1.0
 70
     8
 71
     3
 72
    11
 73
     7
 74
     0
 42
0.00000001
 43
0.00000001
 12
1.0
 22
0.0
 32
0.0
 13
1.0
 23
0.0
 33
0.0
 40
0.0
 40
0.0
 40
0.0
 40
0.0
 40
0.2557452299365056
 40
0.5116121358407222
 40
0.7674774494143192
 40
1.0
 40
1.0
 40
1.0
 40
1.0
 10
-179.2158861897891
 20
84.36354691616732
 30
0.0
 10
-179.2950390878231
 20
84.55874578624461
 30
0.0
 10
-179.453382542484
 20
84.94923639621128
 30
0.0
 10
-179.6855412325461
 20
85.32696666423014
 30
0.0
 10
-179.9007452231357
 20
85.56193092137995
 30
0.0
 10
-180.0249673607567
 20
85.5831182870361
 30
0.0
 10
-180.0841097973292
 20
85.59320563904483
 30
0.0
  0
SPLINE
  5
288
330
1F
100
AcDbEntity
  8
0
  6
Continuous
 62
     8
370
     0
100
AcDbSpline
210
0.0
220
0.0
230
1.0
 70
     8
 71
     3
 72
    26
 73
    22
 74
     0
 42
0.00000001
 43
0.00000001
 12
1.0
 22
0.0
 32
0.0
 13
1.0
 23
0.0
 33
0.0
 40
0.0
 40
0.0
 40
0.0
 40
0.0
 40
0.1250000000000008
 40
0.1250000000000008
 40
0.2500000000000017
 40
0.2500000000000017
 40
0.3750000000000025
 40
0.3750000000000025
 40
0.4375000000000027
 40
0.4375000000000027
 40
0.4687500000000026
 40
0.4687500000000026
 40
0.5000000000000023
 40
0.5000000000000023
 40
0.6250000000000019
 40
0.6250000000000019
 40
0.7500000000000013
 40
0.7500000000000013
 40
0.8750000000000007
 40
0.8750000000000007
 40
1.0
 40
1.0
 40
1.0
 40
1.0
 10
-179.2275296332098
 20
30.10888932866167
 30
0.0
 10
-179.0488404387952
 20
33.87177234357877
 30
0.0
 10
-178.8853634106227
 20
37.45236065179085
 30
0.0
 10
-178.5950882112224
 20
44.26082846588966
 30
0.0
 10
-178.4682796776478
 20
47.48867792657277
 30
0.0
 10
-178.2570229333761
 20
53.59478915574687
 30
0.0
 10
-178.1725708090175
 20
56.47305460518837
 30
0.0
 10
-178.0816572115251
 20
60.5244199339193
 30
0.0
 10
-178.0573105851364
 20
61.83047132580243
 30
0.0
 10
-178.0302152074841
 20
63.72184748600662
 30
0.0
 10
-178.0227541633851
 20
64.34101828213426
 30
0.0
 10
-178.011056000391
 20
65.55654607579788
 30
0.0
 10
-178.0068319338022
 20
66.15192205585868
 30
0.0
 10
-177.9939582812729
 20
69.05684346758309
 30
0.0
 10
-178.0099013288209
 20
71.16129517797835
 30
0.0
 10
-178.0950188979442
 20
74.94572599504154
 30
0.0
 10
-178.1641183195652
 20
76.62566863382814
 30
0.0
 10
-178.3583917073152
 20
79.5651545757484
 30
0.0
 10
-178.4834457792268
 20
80.82470043304774
 30
0.0
 10
-178.7974876897165
 20
82.91769143457259
 30
0.0
 10
-178.9862364581782
 20
83.75117838295007
 30
0.0
 10
-179.21588439379
 20
84.36354954094838
 30
0.0
  0
SPLINE
  5
289
330
1F
100
AcDbEntity
  8
0
  6
Continuous
 62
     8
370
     0
100
AcDbSpline
210
0.0
220
0.0
230
1.0
 70
     8
 71
     3
 72
    16
 73
    12
 74
     0
 42
0.00000001
 43
0.00000001
 12
1.0
 22
0.0
 32
0.0
 13
1.0
 23
0.0
 33
0.0
 40
0.0
 40
0.0
 40
0.0
 40
0.0
 40
0.25
 40
0.25
 40
0.5
 40
0.5
 40
0.75
 40
0.75
 40
0.875
 40
0.875
 40
1.0
 40
1.0
 40
1.0
 40
1.0
 10
-180.5370934747163
 20
-26.45748644452699
 30
0.0
 10
-180.5370934747164
 20
-21.19972196592877
 30
0.0
 10
-180.5124070323973
 20
-16.08063178449644
 30
0.0
 10
-180.4024414224027
 20
-6.1103185177728
 30
0.0
 10
-180.3172040461603
 20
-1.25911993750652
 30
0.0
 10
-180.0881782196816
 20
8.177225136161177
 30
0.0
 10
-179.9444275557613
 20
12.76238328325459
 30
0.0
 10
-179.6953353450659
 20
19.43642382142173
 30
0.0
 10
-179.6067381698143
 20
21.62889476745356
 30
0.0
 10
-179.4216864707211
 20
25.93651868171912
 30
0.0
 10
-179.3255271035636
 20
28.04523339297169
 30
0.0
 10
-179.2275296332098
 20
30.10888932866167
 30
0.0
  0
SPLINE
  5
28A
330
1F
100
AcDbEntity
  8
0
  6
Continuous
 62
     8
370
     0
100
AcDbSpline
210
0.0
220
0.0
230
1.0
 70
     8
 71
     3
 72
    16
 73
    12
 74
     0
 42
0.00000001
 43
0.00000001
 12
1.0
 22
0.0
 32
0.0
 13
1.0
 23
0.0
 33
0.0
 40
0.0
 40
0.0
 40
0.0
 40
0.0
 40
0.25
 40
0.25
 40
0.5
 40
0.5
 40
0.75
 40
0.75
 40
0.875
 40
0.875
 40
1.0
 40
1.0
 40
1.0
 40
1.0
 10
-180.5370934747163
 20
-144.3426988617034
 30
0.0
 10
-180.5370934747164
 20
-149.6004633403017
 30
0.0
 10
-180.5124070323973
 20
-154.719553521734
 30
0.0
 10
-180.4024414224027
 20
-164.6898667884577
 30
0.0
 10
-180.3172040461603
 20
-169.5410653687239
 30
0.0
 10
-180.0881782196816
 20
-178.9774104423916
 30
0.0
 10
-179.9444275557613
 20
-183.5625685894851
 30
0.0
 10
-179.6953353450659
 20
-190.2366091276522
 30
0.0
 10
-179.6067381698143
 20
-192.429080073684
 30
0.0
 10
-179.4216864707211
 20
-196.7367039879496
 30
0.0
 10
-179.3255271035636
 20
-198.8454186992021
 30
0.0
 10
-179.2275296332098
 20
-200.9090746348921
 30
0.0
  0
LWPOLYLINE
  5
28B
330
1F
100
AcDbEntity
  8
0
  6
Continuous
 62
     8
370
     0
100
AcDbPolyline
 90
       17
 70
   128
 43
0.0
 10
-170.5958475612
 20
34.266170808
 10
-170.8268155597
 20
33.8091074907
 10
-171.1119939826
 20
33.36739982
 10
-171.4495425366
 20
32.9438939177
 10
-171.8372782014
 20
32.5413166963
 10
-172.2726975821
 20
32.162275859
 10
-172.7529992603
 20
31.8092151963
 10
-173.2750763439
 20
31.4844145857
 10
-173.8355611704
 20
31.18996019
 10
-174.4308402084
 20
30.9277593576
 10
-175.0570689581
 20
30.699510821
 10
-175.710209205
 20
30.5066674434
 10
-176.3860439204
 20
30.3504958235
 10
-177.0802145146
 20
30.2319868886
 10
-177.7882431887
 20
30.1519154989
 10
-178.5055552863
 20
30.1107957446
 10
-179.2275314473
 20
30.1088883959
  0
LWPOLYLINE
  5
28C
330
1F
100
AcDbEntity
  8
0
  6
Continuous
 62
     8
370
     0
100
AcDbPolyline
 90
       17
 70
   128
 43
0.0
 10
-170.5958475612
 20
-205.0663561142
 10
-170.8268155597
 20
-204.6092927969
 10
-171.1119939826
 20
-204.1675851262
 10
-171.4495425366
 20
-203.744079224
 10
-171.8372782014
 20
-203.3415020026
 10
-172.2726975821
 20
-202.9624611653
 10
-172.7529992603
 20
-202.6094005025
 10
-173.2750763439
 20
-202.284599892
 10
-173.8355611704
 20
-201.9901454962
 10
-174.4308402084
 20
-201.7279446638
 10
-175.0570689581
 20
-201.4996961273
 10
-175.710209205
 20
-201.3068527497
 10
-176.3860439204
 20
-201.1506811298
 10
-177.0802145146
 20
-201.0321721948
 10
-177.7882431887
 20
-200.9521008051
 10
-178.5055552863
 20
-200.9109810508
 10
-179.2275314473
 20
-200.9090737022
  0
SPLINE
  5
28D
330
1F
100
AcDbEntity
  8
0
  6
Continuous
 62
     8
370
     0
100
AcDbSpline
210
0.0
220
0.0
230
1.0
 70
     8
 71
     3
 72
    28
 73
    24
 74
     0
 42
0.00000001
 43
0.00000001
 12
1.0
 22
0.0
 32
0.0
 13
1.0
 23
0.0
 33
0.0
 40
0.0
 40
0.0
 40
0.0
 40
0.0
 40
0.1250000000000003
 40
0.1250000000000003
 40
0.2500000000000006
 40
0.2500000000000006
 40
0.3125000000000007
 40
0.3125000000000007
 40
0.3437500000000006
 40
0.3437500000000006
 40
0.3750000000000007
 40
0.3750000000000007
 40
0.5000000000000004
 40
0.5000000000000004
 40
0.6250000000000003
 40
0.6250000000000003
 40
0.7500000000000001
 40
0.7500000000000001
 40
0.875
 40
0.875
 40
0.9375000000000002
 40
0.9375000000000002
 40
1.0
 40
1.0
 40
1.0
 40
1.0
 10
-170.5874744478006
 20
90.82841437677766
 30
0.0
 10
-170.4244381623555
 20
89.98386918116717
 30
0.0
 10
-170.300367942617
 20
88.94135743890253
 30
0.0
 10
-170.1034532138704
 20
86.46364993097177
 30
0.0
 10
-170.030806026487
 20
85.0285006921207
 30
0.0
 10
-169.9490590763494
 20
82.57989062558566
 30
0.0
 10
-169.926417595584
 20
81.71432856177371
 30
0.0
 10
-169.8984805320917
 20
80.3413100628527
 30
0.0
 10
-169.8901757799865
 20
79.8711878393708
 30
0.0
 10
-169.8754728887824
 20
78.90589329197523
 30
0.0
 10
-169.8690703854955
 20
78.41028505130198
 30
0.0
 10
-169.8416707601835
 20
75.8746601431638
 30
0.0
 10
-169.834310726726
 20
73.66804465495063
 30
0.0
 10
-169.8451924901851
 20
68.90708427933151
 30
0.0
 10
-169.8635027471675
 20
66.35275502628375
 30
0.0
 10
-169.927043479651
 20
60.89621754931665
 30
0.0
 10
-169.9723498041511
 20
57.99402989938546
 30
0.0
 10
-170.0937543981269
 20
51.83241010410767
 30
0.0
 10
-170.169928481441
 20
48.57301248563067
 30
0.0
 10
-170.3103655740029
 20
43.4014655701806
 30
0.0
 10
-170.361583481443
 20
41.62918183583905
 30
0.0
 10
-170.4723777559882
 20
38.00851842793973
 30
0.0
 10
-170.5320134563895
 20
36.15783426101488
 30
0.0
 10
-170.5958444636351
 20
34.26617178941189
 30
0.0
  0
ARC
  5
28E
330
1F
100
AcDbEntity
  8
0
  6
Continuous
 62
     8
370
     0
100
AcDbCircle
 10
-149.0023775474
 20
83.9907946382
 30
0.0
 40
22.64220422510694
100
AcDbArc
 50
103.6985224994
 51
162.4230942289
  0
SPLINE
  5
28F
330
1F
100
AcDbEntity
  8
0
  6
Continuous
 62
     8
370
     0
100
AcDbSpline
210
0.0
220
0.0
230
1.0
 70
     8
 71
     3
 72
    28
 73
    24
 74
     0
 42
0.00000001
 43
0.00000001
 12
1.0
 22
0.0
 32
0.0
 13
1.0
 23
0.0
 33
0.0
 40
0.0
 40
0.0
 40
0.0
 40
0.0
 40
0.1250000000000003
 40
0.1250000000000003
 40
0.2500000000000006
 40
0.2500000000000006
 40
0.3125000000000007
 40
0.3125000000000007
 40
0.3437500000000006
 40
0.3437500000000006
 40
0.3750000000000007
 40
0.3750000000000007
 40
0.5000000000000004
 40
0.5000000000000004
 40
0.6250000000000003
 40
0.6250000000000003
 40
0.7500000000000001
 40
0.7500000000000001
 40
0.875
 40
0.875
 40
0.9375000000000002
 40
0.9375000000000002
 40
1.0
 40
1.0
 40
1.0
 40
1.0
 10
-170.5874744478006
 20
-261.6285996830081
 30
0.0
 10
-170.4244381623555
 20
-260.7840544873976
 30
0.0
 10
-170.300367942617
 20
-259.741542745133
 30
0.0
 10
-170.1034532138704
 20
-257.2638352372022
 30
0.0
 10
-170.030806026487
 20
-255.8286859983511
 30
0.0
 10
-169.9490590763494
 20
-253.3800759318161
 30
0.0
 10
-169.926417595584
 20
-252.5145138680042
 30
0.0
 10
-169.8984805320917
 20
-251.1414953690831
 30
0.0
 10
-169.8901757799865
 20
-250.6713731456012
 30
0.0
 10
-169.8754728887824
 20
-249.7060785982056
 30
0.0
 10
-169.8690703854955
 20
-249.2104703575324
 30
0.0
 10
-169.8416707601835
 20
-246.6748454493942
 30
0.0
 10
-169.834310726726
 20
-244.4682299611811
 30
0.0
 10
-169.8451924901851
 20
-239.7072695855619
 30
0.0
 10
-169.8635027471675
 20
-237.1529403325142
 30
0.0
 10
-169.927043479651
 20
-231.6964028555471
 30
0.0
 10
-169.9723498041511
 20
-228.7942152056159
 30
0.0
 10
-170.0937543981269
 20
-222.6325954103381
 30
0.0
 10
-170.169928481441
 20
-219.3731977918611
 30
0.0
 10
-170.3103655740029
 20
-214.201650876411
 30
0.0
 10
-170.361583481443
 20
-212.4293671420695
 30
0.0
 10
-170.4723777559882
 20
-208.8087037341702
 30
0.0
 10
-170.5320134563895
 20
-206.9580195672453
 30
0.0
 10
-170.5958444636351
 20
-205.0663570956424
 30
0.0
  0
ARC
  5
290
330
1F
100
AcDbEntity
  8
0
  6
Continuous
 62
     8
370
     0
100
AcDbCircle
 10
-149.0023775474
 20
-254.7909799444
 30
0.0
 40
22.64220422510694
100
AcDbArc
 50
197.5769057711
 51
256.3014775006
  0
ARC
  5
291
330
1F
100
AcDbEntity
  8
0
  6
Continuous
 62
     8
370
     0
100
AcDbCircle
 10
-179.2532996223
 20
93.4039220345
 30
0.0
 40
9.040452535367775
100
AcDbArc
 50
270.2371162166
 51
343.4479129016
  0
ARC
  5
292
330
1F
100
AcDbEntity
  8
0
  6
Continuous
 62
     8
370
     0
100
AcDbCircle
 10
-179.2532996223
 20
-264.2041073407
 30
0.0
 40
9.040452535367779
100
AcDbArc
 50
16.5520870984
 51
89.7628837834
  0
ARC
  5
293
330
1F
100
AcDbEntity
  8
0
  6
Continuous
 62
     8
370
     0
100
AcDbCircle
 10
-148.6404449106
 20
94.0020274896
 30
0.0
 40
22.89675175547583
100
AcDbArc
 50
96.5168284758
 51
179.8286794432
  0
SPLINE
  5
294
330
1F
100
AcDbEntity
  8
0
  6
Continuous
 62
     8
370
     0
100
AcDbSpline
210
0.0
220
0.0
230
1.0
 70
     8
 71
     3
 72
    10
 73
     6
 74
     0
 42
0.00000001
 43
0.00000001
 12
1.0
 22
0.0
 32
0.0
 13
1.0
 23
0.0
 33
0.0
 40
0.0
 40
0.0
 40
0.0
 40
0.0
 40
0.5
 40
0.5
 40
1.0
 40
1.0
 40
1.0
 40
1.0
 10
-171.5370934747163
 20
93.12843940034645
 30
0.0
 10
-171.5370934747163
 20
93.53402276181008
 30
0.0
 10
-171.4080667830197
 20
93.54158487979004
 30
0.0
 10
-171.0484741062187
 20
92.77528483236883
 30
0.0
 10
-170.8168150538789
 20
92.00141723145595
 30
0.0
 10
-170.5874744478006
 20
90.82841437677766
 30
0.0
  0
SPLINE
  5
295
330
1F
100
AcDbEntity
  8
0
  6
Continuous
 62
     8
370
     0
100
AcDbSpline
210
0.0
220
0.0
230
1.0
 70
     8
 71
     3
 72
    10
 73
     6
 74
     0
 42
0.00000001
 43
0.00000001
 12
1.0
 22
0.0
 32
0.0
 13
1.0
 23
0.0
 33
0.0
 40
0.0
 40
0.0
 40
0.0
 40
0.0
 40
0.5
 40
0.5
 40
1.0
 40
1.0
 40
1.0
 40
1.0
 10
-171.5370934747163
 20
-263.9286247065768
 30
0.0
 10
-171.5370934747163
 20
-264.3342080680405
 30
0.0
 10
-171.4080667830197
 20
-264.3417701860204
 30
0.0
 10
-171.0484741062187
 20
-263.5754701385993
 30
0.0
 10
-170.8168150538789
 20
-262.8016025376863
 30
0.0
 10
-170.5874744478006
 20
-261.6285996830081
 30
0.0
  0
ARC
  5
296
330
1F
100
AcDbEntity
  8
0
  6
Continuous
 62
     8
370
     0
100
AcDbCircle
 10
-148.6404449106
 20
-264.8022127958
 30
0.0
 40
22.89675175547583
100
AcDbArc
 50
180.1713205568
 51
263.4831715242
  0
SPLINE
  5
297
330
1F
100
AcDbEntity
  8
0
  6
Continuous
 62
     8
370
     0
100
AcDbSpline
210
0.0
220
0.0
230
1.0
 70
     8
 71
     3
 72
     9
 73
     5
 74
     0
 42
0.00000001
 43
0.00000001
 12
1.0
 22
0.0
 32
0.0
 13
1.0
 23
0.0
 33
0.0
 40
0.0
 40
0.0
 40
0.0
 40
0.0
 40
0.1663151059338047
 40
0.9999999999999999
 40
0.9999999999999999
 40
0.9999999999999999
 40
0.9999999999999999
 10
-80.38776510134387
 20
119.5882975541754
 30
0.0
 10
-80.37290882748802
 20
119.5884794545545
 30
0.0
 10
-80.28358276313303
 20
119.5895731638606
 30
0.0
 10
-80.19696398840368
 20
119.5903321264136
 30
0.0
 10
-80.12475122436929
 20
119.5909648620291
 30
0.0
  0
LINE
  5
298
330
1F
100
AcDbEntity
  8
0
  6
Continuous
 62
     8
370
     0
100
AcDbLine
 10
-80.3877651013
 20
119.5882975542
 30
0.0
 11
-80.5249740623
 21
119.5876568042
 31
0.0
  0
ARC
  5
299
330
1F
100
AcDbEntity
  8
0
  6
Continuous
 62
     8
370
     0
100
AcDbCircle
 10
-149.8877494637
 20
113.5410029439
 30
0.0
 40
3.482699134464442
100
AcDbArc
 50
94.1265583891
 51
112.8314633927
  0
LINE
  5
29A
330
1F
100
AcDbEntity
  8
0
  6
Continuous
 62
     8
370
     0
100
AcDbLine
 10
-80.3877651013
 20
-290.3884828604
 30
0.0
 11
-80.5294788696
 21
-290.3878123082
 31
0.0
  0
ARC
  5
29B
330
1F
100
AcDbEntity
  8
0
  6
Continuous
 62
     8
370
     0
100
AcDbCircle
 10
-149.8877494637
 20
-284.3411882501
 30
0.0
 40
3.482699134464442
100
AcDbArc
 50
247.1685366073
 51
265.8734416109
  0
SPLINE
  5
29C
330
1F
100
AcDbEntity
  8
0
  6
Continuous
 62
     8
370
     0
100
AcDbSpline
210
0.0
220
0.0
230
1.0
 70
     8
 71
     3
 72
     9
 73
     5
 74
     0
 42
0.00000001
 43
0.00000001
 12
1.0
 22
0.0
 32
0.0
 13
1.0
 23
0.0
 33
0.0
 40
0.0
 40
0.0
 40
0.0
 40
0.0
 40
0.1642462699709898
 40
1.0
 40
1.0
 40
1.0
 40
1.0
 10
-80.38776510134387
 20
-290.3884828604059
 30
0.0
 10
-80.37290913785935
 20
-290.3886647352624
 30
0.0
 10
-80.28245981753606
 20
-290.3897720654721
 30
0.0
 10
-80.19475190276515
 20
-290.3905390011928
 30
0.0
 10
-80.12144968584228
 20
-290.391179970582
 30
0.0
  0
LINE
  5
29D
330
1F
100
AcDbEntity
  8
FORMAT
100
AcDbLine
 10
-286.3253023328
 20
-85.4000926531
 30
0.0
 11
496.7503269326
 21
-85.4000926531
 31
0.0
  0
LINE
  5
29E
330
1F
100
AcDbEntity
  8
0
  6
Continuous
 62
     7
370
    15
100
AcDbLine
 10
519.7956709442
 20
707.2451702526
 30
0.0
 11
519.7956709442
 21
543.7373287251
 31
0.0
  0
LINE
  5
29F
330
1F
100
AcDbEntity
  8
0
  6
Continuous
 62
     7
370
    15
100
AcDbLine
 10
929.7956673679
 20
543.7373287251
 30
0.0
 11
929.7956673679
 21
707.2451702526
 31
0.0
  0
LINE
  5
2A0
330
1F
100
AcDbEntity
  8
0
  6
Continuous
 62
     7
370
    15
100
AcDbLine
 10
516.1371676502
 20
748.4794548919
 30
0.0
 11
519.7956709442
 21
703.2818488052
 31
0.0
  0
LINE
  5
2A1
330
1F
100
AcDbEntity
  8
0
  6
Continuous
 62
     7
370
    15
100
AcDbLine
 10
929.7956673679
 20
703.2818488052
 30
0.0
 11
933.4541706619
 21
748.4794548919
 31
0.0
  0
ARC
  5
2A2
330
1F
100
AcDbEntity
  8
0
  6
Continuous
 62
     7
370
    15
100
AcDbCircle
 10
724.7956691561
 20
715.9121306565
 30
0.0
 40
204.0
100
AcDbArc
 50
79.2766229637
 51
100.7233770363
  0
LINE
  5
2A3
330
1F
100
AcDbEntity
  8
0
  6
Continuous
 62
     7
370
    15
100
AcDbLine
 10
515.795662838
 20
770.3593663146
 30
0.0
 11
515.795662838
 21
756.9243303707
 31
0.0
  0
LINE
  5
2A4
330
1F
100
AcDbEntity
  8
0
  6
Continuous
 62
     7
370
    15
100
AcDbLine
 10
933.7956754742
 20
756.9243303707
 30
0.0
 11
933.7956754742
 21
770.3593663146
 31
0.0
  0
CIRCLE
  5
2A5
330
1F
100
AcDbEntity
  8
0
  6
Continuous
 62
     7
370
    15
100
AcDbCircle
 10
724.7956691561
 20
445.0902334621
 30
0.0
 40
183.5
  0
CIRCLE
  5
2A6
330
1F
100
AcDbEntity
  8
0
  6
Continuous
 62
     7
370
    15
100
AcDbCircle
 10
724.7956691561
 20
445.0902334621
 30
0.0
 40
144.0
  0
CIRCLE
  5
2A7
330
1F
100
AcDbEntity
  8
0
  6
Continuous
 62
     7
370
    15
100
AcDbCircle
 10
724.7956691561
 20
445.0902334621
 30
0.0
 40
186.5
  0
ARC
  5
2A8
330
1F
100
AcDbEntity
  8
0
  6
Continuous
 62
     7
370
    15
100
AcDbCircle
 10
724.7956691561
 20
445.0902334621
 30
0.0
 40
227.5000000000001
100
AcDbArc
 50
1.2458026303
 51
178.7541973697
  0
LINE
  5
2A9
330
1F
100
AcDbEntity
  8
0
  6
Continuous
 62
     7
370
    15
100
AcDbLine
 10
947.2956655798
 20
445.0902334621
 30
0.0
 11
952.2418974218
 21
450.0364573879
 31
0.0
  0
LINE
  5
2AA
330
1F
100
AcDbEntity
  8
0
  6
Continuous
 62
     7
370
    15
100
AcDbLine
 10
952.2418974218
 20
440.1440095363
 30
0.0
 11
947.2956655798
 21
445.0902334621
 31
0.0
  0
ARC
  5
2AB
330
1F
100
AcDbEntity
  8
0
  6
Continuous
 62
     7
370
    15
100
AcDbCircle
 10
724.7956691561
 20
445.0902334621
 30
0.0
 40
227.4999999999999
100
AcDbArc
 50
181.2458026303
 51
358.7541973697
  0
LINE
  5
2AC
330
1F
100
AcDbEntity
  8
0
  6
Continuous
 62
     7
370
    15
100
AcDbLine
 10
497.3494408903
 20
440.1440095363
 30
0.0
 11
502.2956727324
 21
445.0902334621
 31
0.0
  0
LINE
  5
2AD
330
1F
100
AcDbEntity
  8
0
  6
Continuous
 62
     7
370
    15
100
AcDbLine
 10
502.2956727324
 20
445.0902334621
 30
0.0
 11
497.3494408903
 21
450.0364573879
 31
0.0
  0
ELLIPSE
  5
2AE
330
1F
100
AcDbEntity
  8
0
  6
Continuous
 62
     7
370
    15
100
AcDbEllipse
 10
724.7956691561
 20
480.2648965883
 30
0.0
 11
-193.5156072334662
 21
323.4914860575234
 31
0.0
210
0.0
220
0.0
230
1.0
 40
0.2091287929
 41
5.834926095132752
 42
5.894364243804102
  0
ARC
  5
2AF
330
1F
100
AcDbEntity
  8
0
  6
Continuous
 62
     7
370
    15
100
AcDbCircle
 10
690.3479421669
 20
633.1113353108
 30
0.0
 40
191.4285833801561
100
AcDbArc
 50
123.3806907743
 51
125.303926838
  0
LINE
  5
2B0
330
1F
100
AcDbEntity
  8
0
  6
Continuous
 62
     7
370
    15
100
AcDbLine
 10
585.0240586576
 20
813.2850221565
 30
0.0
 11
585.0240586576
 21
792.9605833461
 31
0.0
  0
ARC
  5
2B1
330
1F
100
AcDbEntity
  8
0
  6
Continuous
 62
     7
370
    15
100
AcDbCircle
 10
718.7341853511
 20
574.1921593003
 30
0.0
 40
257.0555146843569
100
AcDbArc
 50
102.8795128571
 51
110.5559380884
  0
LINE
  5
2B2
330
1F
100
AcDbEntity
  8
0
  6
Continuous
 62
     7
370
    15
100
AcDbLine
 10
661.4361105738
 20
845.1048127582
 30
0.0
 11
661.4361105738
 21
824.7804037502
 31
0.0
  0
LINE
  5
2B3
330
1F
100
AcDbEntity
  8
0
  6
Continuous
 62
     7
370
    15
100
AcDbLine
 10
788.1552277384
 20
845.1048127582
 30
0.0
 11
788.1552277384
 21
824.7804037502
 31
0.0
  0
ARC
  5
2B4
330
1F
100
AcDbEntity
  8
0
  6
Continuous
 62
     7
370
    15
100
AcDbCircle
 10
730.857152961
 20
574.1921593003
 30
0.0
 40
257.0555146843569
100
AcDbArc
 50
69.4440619116
 51
77.1204871429
  0
LINE
  5
2B5
330
1F
100
AcDbEntity
  8
0
  6
Continuous
 62
     7
370
    15
100
AcDbLine
 10
864.5672796545
 20
813.2850221565
 30
0.0
 11
864.5672796545
 21
792.9605833461
 31
0.0
  0
ARC
  5
2B6
330
1F
100
AcDbEntity
  8
0
  6
Continuous
 62
     7
370
    15
100
AcDbCircle
 10
759.2433961452
 20
633.1113353108
 30
0.0
 40
191.4285833801561
100
AcDbArc
 50
54.696073162
 51
56.6193092257
  0
ELLIPSE
  5
2B7
330
1F
100
AcDbEntity
  8
0
  6
Continuous
 62
     7
370
    15
100
AcDbEllipse
 10
724.7956691561
 20
480.2648965883
 30
0.0
 11
193.5156072334662
 21
323.4914860575234
 31
0.0
210
0.0
220
0.0
230
1.0
 40
0.2091287929
 41
0.3888210633755412
 42
0.4482592120468903
  0
LINE
  5
2B8
330
1F
100
AcDbEntity
  8
0
  6
Continuous
 62
     7
370
    15
100
AcDbLine
 10
929.792895752
 20
707.9991094043
 30
0.0
 11
929.7956673679
 21
707.2451702526
 31
0.0
  0
LINE
  5
2B9
330
1F
100
AcDbEntity
  8
0
  6
Continuous
 62
     7
370
    15
100
AcDbLine
 10
519.798517066
 20
708.0093017986
 30
0.0
 11
519.7956709442
 21
707.2451702526
 31
0.0
  0
LINE
  5
2BA
330
1F
100
AcDbEntity
  8
0
  6
Continuous
 62
     7
370
    15
100
AcDbLine
 10
579.7187684355
 20
824.7804037502
 30
0.0
 11
661.4361105738
 21
824.7804037502
 31
0.0
  0
LINE
  5
2BB
330
1F
100
AcDbEntity
  8
0
  6
Continuous
 62
     7
370
    15
100
AcDbLine
 10
579.7187684355
 20
824.7804037502
 30
0.0
 11
537.3326836405
 21
885.1575843265
 31
0.0
  0
LINE
  5
2BC
330
1F
100
AcDbEntity
  8
0
  6
Continuous
 62
     7
370
    15
100
AcDbLine
 10
653.3487586555
 20
877.9803804328
 30
0.0
 11
537.3326836405
 21
885.1575843265
 31
0.0
  0
SPLINE
  5
2BD
330
1F
100
AcDbEntity
  8
0
  6
Continuous
 62
     7
370
    15
100
AcDbSpline
210
0.0
220
0.0
230
1.0
 70
     8
 71
     3
 72
    10
 73
     6
 74
     0
 42
0.00000001
 43
0.00000001
 12
1.0
 22
0.0
 32
0.0
 13
1.0
 23
0.0
 33
0.0
 40
0.0
 40
0.0
 40
0.0
 40
0.0
 40
0.499980030943338
 40
0.7499899924833755
 40
1.0
 40
1.0
 40
1.0
 40
1.0
 10
653.3487586555481
 20
877.9803804328366
 30
0.0
 10
654.6398812118634
 20
872.5558252831428
 30
0.0
 10
656.576616554031
 20
864.4187761528634
 30
0.0
 10
659.2869681472517
 20
853.5848441010701
 30
0.0
 10
660.6881243590923
 20
848.1735445007781
 30
0.0
 10
661.3887025294304
 20
845.467894451849
 30
0.0
  0
LINE
  5
2BE
330
1F
100
AcDbEntity
  8
0
  6
Continuous
 62
     7
370
    15
100
AcDbLine
 10
661.4361105738
 20
845.1048127582
 30
0.0
 11
661.3887025294
 21
845.4678944518
 31
0.0
  0
LINE
  5
2BF
330
1F
100
AcDbEntity
  8
0
  6
Continuous
 62
     7
370
    15
100
AcDbLine
 10
537.3326836405
 20
875.2580872943
 30
0.0
 11
579.7187684355
 21
814.880906718
 31
0.0
  0
LINE
  5
2C0
330
1F
100
AcDbEntity
  8
0
  6
Continuous
 62
     7
370
    15
100
AcDbLine
 10
537.3326836405
 20
885.1575843265
 30
0.0
 11
537.3326836405
 21
875.2580872943
 31
0.0
  0
LINE
  5
2C1
330
1F
100
AcDbEntity
  8
0
  6
Continuous
 62
     7
370
    15
100
AcDbLine
 10
579.7187684355
 20
824.7804037502
 30
0.0
 11
579.7187684355
 21
814.880906718
 31
0.0
  0
LINE
  5
2C2
330
1F
100
AcDbEntity
  8
0
  6
Continuous
 62
     7
370
    15
100
AcDbLine
 10
628.4764183936
 20
814.880906718
 30
0.0
 11
579.7187684355
 21
814.880906718
 31
0.0
  0
LINE
  5
2C3
330
1F
100
AcDbEntity
  8
0
  6
Continuous
 62
     7
370
    15
100
AcDbLine
 10
869.8725698767
 20
824.7804037502
 30
0.0
 11
788.1552277384
 21
824.7804037502
 31
0.0
  0
LINE
  5
2C4
330
1F
100
AcDbEntity
  8
0
  6
Continuous
 62
     7
370
    15
100
AcDbLine
 10
869.8725698767
 20
824.7804037502
 30
0.0
 11
869.8725698767
 21
814.880906718
 31
0.0
  0
LINE
  5
2C5
330
1F
100
AcDbEntity
  8
0
  6
Continuous
 62
     7
370
    15
100
AcDbLine
 10
821.1149199185
 20
814.880906718
 30
0.0
 11
869.8725698767
 21
814.880906718
 31
0.0
  0
LINE
  5
2C6
330
1F
100
AcDbEntity
  8
0
  6
Continuous
 62
     7
370
    15
100
AcDbLine
 10
788.1552277384
 20
845.1048127582
 30
0.0
 11
788.2026357827
 21
845.4678944518
 31
0.0
  0
SPLINE
  5
2C7
330
1F
100
AcDbEntity
  8
0
  6
Continuous
 62
     7
370
    15
100
AcDbSpline
210
0.0
220
0.0
230
1.0
 70
     8
 71
     3
 72
    10
 73
     6
 74
     0
 42
0.00000001
 43
0.00000001
 12
1.0
 22
0.0
 32
0.0
 13
1.0
 23
0.0
 33
0.0
 40
0.0
 40
0.0
 40
0.0
 40
0.0
 40
0.499980030943338
 40
0.7499899924833755
 40
1.0
 40
1.0
 40
1.0
 40
1.0
 10
796.2425796566009
 20
877.9803804328366
 30
0.0
 10
794.9514571002856
 20
872.5558252831428
 30
0.0
 10
793.014721758118
 20
864.4187761528634
 30
0.0
 10
790.3043701648973
 20
853.5848441010701
 30
0.0
 10
788.9032139530567
 20
848.1735445007781
 30
0.0
 10
788.2026357827186
 20
845.467894451849
 30
0.0
  0
LINE
  5
2C8
330
1F
100
AcDbEntity
  8
0
  6
Continuous
 62
     7
370
    15
100
AcDbLine
 10
796.2425796566
 20
877.9803804328
 30
0.0
 11
912.2586546717
 21
885.1575843265
 31
0.0
  0
LINE
  5
2C9
330
1F
100
AcDbEntity
  8
0
  6
Continuous
 62
     7
370
    15
100
AcDbLine
 10
869.8725698767
 20
824.7804037502
 30
0.0
 11
912.2586546717
 21
885.1575843265
 31
0.0
  0
LINE
  5
2CA
330
1F
100
AcDbEntity
  8
0
  6
Continuous
 62
     7
370
    15
100
AcDbLine
 10
912.2586546717
 20
885.1575843265
 30
0.0
 11
912.2586546717
 21
875.2580872943
 31
0.0
  0
LINE
  5
2CB
330
1F
100
AcDbEntity
  8
0
  6
Continuous
 62
     7
370
    15
100
AcDbLine
 10
912.2586546717
 20
875.2580872943
 30
0.0
 11
869.8725698767
 21
814.880906718
 31
0.0
  0
LWPOLYLINE
  5
2CC
330
1F
100
AcDbEntity
  8
0
  6
Continuous
 62
     7
370
    15
100
AcDbPolyline
 90
       40
 70
   128
 43
0.0
 10
516.1371676502
 20
748.4794548919
 10
516.1203591404
 20
748.6897102764
 10
515.9613488493
 20
751.0409645011
 10
515.8553270874
 20
753.393708842
 10
515.8022938547
 20
755.7473472526
 10
515.8022938547
 20
758.1012836864
 10
515.8553270874
 20
760.454922097
 10
515.9613488493
 20
762.8076664379
 10
516.1203591404
 20
765.1589206626
 10
516.3323132572
 20
767.5080887248
 10
516.5971664963
 20
769.854574578
 10
516.9148294506
 20
772.1977523734
 10
517.2852276144
 20
774.5370856693
 10
517.7082864819
 20
776.8719188144
 10
518.1838719425
 20
779.2017153671
 10
518.7118796883
 20
781.5258494785
 10
519.2921756086
 20
783.8437549045
 10
519.9245957909
 20
786.1548355987
 10
520.6090061245
 20
788.4584657123
 10
521.3452128944
 20
790.7541386058
 10
522.1330372868
 20
793.0411986282
 10
522.9722706852
 20
795.3191093376
 10
523.8627193747
 20
797.5872746875
 10
524.8041449366
 20
799.8451284339
 10
525.7963089523
 20
802.0920745304
 10
526.8389581022
 20
804.327576535
 10
527.9318241653
 20
806.5510682037
 10
529.0746389208
 20
808.76195349
 10
530.2671043453
 20
810.9596661498
 10
531.5089224157
 20
813.1436995437
 10
532.7997951088
 20
815.3134576251
 10
534.1393647966
 20
817.4684039524
 10
535.5273036537
 20
819.6080020835
 10
536.9632540522
 20
821.7316857746
 10
538.4468732653
 20
823.8389185836
 10
539.9777589617
 20
825.9291938713
 10
541.5555386124
 20
828.0019453933
 10
543.179809886
 20
830.0566665103
 10
544.85015555
 20
832.0928505828
 10
545.0934915123
 20
832.3833338191
  0
ARC
  5
2CD
330
1F
100
AcDbEntity
  8
0
  6
Continuous
 62
     7
370
    15
100
AcDbCircle
 10
723.405712781
 20
622.2259198945
 30
0.0
 40
282.4080965112037
100
AcDbArc
 50
95.3721470553
 51
104.2957974099
  0
ARC
  5
2CE
330
1F
100
AcDbEntity
  8
0
  6
Continuous
 62
     7
370
    15
100
AcDbCircle
 10
724.7956691561
 20
609.9079689163
 30
0.0
 40
294.8021659882483
100
AcDbArc
 50
84.5830367814
 51
95.4169632186
  0
ARC
  5
2CF
330
1F
100
AcDbEntity
  8
0
  6
Continuous
 62
     7
370
    15
100
AcDbCircle
 10
726.1856255312
 20
622.2259198945
 30
0.0
 40
282.4080965112036
100
AcDbArc
 50
75.7042025901
 51
84.6278529447
  0
LWPOLYLINE
  5
2D0
330
1F
100
AcDbEntity
  8
0
  6
Continuous
 62
     7
370
    15
100
AcDbPolyline
 90
       40
 70
   128
 43
0.0
 10
904.4978467999
 20
832.3833338191
 10
904.7411827621
 20
832.0928505828
 10
906.4115284262
 20
830.0566665103
 10
908.0357996998
 20
828.0019453933
 10
909.6135793505
 20
825.9291938713
 10
911.1444650469
 20
823.8389185836
 10
912.62808426
 20
821.7316857746
 10
914.0640346584
 20
819.6080020835
 10
915.4519735155
 20
817.4684039524
 10
916.7915432034
 20
815.3134576251
 10
918.0824158964
 20
813.1436995437
 10
919.3242339668
 20
810.9596661498
 10
920.5166993914
 20
808.76195349
 10
921.6595141468
 20
806.5510682037
 10
922.7523802099
 20
804.327576535
 10
923.7950293598
 20
802.0920745304
 10
924.7871933756
 20
799.8451284339
 10
925.7286189375
 20
797.5872746875
 10
926.619067627
 20
795.3191093376
 10
927.4583010254
 20
793.0411986282
 10
928.2461254177
 20
790.7541386058
 10
928.9823321877
 20
788.4584657123
 10
929.6667425213
 20
786.1548355987
 10
930.2991627035
 20
783.8437549045
 10
930.8794586239
 20
781.5258494785
 10
931.4074663696
 20
779.2017153671
 10
931.8830518303
 20
776.8719188144
 10
932.3061106977
 20
774.5370856693
 10
932.6765088615
 20
772.1977523734
 10
932.9941718159
 20
769.854574578
 10
933.2590250549
 20
767.5080887248
 10
933.4709791718
 20
765.1589206626
 10
933.6299894629
 20
762.8076664379
 10
933.7360112247
 20
760.454922097
 10
933.7890444574
 20
758.1012836864
 10
933.7890444574
 20
755.7473472526
 10
933.7360112247
 20
753.393708842
 10
933.6299894629
 20
751.0409645011
 10
933.4709791718
 20
748.6897102764
 10
933.4541706619
 20
748.4794548919
  0
SPLINE
  5
2D1
330
1F
100
AcDbEntity
  8
0
  6
Continuous
 62
     7
370
    15
100
AcDbSpline
210
0.0
220
0.0
230
1.0
 70
     8
 71
     3
 72
     9
 73
     5
 74
     0
 42
0.00000001
 43
0.00000001
 12
1.0
 22
0.0
 32
0.0
 13
1.0
 23
0.0
 33
0.0
 40
0.0
 40
0.0
 40
0.0
 40
0.0
 40
0.4999515945427188
 40
1.0
 40
1.0
 40
1.0
 40
1.0
 10
775.5495457229614
 20
881.1366251876278
 30
0.0
 10
776.5059726719765
 20
883.648688543286
 30
0.0
 10
778.4190117730714
 20
888.6733016919966
 30
0.0
 10
780.1858762670141
 20
893.7280118175003
 30
0.0
 10
781.0693940398693
 20
896.2556115558071
 30
0.0
  0
ELLIPSE
  5
2D2
330
1F
100
AcDbEntity
  8
0
  6
Continuous
 62
     7
370
    15
100
AcDbEllipse
 10
725.8319851606
 20
735.7648630943
 30
0.0
 11
206.5246170040731
 21
25.36096772346889
 31
0.0
210
0.0
220
0.0
230
1.0
 40
0.7017667618
 41
1.138264654007384
 42
1.242626038016535
  0
ELLIPSE
  5
2D3
330
1F
100
AcDbEntity
  8
0
  6
Continuous
 62
     7
370
    15
100
AcDbEllipse
 10
723.7593531516
 20
735.7648630943
 30
0.0
 11
206.5246170040732
 21
-25.36096772346912
 31
0.0
210
0.0
220
0.0
230
1.0
 40
0.7017667618
 41
1.898966615573258
 42
2.003327999582409
  0
SPLINE
  5
2D4
330
1F
100
AcDbEntity
  8
0
  6
Continuous
 62
     7
370
    15
100
AcDbSpline
210
0.0
220
0.0
230
1.0
 70
     8
 71
     3
 72
     9
 73
     5
 74
     0
 42
0.00000001
 43
0.00000001
 12
1.0
 22
0.0
 32
0.0
 13
1.0
 23
0.0
 33
0.0
 40
0.0
 40
0.0
 40
0.0
 40
0.0
 40
0.4999515945427188
 40
1.0
 40
1.0
 40
1.0
 40
1.0
 10
674.0417925891876
 20
881.1366251876278
 30
0.0
 10
673.0853656401727
 20
883.648688543286
 30
0.0
 10
671.1723265390776
 20
888.6733016919966
 30
0.0
 10
669.4054620451349
 20
893.7280118175003
 30
0.0
 10
668.5219442722797
 20
896.2556115558071
 30
0.0
  0
SPLINE
  5
2D5
330
1F
100
AcDbEntity
  8
0
  6
Continuous
 62
     7
370
    15
100
AcDbSpline
210
0.0
220
0.0
230
1.0
 70
     8
 71
     3
 72
     9
 73
     5
 74
     0
 42
0.00000001
 43
0.00000001
 12
1.0
 22
0.0
 32
0.0
 13
1.0
 23
0.0
 33
0.0
 40
0.0
 40
0.0
 40
0.0
 40
0.0
 40
0.5
 40
1.0
 40
1.0
 40
1.0
 40
1.0
 10
585.0240604841867
 20
813.2850149046271
 30
0.0
 10
585.0240604841867
 20
813.3458448769686
 30
0.0
 10
585.0204432281054
 20
813.4671822300812
 30
0.0
 10
585.009696720521
 20
813.5878837873342
 30
0.0
 10
585.0025628111638
 20
813.6480775484225
 30
0.0
  0
SPLINE
  5
2D6
330
1F
100
AcDbEntity
  8
0
  6
Continuous
 62
     7
370
    15
100
AcDbSpline
210
0.0
220
0.0
230
1.0
 70
     8
 71
     3
 72
     9
 73
     5
 74
     0
 42
0.00000001
 43
0.00000001
 12
1.0
 22
0.0
 32
0.0
 13
1.0
 23
0.0
 33
0.0
 40
0.0
 40
0.0
 40
0.0
 40
0.0
 40
0.5
 40
1.0
 40
1.0
 40
1.0
 40
1.0
 10
864.5672778279622
 20
813.2850149046271
 30
0.0
 10
864.5672778279622
 20
813.3458448769686
 30
0.0
 10
864.5708950840437
 20
813.4671822300812
 30
0.0
 10
864.5816415916281
 20
813.5878837873342
 30
0.0
 10
864.5887755009852
 20
813.6480775484225
 30
0.0
  0
LINE
  5
2D7
330
1F
100
AcDbEntity
  8
0
  6
Continuous
 62
     7
370
    15
100
AcDbLine
 10
584.8576424894
 20
814.880906718
 30
0.0
 11
585.002556282
 21
813.6480740478
 31
0.0
  0
LINE
  5
2D8
330
1F
100
AcDbEntity
  8
0
  6
Continuous
 62
     7
370
    15
100
AcDbLine
 10
864.7336958227
 20
814.880906718
 30
0.0
 11
864.5887820301
 21
813.6480740478
 31
0.0
  0
LINE
  5
2D9
330
1F
100
AcDbEntity
  8
0
  6
Continuous
 62
     7
370
    15
100
AcDbLine
 10
537.3326836405
 20
843.4382668903
 30
0.0
 11
537.3326836405
 21
853.3377639224
 31
0.0
  0
LINE
  5
2DA
330
1F
100
AcDbEntity
  8
0
  6
Continuous
 62
     7
370
    15
100
AcDbLine
 10
537.3326836405
 20
853.3377639224
 30
0.0
 11
579.7187684355
 21
792.9605833461
 31
0.0
  0
LINE
  5
2DB
330
1F
100
AcDbEntity
  8
0
  6
Continuous
 62
     7
370
    15
100
AcDbLine
 10
579.7187684355
 20
789.3358162811
 30
0.0
 11
579.7187684355
 21
792.9605833461
 31
0.0
  0
LINE
  5
2DC
330
1F
100
AcDbEntity
  8
0
  6
Continuous
 62
     7
370
    15
100
AcDbLine
 10
571.3711975393
 20
794.9518553188
 30
0.0
 11
537.3326836405
 21
843.4382668903
 31
0.0
  0
LINE
  5
2DD
330
1F
100
AcDbEntity
  8
0
  6
Continuous
 62
     7
370
    15
100
AcDbLine
 10
585.0240586576
 20
792.9605833461
 30
0.0
 11
579.7187684355
 21
792.9605833461
 31
0.0
  0
LINE
  5
2DE
330
1F
100
AcDbEntity
  8
0
  6
Continuous
 62
     7
370
    15
100
AcDbLine
 10
537.3326836405
 20
853.3377639224
 30
0.0
 11
553.4198729572
 21
852.3425451686
 31
0.0
  0
LINE
  5
2DF
330
1F
100
AcDbEntity
  8
0
  6
Continuous
 62
     7
370
    15
100
AcDbLine
 10
869.8725698767
 20
789.3358162811
 30
0.0
 11
869.8725698767
 21
792.9605833461
 31
0.0
  0
LINE
  5
2E0
330
1F
100
AcDbEntity
  8
0
  6
Continuous
 62
     7
370
    15
100
AcDbLine
 10
912.2586546717
 20
853.3377639224
 30
0.0
 11
869.8725698767
 21
792.9605833461
 31
0.0
  0
LINE
  5
2E1
330
1F
100
AcDbEntity
  8
0
  6
Continuous
 62
     7
370
    15
100
AcDbLine
 10
912.2586546717
 20
843.4382668903
 30
0.0
 11
912.2586546717
 21
853.3377639224
 31
0.0
  0
LINE
  5
2E2
330
1F
100
AcDbEntity
  8
0
  6
Continuous
 62
     7
370
    15
100
AcDbLine
 10
878.2201407728
 20
794.9518553188
 30
0.0
 11
912.2586546717
 21
843.4382668903
 31
0.0
  0
LINE
  5
2E3
330
1F
100
AcDbEntity
  8
0
  6
Continuous
 62
     7
370
    15
100
AcDbLine
 10
912.2586546717
 20
853.3377639224
 30
0.0
 11
896.1714653549
 21
852.3425451686
 31
0.0
  0
LINE
  5
2E4
330
1F
100
AcDbEntity
  8
0
  6
Continuous
 62
     7
370
    15
100
AcDbLine
 10
864.5672796545
 20
792.9605833461
 30
0.0
 11
869.8725698767
 21
792.9605833461
 31
0.0
  0
LINE
  5
2E5
330
1F
100
AcDbEntity
  8
0
  6
Continuous
 62
     7
370
    15
100
AcDbLine
 10
537.3326836405
 20
886.2182489803
 30
0.0
 11
537.3326836405
 21
885.1575843265
 31
0.0
  0
LINE
  5
2E6
330
1F
100
AcDbEntity
  8
0
  6
Continuous
 62
     7
370
    15
100
AcDbLine
 10
674.0417925892
 20
881.1366251876
 30
0.0
 11
537.3326836405
 21
886.2182489803
 31
0.0
  0
LINE
  5
2E7
330
1F
100
AcDbEntity
  8
0
  6
Continuous
 62
     7
370
    15
100
AcDbLine
 10
537.3326836405
 20
886.2182489803
 30
0.0
 11
537.3326836405
 21
893.0162183216
 31
0.0
  0
LINE
  5
2E8
330
1F
100
AcDbEntity
  8
0
  6
Continuous
 62
     7
370
    15
100
AcDbLine
 10
537.3326836405
 20
893.0162183216
 30
0.0
 11
668.5219442723
 21
896.2556115558
 31
0.0
  0
LINE
  5
2E9
330
1F
100
AcDbEntity
  8
0
  6
Continuous
 62
     7
370
    15
100
AcDbLine
 10
775.549545723
 20
881.1366251876
 30
0.0
 11
912.2586546717
 21
886.2182489803
 31
0.0
  0
LINE
  5
2EA
330
1F
100
AcDbEntity
  8
0
  6
Continuous
 62
     7
370
    15
100
AcDbLine
 10
912.2586546717
 20
886.2182489803
 30
0.0
 11
912.2586546717
 21
885.1575843265
 31
0.0
  0
LINE
  5
2EB
330
1F
100
AcDbEntity
  8
0
  6
Continuous
 62
     7
370
    15
100
AcDbLine
 10
912.2586546717
 20
893.0162183216
 30
0.0
 11
781.0693940399
 21
896.2556115558
 31
0.0
  0
LINE
  5
2EC
330
1F
100
AcDbEntity
  8
0
  6
Continuous
 62
     7
370
    15
100
AcDbLine
 10
912.2586546717
 20
886.2182489803
 30
0.0
 11
912.2586546717
 21
893.0162183216
 31
0.0
  0
LINE
  5
2ED
330
1F
100
AcDbEntity
  8
0
  6
Continuous
 62
     7
370
    15
100
AcDbLine
 10
752.6258955029
 20
916.8286017349
 30
0.0
 11
752.6258955029
 21
903.3935657909
 31
0.0
  0
LINE
  5
2EE
330
1F
100
AcDbEntity
  8
0
  6
Continuous
 62
     7
370
    15
100
AcDbLine
 10
696.9654428092
 20
903.3935657909
 30
0.0
 11
696.9654428092
 21
916.8286017349
 31
0.0
  0
ARC
  5
2EF
330
1F
100
AcDbEntity
  8
0
  6
Continuous
 62
     7
370
    15
100
AcDbCircle
 10
724.7956691561
 20
623.3430048603
 30
0.0
 40
294.8021659882483
100
AcDbArc
 50
84.5830367814
 51
95.4169632186
  0
LINE
  5
2F0
330
1F
100
AcDbEntity
  8
0
  6
Continuous
 62
     7
370
    15
100
AcDbLine
 10
537.3326836405
 20
862.9641822746
 30
0.0
 11
537.3326836405
 21
872.4296680858
 31
0.0
  0
ARC
  5
2F1
330
1F
100
AcDbEntity
  8
0
  6
Continuous
 62
     7
370
    15
100
AcDbCircle
 10
545.7511065251
 20
886.4536159135
 30
0.0
 40
9.788245373093199
100
AcDbArc
 50
90.1111061774
 51
137.6670111594
  0
LINE
  5
2F2
330
1F
100
AcDbEntity
  8
0
  6
Continuous
 62
     7
370
    15
100
AcDbLine
 10
545.7321254787
 20
896.2418428829
 30
0.0
 11
696.9654428092
 21
903.3935657909
 31
0.0
  0
LINE
  5
2F3
330
1F
100
AcDbEntity
  8
0
  6
Continuous
 62
     7
370
    15
100
AcDbLine
 10
582.5386194763
 20
911.4174238613
 30
0.0
 11
696.9654428092
 21
916.8286017349
 31
0.0
  0
LINE
  5
2F4
330
1F
100
AcDbEntity
  8
0
  6
Continuous
 62
     7
370
    15
100
AcDbLine
 10
582.5386194763
 20
911.4174238613
 30
0.0
 11
545.7321254787
 21
911.9538656642
 31
0.0
  0
ARC
  5
2F5
330
1F
100
AcDbEntity
  8
0
  6
Continuous
 62
     7
370
    15
100
AcDbCircle
 10
903.8116048075
 20
886.388982143
 30
0.0
 40
9.85297575773698
100
AcDbArc
 50
42.4987279163
 51
89.7231547469
  0
LINE
  5
2F6
330
1F
100
AcDbEntity
  8
0
  6
Continuous
 62
     7
370
    15
100
AcDbLine
 10
912.2586546717
 20
862.9641822746
 30
0.0
 11
912.2586546717
 21
872.4296680858
 31
0.0
  0
LINE
  5
2F7
330
1F
100
AcDbEntity
  8
0
  6
Continuous
 62
     7
370
    15
100
AcDbLine
 10
903.8592128334
 20
896.2418428829
 30
0.0
 11
752.6258955029
 21
903.3935657909
 31
0.0
  0
LINE
  5
2F8
330
1F
100
AcDbEntity
  8
0
  6
Continuous
 62
     7
370
    15
100
AcDbLine
 10
867.0527188358
 20
911.4174238613
 30
0.0
 11
752.6258955029
 21
916.8286017349
 31
0.0
  0
LINE
  5
2F9
330
1F
100
AcDbEntity
  8
0
  6
Continuous
 62
     7
370
    15
100
AcDbLine
 10
867.0527188358
 20
911.4174238613
 30
0.0
 11
903.8592128334
 21
911.9538656642
 31
0.0
  0
LINE
  5
2FA
330
1F
100
AcDbEntity
  8
0
  6
Continuous
 62
     7
370
    15
100
AcDbLine
 10
537.3326836405
 20
853.3377639224
 30
0.0
 11
537.3326836405
 21
856.1662129333
 31
0.0
  0
LINE
  5
2FB
330
1F
100
AcDbEntity
  8
0
  6
Continuous
 62
     7
370
    15
100
AcDbLine
 10
537.3326836405
 20
856.1662129333
 30
0.0
 11
551.3441114006
 21
855.2994123866
 31
0.0
  0
LINE
  5
2FC
330
1F
100
AcDbEntity
  8
0
  6
Continuous
 62
     7
370
    15
100
AcDbLine
 10
537.3326836405
 20
872.4296680858
 30
0.0
 11
539.4084451971
 21
872.3012498786
 31
0.0
  0
LINE
  5
2FD
330
1F
100
AcDbEntity
  8
0
  6
Continuous
 62
     7
370
    15
100
AcDbLine
 10
537.3326836405
 20
875.2580872943
 30
0.0
 11
537.3326836405
 21
872.4296680858
 31
0.0
  0
LINE
  5
2FE
330
1F
100
AcDbEntity
  8
0
  6
Continuous
 62
     7
370
    15
100
AcDbLine
 10
912.2586546717
 20
872.4296680858
 30
0.0
 11
910.182893115
 21
872.3012498786
 31
0.0
  0
LINE
  5
2FF
330
1F
100
AcDbEntity
  8
0
  6
Continuous
 62
     7
370
    15
100
AcDbLine
 10
912.2586546717
 20
856.1662129333
 30
0.0
 11
898.2472269115
 21
855.2994123866
 31
0.0
  0
LINE
  5
300
330
1F
100
AcDbEntity
  8
0
  6
Continuous
 62
     7
370
    15
100
AcDbLine
 10
912.2586546717
 20
853.3377639224
 30
0.0
 11
912.2586546717
 21
856.1662129333
 31
0.0
  0
LINE
  5
301
330
1F
100
AcDbEntity
  8
0
  6
Continuous
 62
     7
370
    15
100
AcDbLine
 10
912.2586546717
 20
875.2580872943
 30
0.0
 11
912.2586546717
 21
872.4296680858
 31
0.0
  0
LINE
  5
302
330
1F
100
AcDbEntity
  8
0
  6
Continuous
 62
     7
370
    15
100
AcDbLine
 10
537.3326836405
 20
893.0162183216
 30
0.0
 11
537.3326836405
 21
906.1236969402
 31
0.0
  0
ELLIPSE
  5
303
330
1F
100
AcDbEntity
  8
0
  6
Continuous
 62
     7
370
    15
100
AcDbEllipse
 10
546.3326823584
 20
905.5669282681
 30
0.0
 11
8.966764124245401
 21
-1.101134461225911
 31
0.0
210
0.0
220
0.0
230
1.0
 40
0.7017754025
 41
1.723541017873163
 42
3.227559510139312
  0
ELLIPSE
  5
304
330
1F
100
AcDbEntity
  8
0
  6
Continuous
 62
     7
370
    15
100
AcDbEllipse
 10
903.2586559537
 20
905.5669282681
 30
0.0
 11
8.966764124245515
 21
1.101134461225684
 31
0.0
210
0.0
220
0.0
230
1.0
 40
0.7017754025
 41
6.197218450630143
 42
7.701236942896237
  0
LINE
  5
305
330
1F
100
AcDbEntity
  8
0
  6
Continuous
 62
     7
370
    15
100
AcDbLine
 10
912.2586546717
 20
906.1236969402
 30
0.0
 11
912.2586546717
 21
893.0162183216
 31
0.0
  0
LINE
  5
306
330
1F
100
AcDbEntity
  8
0
  6
Continuous
 62
     7
370
    15
100
AcDbLine
 10
537.3326836405
 20
856.1662129333
 30
0.0
 11
537.3326836405
 21
862.9641822746
 31
0.0
  0
LINE
  5
307
330
1F
100
AcDbEntity
  8
0
  6
Continuous
 62
     7
370
    15
100
AcDbLine
 10
545.9632722912
 20
862.9641822746
 30
0.0
 11
537.3326836405
 21
862.9641822746
 31
0.0
  0
LINE
  5
308
330
1F
100
AcDbEntity
  8
0
  6
Continuous
 62
     7
370
    15
100
AcDbLine
 10
912.2586546717
 20
856.1662129333
 30
0.0
 11
912.2586546717
 21
862.9641822746
 31
0.0
  0
LINE
  5
309
330
1F
100
AcDbEntity
  8
0
  6
Continuous
 62
     7
370
    15
100
AcDbLine
 10
903.628066021
 20
862.9641822746
 30
0.0
 11
912.2586546717
 21
862.9641822746
 31
0.0
  0
LINE
  5
30A
330
1F
100
AcDbEntity
  8
0
  6
Continuous
 62
     7
370
    15
100
AcDbLine
 10
538.1254552183
 20
842.3089972904
 30
0.0
 11
537.3326836405
 21
842.3776320388
 31
0.0
  0
LINE
  5
30B
330
1F
100
AcDbEntity
  8
0
  6
Continuous
 62
     7
370
    15
100
AcDbLine
 10
537.3326836405
 20
842.3776320388
 30
0.0
 11
537.3326836405
 21
843.4382668903
 31
0.0
  0
LINE
  5
30C
330
1F
100
AcDbEntity
  8
0
  6
Continuous
 62
     7
370
    15
100
AcDbLine
 10
911.4658830938
 20
842.3089972904
 30
0.0
 11
912.2586546717
 21
842.3776320388
 31
0.0
  0
LINE
  5
30D
330
1F
100
AcDbEntity
  8
0
  6
Continuous
 62
     7
370
    15
100
AcDbLine
 10
912.2586546717
 20
842.3776320388
 30
0.0
 11
912.2586546717
 21
843.4382668903
 31
0.0
  0
LWPOLYLINE
  5
30E
330
1F
100
AcDbEntity
  8
0
  6
Continuous
 62
     7
370
    15
100
AcDbPolyline
 90
       33
 70
   128
 43
0.0
 10
515.795662838
 20
770.3593663146
 10
515.8022938547
 20
771.5363196304
 10
515.8553270874
 20
773.8899580409
 10
515.9613488493
 20
776.2427023818
 10
516.1203591404
 20
778.5939566066
 10
516.3323132572
 20
780.9431246688
 10
516.5971664963
 20
783.2895807197
 10
516.9148294506
 20
785.6327883174
 10
517.2852276144
 20
787.9720918109
 10
517.7082864819
 20
790.3069547584
 10
518.1838719425
 20
792.6367513111
 10
518.7118796883
 20
794.9608854225
 10
519.2921756086
 20
797.2787908485
 10
519.9245957909
 20
799.5898417404
 10
520.6090061245
 20
801.8935016563
 10
521.3452128944
 20
804.1891745498
 10
522.1330372868
 20
806.4762345722
 10
522.9722706852
 20
808.7541452815
 10
523.8627193747
 20
811.0223106315
 10
524.8041449366
 20
813.2801643779
 10
525.7963089523
 20
815.5271104743
 10
526.8389581022
 20
817.762612479
 10
527.9318241653
 20
819.9860743453
 10
529.0746389208
 20
822.1969596317
 10
530.2671043453
 20
824.3947020938
 10
531.5089224157
 20
826.5787354877
 10
532.7997951088
 20
828.7484935691
 10
534.1393647966
 20
830.9034398963
 10
535.5273036537
 20
833.0430082252
 10
536.9632540522
 20
835.1666919162
 10
538.4468732653
 20
837.2739545276
 10
539.9777589617
 20
839.3642000129
 10
540.0886534033
 20
839.5125261714
  0
LWPOLYLINE
  5
30F
330
1F
100
AcDbEntity
  8
0
  6
Continuous
 62
     7
370
    15
100
AcDbPolyline
 90
       33
 70
   128
 43
0.0
 10
909.5026849089
 20
839.5125261714
 10
909.6135793505
 20
839.3642000129
 10
911.1444650469
 20
837.2739545276
 10
912.62808426
 20
835.1666919162
 10
914.0640346584
 20
833.0430082252
 10
915.4519735155
 20
830.9034398963
 10
916.7915432034
 20
828.7484935691
 10
918.0824158964
 20
826.5787354877
 10
919.3242339668
 20
824.3947020938
 10
920.5166993914
 20
822.1969596317
 10
921.6595141468
 20
819.9860743453
 10
922.7523802099
 20
817.762612479
 10
923.7950293598
 20
815.5271104743
 10
924.7871933756
 20
813.2801643779
 10
925.7286189375
 20
811.0223106315
 10
926.619067627
 20
808.7541452815
 10
927.4583010254
 20
806.4762345722
 10
928.2461254177
 20
804.1891745498
 10
928.9823321877
 20
801.8935016563
 10
929.6667425213
 20
799.5898417404
 10
930.2991627035
 20
797.2787908485
 10
930.8794586239
 20
794.9608854225
 10
931.4074663696
 20
792.6367513111
 10
931.8830518303
 20
790.3069547584
 10
932.3061106977
 20
787.9720918109
 10
932.6765088615
 20
785.6327883174
 10
932.9941718159
 20
783.2895807197
 10
933.2590250549
 20
780.9431246688
 10
933.4709791718
 20
778.5939566066
 10
933.6299894629
 20
776.2427023818
 10
933.7360112247
 20
773.8899580409
 10
933.7890444574
 20
771.5363196304
 10
933.7956754742
 20
770.3593663146
  0
LWPOLYLINE
  5
310
330
1F
100
AcDbEntity
  8
0
  6
Continuous
 62
     7
370
    15
100
AcDbPolyline
 90
       44
 70
   128
 43
0.0
 10
588.5102598248
 20
912.9703632762
 10
588.8181029139
 20
914.0975169113
 10
589.1775189219
 20
915.2170113494
 10
589.588165122
 20
916.3276544979
 10
590.0495646772
 20
917.428284066
 10
590.5612705526
 20
918.5177675655
 10
591.1227314053
 20
919.5949129035
 10
591.7333362875
 20
920.6585875919
 10
592.3924742517
 20
921.7077187469
 10
593.0994151411
 20
922.741144078
 10
593.8534436998
 20
923.7577907016
 10
594.6537552652
 20
924.7566155364
 10
595.49948557
 20
925.7365158966
 10
596.3897852478
 20
926.696478503
 10
597.3236708221
 20
927.6355198791
 10
598.3001886187
 20
928.5526267459
 10
599.3182955561
 20
929.4468156269
 10
600.3769187508
 20
930.3171626499
 10
601.4749480662
 20
931.1627737453
 10
602.6112212119
 20
931.9826952388
 10
603.7845386443
 20
932.7761224677
 10
604.9936710176
 20
933.5421911647
 10
606.237336832
 20
934.280096667
 10
607.5142322359
 20
934.9890641143
 10
608.822993773
 20
935.6683484485
 10
610.1622654376
 20
936.3172344139
 10
611.5306167183
 20
936.935036557
 10
612.926609653
 20
937.5210694244
 10
614.3487764773
 20
938.074766772
 10
615.7956196246
 20
938.5955325534
 10
617.2656042752
 20
939.0828005245
 10
618.757188159
 20
939.5360640457
 10
620.2687992034
 20
939.9548462799
 10
621.7988355336
 20
940.3387299945
 10
623.3456952748
 20
940.6872681549
 10
624.9077392993
 20
941.000103133
 10
626.4833210287
 20
941.2769071033
 10
628.0707864342
 20
941.517411845
 10
629.6684591351
 20
941.7213491371
 10
631.2746478496
 20
941.8885103633
 10
632.8876612959
 20
942.0186869075
 10
634.5058081923
 20
942.1117595603
 10
636.1273749051
 20
942.1676687171
 10
637.7506478009
 20
942.1862951686
  0
LINE
  5
311
330
1F
100
AcDbEntity
  8
0
  6
Continuous
 62
     7
370
    15
100
AcDbLine
 10
637.7506478009
 20
942.1862951686
 30
0.0
 11
811.8406905112
 21
942.1862951686
 31
0.0
  0
LWPOLYLINE
  5
312
330
1F
100
AcDbEntity
  8
0
  6
Continuous
 62
     7
370
    15
100
AcDbPolyline
 90
       44
 70
   128
 43
0.0
 10
811.8406905112
 20
942.1862951686
 10
813.463963407
 20
942.1676687171
 10
815.0855301199
 20
942.1117595603
 10
816.7036770163
 20
942.0186869075
 10
818.3166904626
 20
941.8885103633
 10
819.9228791771
 20
941.7213491371
 10
821.520551878
 20
941.517411845
 10
823.1080172834
 20
941.2769071033
 10
824.6835990129
 20
941.000103133
 10
826.2456430373
 20
940.6872681549
 10
827.7925027785
 20
940.3387299945
 10
829.3225391088
 20
939.9548462799
 10
830.8341501532
 20
939.5360640457
 10
832.3257340369
 20
939.0828005245
 10
833.7957186875
 20
938.5955325534
 10
835.2425618348
 20
938.074766772
 10
836.6647286592
 20
937.5210694244
 10
838.0607215939
 20
936.935036557
 10
839.4290728745
 20
936.3172344139
 10
840.7683445392
 20
935.6683484485
 10
842.0771060762
 20
934.9890641143
 10
843.3540014801
 20
934.280096667
 10
844.5976672945
 20
933.5421911647
 10
845.8067996678
 20
932.7761224677
 10
846.9801171002
 20
931.9826952388
 10
848.1163902459
 20
931.1627737453
 10
849.2144195614
 20
930.3171626499
 10
850.2730427561
 20
929.4468156269
 10
851.2911496935
 20
928.5526267459
 10
852.26766749
 20
927.6355198791
 10
853.2015530643
 20
926.696478503
 10
854.0918527422
 20
925.7365158966
 10
854.9375830469
 20
924.7566155364
 10
855.7378946123
 20
923.7577907016
 10
856.491923171
 20
922.741144078
 10
857.1988640604
 20
921.7077187469
 10
857.8580020247
 20
920.6585875919
 10
858.4686069069
 20
919.5949129035
 10
859.0300677595
 20
918.5177675655
 10
859.5417736349
 20
917.428284066
 10
860.0031731901
 20
916.3276544979
 10
860.4138193903
 20
915.2170113494
 10
860.7732353983
 20
914.0975169113
 10
861.0810784874
 20
912.9703632762
  0
LINE
  5
313
330
1F
100
AcDbEntity
  8
0
  6
Continuous
 62
     7
370
    15
100
AcDbLine
 10
861.0810784874
 20
912.9703632762
 30
0.0
 11
861.4016769705
 21
911.6846612861
 31
0.0
  0
LINE
  5
314
330
1F
100
AcDbEntity
  8
0
  6
Continuous
 62
     7
370
    15
100
AcDbLine
 10
588.1896613417
 20
911.6846612861
 30
0.0
 11
588.5102598248
 21
912.9703632762
 31
0.0
  0
LINE
  5
315
330
1F
100
AcDbEntity
  8
0
  6
Continuous
 62
     8
370
     0
100
AcDbLine
 10
587.4854473648
 20
814.880906718
 30
0.0
 11
585.0240586576
 21
813.2850221565
 31
0.0
  0
ARC
  5
316
330
1F
100
AcDbEntity
  8
0
  6
Continuous
 62
     8
370
     0
100
AcDbCircle
 10
724.7956691561
 20
566.4651837664
 30
0.0
 40
285.7524741947672
100
AcDbArc
 50
77.1894048418
 51
102.8105951582
  0
LINE
  5
317
330
1F
100
AcDbEntity
  8
0
  6
Continuous
 62
     8
370
     0
100
AcDbLine
 10
862.1058909473
 20
814.880906718
 30
0.0
 11
864.5672796545
 21
813.2850221565
 31
0.0
  0
LWPOLYLINE
  5
318
330
1F
100
AcDbEntity
  8
0
  6
Continuous
 62
     8
370
     0
100
AcDbPolyline
 90
       45
 70
   128
 43
0.0
 10
881.9762615738
 20
800.3022960594
 10
882.5215248642
 20
799.8398534229
 10
884.6110699949
 20
798.0307332446
 10
886.6591153917
 20
796.1980394294
 10
888.665139514
 20
794.3422488143
 10
890.6286059198
 20
792.4638084342
 10
892.5490079699
 20
790.5632845333
 10
894.4258688269
 20
788.6410943439
 10
896.2586669502
 20
786.6978041103
 10
898.0469553051
 20
784.7338608673
 10
899.7902421532
 20
782.7498010566
 10
901.4881102619
 20
780.7461313178
 10
903.1400827942
 20
778.7233880927
 10
904.7457574186
 20
776.6820780208
 10
906.3047020016
 20
774.6227375438
 10
907.8165142117
 20
772.5459031036
 10
909.2808066187
 20
770.4521111419
 10
910.6971917925
 20
768.3418981006
 10
912.0653121052
 20
766.2158302238
 10
913.3848099289
 20
764.0744737556
 10
914.6553276358
 20
761.9183353355
 10
915.8765672026
 20
759.7479812076
 10
917.0481710014
 20
757.5640372207
 10
918.1698708115
 20
755.3670100143
 10
919.2413388071
 20
753.1574658325
 10
920.2623365698
 20
750.936030524
 10
921.2325660763
 20
748.7032405307
 10
922.1518038092
 20
746.4596918991
 10
923.0197964487
 20
744.2059508731
 10
923.8363055763
 20
741.9426134994
 10
924.6011374769
 20
739.6702758243
 10
925.3140984354
 20
737.389504092
 10
925.9749798355
 20
735.1008943489
 10
926.5836326656
 20
732.8050724437
 10
927.1398781118
 20
730.502634423
 10
927.6435969648
 20
728.1941167285
 10
928.094640213
 20
725.8801750114
 10
928.4929035482
 20
723.561405318
 10
928.8382677612
 20
721.2384036949
 10
929.130643445
 20
718.9117363861
 10
929.3699709949
 20
716.5820590427
 10
929.5561759052
 20
714.2499677112
 10
929.6892134724
 20
711.9160584381
 10
929.769053894
 20
709.5808974674
 10
929.792895752
 20
707.9991094043
  0
LWPOLYLINE
  5
319
330
1F
100
AcDbEntity
  8
0
  6
Continuous
 62
     8
370
     0
100
AcDbPolyline
 90
       45
 70
   128
 43
0.0
 10
567.6150767384
 20
800.3022960594
 10
567.069813448
 20
799.8398534229
 10
564.9802683172
 20
798.0307332446
 10
562.9322229204
 20
796.1980394294
 10
560.9261987982
 20
794.3422488143
 10
558.9627323923
 20
792.4638084342
 10
557.0423303423
 20
790.5632845333
 10
555.1654694853
 20
788.6410943439
 10
553.3326713619
 20
786.6978041103
 10
551.544383007
 20
784.7338608673
 10
549.801096159
 20
782.7498010566
 10
548.1032280502
 20
780.7461313178
 10
546.451255518
 20
778.7233880927
 10
544.8455808935
 20
776.6820780208
 10
543.2866363106
 20
774.6227375438
 10
541.7748241005
 20
772.5459031036
 10
540.3105316935
 20
770.4521111419
 10
538.8941465197
 20
768.3418981006
 10
537.526026207
 20
766.2158302238
 10
536.2065283833
 20
764.0744737556
 10
534.9360106764
 20
761.9183353355
 10
533.7147711096
 20
759.7479812076
 10
532.5431673107
 20
757.5640372207
 10
531.4214675007
 20
755.3670100143
 10
530.349999505
 20
753.1574658325
 10
529.3290017424
 20
750.936030524
 10
528.3587722359
 20
748.7032405307
 10
527.439534503
 20
746.4596918991
 10
526.5715418634
 20
744.2059508731
 10
525.7550327358
 20
741.9426134994
 10
524.9902008352
 20
739.6702758243
 10
524.2772398767
 20
737.389504092
 10
523.6163584766
 20
735.1008943489
 10
523.0077056465
 20
732.8050724437
 10
522.4514602003
 20
730.502634423
 10
521.9477413473
 20
728.1941167285
 10
521.4966980991
 20
725.8801750114
 10
521.0984347639
 20
723.561405318
 10
520.7530705509
 20
721.2384036949
 10
520.4606948671
 20
718.9117363861
 10
520.2213673172
 20
716.5820590427
 10
520.0351624069
 20
714.2499677112
 10
519.9021248398
 20
711.9160584381
 10
519.8222844181
 20
709.5808974674
 10
519.798517066
 20
708.0093017986
  0
ARC
  5
31A
330
1F
100
AcDbEntity
  8
0
  6
Continuous
 62
     8
370
     0
100
AcDbCircle
 10
724.7956691561
 20
566.8238188596
 30
0.0
 40
285.7673254230904
100
AcDbArc
 50
77.1803339026
 51
102.8196660974
  0
LWPOLYLINE
  5
31B
330
1F
100
AcDbEntity
  8
0
  6
Continuous
 62
     8
370
     0
100
AcDbPolyline
 90
       46
 70
   128
 43
0.0
 10
929.7956673679
 20
705.8747402599
 10
929.8103301105
 20
707.6082221439
 10
929.7837166367
 20
709.9439493587
 10
929.7038911161
 20
712.2790209224
 10
929.570853549
 20
714.6129301956
 10
929.384678441
 20
716.9449917247
 10
929.1453657923
 20
719.2746094634
 10
928.8530199108
 20
721.6012469699
 10
928.5076855001
 20
723.9242187908
 10
928.1094817696
 20
726.2429586818
 10
927.6584832249
 20
728.5568705966
 10
927.1548090754
 20
730.8653286865
 10
926.5986232338
 20
733.1677667072
 10
925.9900300083
 20
735.46355881
 10
925.3292082129
 20
737.7521089485
 10
924.6163366613
 20
740.0328508785
 10
923.8515792665
 20
742.3051885536
 10
923.0351446447
 20
744.568496125
 10
922.1672414122
 20
746.8222073486
 10
921.2481079874
 20
749.0657559802
 10
920.2779678879
 20
751.2985161712
 10
919.2570744333
 20
753.5199514797
 10
918.1856958447
 20
755.7294658592
 10
917.0641152439
 20
757.9264930656
 10
915.8926306543
 20
760.1104370525
 10
914.671525198
 20
762.280761378
 10
913.4011267004
 20
764.4368997981
 10
912.0817629871
 20
766.5782562663
 10
910.7137767849
 20
768.7043539455
 10
909.2975257215
 20
770.8145371845
 10
907.833367425
 20
772.9083589485
 10
906.3217042265
 20
774.9851933887
 10
904.7629086552
 20
777.0445338657
 10
903.1573830423
 20
779.08587374
 10
901.5055744228
 20
781.1086467674
 10
899.8078702269
 20
783.1123463085
 10
898.0647323904
 20
785.0964359214
 10
896.2766228495
 20
787.0604089668
 10
894.4439886389
 20
789.0037290027
 10
892.5673065958
 20
790.9259489944
 10
890.6470833597
 20
792.8265325
 10
888.6837957678
 20
794.7050026824
 10
886.6779504595
 20
796.5608529022
 10
884.6300987778
 20
798.393606322
 10
882.540732461
 20
800.2027861049
 10
882.1433184919
 20
800.5402676036
  0
LWPOLYLINE
  5
31C
330
1F
100
AcDbEntity
  8
0
  6
Continuous
 62
     8
370
     0
100
AcDbPolyline
 90
       46
 70
   128
 43
0.0
 10
519.7956709442
 20
705.8747402599
 10
519.7810082016
 20
707.6082221439
 10
519.8076216755
 20
709.9439493587
 10
519.887447196
 20
712.2790209224
 10
520.0204847631
 20
714.6129301956
 10
520.2066598711
 20
716.9449917247
 10
520.4459725199
 20
719.2746094634
 10
520.7383184013
 20
721.6012469699
 10
521.083652812
 20
723.9242187908
 10
521.4818565426
 20
726.2429586818
 10
521.9328550873
 20
728.5568705966
 10
522.4365292368
 20
730.8653286865
 10
522.9927150784
 20
733.1677667072
 10
523.6013083038
 20
735.46355881
 10
524.2621300993
 20
737.7521089485
 10
524.9750016508
 20
740.0328508785
 10
525.7397590456
 20
742.3051885536
 10
526.5561936674
 20
744.568496125
 10
527.4240969
 20
746.8222073486
 10
528.3432303247
 20
749.0657559802
 10
529.3133704243
 20
751.2985161712
 10
530.3342638788
 20
753.5199514797
 10
531.4056424675
 20
755.7294658592
 10
532.5272230682
 20
757.9264930656
 10
533.6987076578
 20
760.1104370525
 10
534.9198131142
 20
762.280761378
 10
536.1902116117
 20
764.4368997981
 10
537.509575325
 20
766.5782562663
 10
538.8775615273
 20
768.7043539455
 10
540.2938125906
 20
770.8145371845
 10
541.7579708872
 20
772.9083589485
 10
543.2696340857
 20
774.9851933887
 10
544.828429657
 20
777.0445338657
 10
546.4339552698
 20
779.08587374
 10
548.0857638893
 20
781.1086467674
 10
549.7834680853
 20
783.1123463085
 10
551.5266059217
 20
785.0964359214
 10
553.3147154627
 20
787.0604089668
 10
555.1473496733
 20
789.0037290027
 10
557.0240317163
 20
790.9259489944
 10
558.9442549524
 20
792.8265325
 10
560.9075425444
 20
794.7050026824
 10
562.9133878527
 20
796.5608529022
 10
564.9612395344
 20
798.393606322
 10
567.0506058512
 20
800.2027861049
 10
567.4480198202
 20
800.5402676036
  0
LINE
  5
31D
330
1F
100
AcDbEntity
  8
0
  6
Continuous
 62
     8
370
     0
100
AcDbLine
 10
585.002556282
 20
813.6480740478
 30
0.0
 11
586.8965832767
 21
814.880906718
 31
0.0
  0
LINE
  5
31E
330
1F
100
AcDbEntity
  8
0
  6
Continuous
 62
     8
370
     0
100
AcDbLine
 10
864.5887820301
 20
813.6480740478
 30
0.0
 11
862.6947550354
 21
814.880906718
 31
0.0
  0
LINE
  5
31F
330
1F
100
AcDbEntity
  8
0
  6
Continuous
 62
     8
370
     0
100
AcDbLine
 10
545.7321254787
 20
911.9538656642
 30
0.0
 11
545.7321254787
 21
896.2418428829
 31
0.0
  0
LINE
  5
320
330
1F
100
AcDbEntity
  8
0
  6
Continuous
 62
     8
370
     0
100
AcDbLine
 10
903.8592128334
 20
896.2418428829
 30
0.0
 11
903.8592128334
 21
911.9538656642
 31
0.0
  0
INSERT
  5
32C
330
1F
100
AcDbEntity
  8
FORMAT
100
AcDbBlockReference
  2
SW_CENTERMARKSYMBOL_0
 10
724.7956691561
 20
445.0902334621
 30
0.0
  0
ENDSEC
  0
SECTION
  2
OBJECTS
  0
DICTIONARY
  5
C
330
0
100
AcDbDictionary
281
     1
  3
ACAD_GROUP
350
D
  3
ACAD_LAYOUT
350
1A
  3
ACAD_MLINESTYLE
350
17
  3
ACAD_PLOTSETTINGS
350
19
  3
ACAD_PLOTSTYLENAME
350
E
  0
DICTIONARY
  5
D
102
{ACAD_REACTORS
330
C
102
}
330
C
100
AcDbDictionary
281
     1
  0
DICTIONARY
  5
1A
102
{ACAD_REACTORS
330
C
102
}
330
C
100
AcDbDictionary
281
     1
  3
Layout1
350
1E
  3
Layout2
350
26
  3
Model
350
22
  0
DICTIONARY
  5
17
102
{ACAD_REACTORS
330
C
102
}
330
C
100
AcDbDictionary
281
     1
  3
Standard
350
18
  0
DICTIONARY
  5
19
102
{ACAD_REACTORS
330
C
102
}
330
C
100
AcDbDictionary
281
     1
  0
ACDBDICTIONARYWDFLT
  5
E
102
{ACAD_REACTORS
330
C
102
}
330
C
100
AcDbDictionary
281
     1
  3
Normal
350
F
100
AcDbDictionaryWithDefault
340
F
  0
LAYOUT
  5
1E
102
{ACAD_REACTORS
330
1A
102
}
330
1A
100
AcDbPlotSettings
  1

  2
none_device
  4

  6

 40
0.0
 41
0.0
 42
0.0
 43
0.0
 44
0.0
 45
0.0
 46
0.0
 47
0.0
 48
0.0
 49
0.0
140
0.0
141
0.0
142
1.0
143
1.0
 70
   688
 72
     0
 73
     0
 74
     5
  7

 75
    16
147
1.0
148
0.0
149
0.0
100
AcDbLayout
  1
Layout1
 70
     1
 71
     1
 10
0.0
 20
0.0
 11
420.0
 21
297.0
 12
0.0
 22
0.0
 32
0.0
 14
1.0000000000E+20
 24
1.0000000000E+20
 34
1.0000000000E+20
 15
-1.0000000000E+20
 25
-1.0000000000E+20
 35
-1.0000000000E+20
146
0.0
 13
0.0
 23
0.0
 33
0.0
 16
1.0
 26
0.0
 36
0.0
 17
0.0
 27
1.0
 37
0.0
 76
     0
330
1B
  0
LAYOUT
  5
26
102
{ACAD_REACTORS
330
1A
102
}
330
1A
100
AcDbPlotSettings
  1

  2
none_device
  4

  6

 40
0.0
 41
0.0
 42
0.0
 43
0.0
 44
0.0
 45
0.0
 46
0.0
 47
0.0
 48
0.0
 49
0.0
140
0.0
141
0.0
142
1.0
143
1.0
 70
   688
 72
     0
 73
     0
 74
     5
  7

 75
    16
147
1.0
148
0.0
149
0.0
100
AcDbLayout
  1
Layout2
 70
     1
 71
     2
 10
0.0
 20
0.0
 11
0.0
 21
0.0
 12
0.0
 22
0.0
 32
0.0
 14
0.0
 24
0.0
 34
0.0
 15
0.0
 25
0.0
 35
0.0
146
0.0
 13
0.0
 23
0.0
 33
0.0
 16
1.0
 26
0.0
 36
0.0
 17
0.0
 27
1.0
 37
0.0
 76
     0
330
23
  0
LAYOUT
  5
22
102
{ACAD_REACTORS
330
1A
102
}
330
1A
100
AcDbPlotSettings
  1

  2
none_device
  4

  6

 40
0.0
 41
0.0
 42
0.0
 43
0.0
 44
0.0
 45
0.0
 46
0.0
 47
0.0
 48
0.0
 49
0.0
140
0.0
141
0.0
142
1.0
143
1.0
 70
  1712
 72
     0
 73
     0
 74
     0
  7

 75
     0
147
1.0
148
0.0
149
0.0
100
AcDbLayout
  1
Model
 70
     1
 71
     0
 10
0.0
 20
0.0
 11
841.0
 21
594.0
 12
0.0
 22
0.0
 32
0.0
 14
0.0
 24
0.0
 34
0.0
 15
841.0
 25
594.0
 35
0.0
146
0.0
 13
0.0
 23
0.0
 33
0.0
 16
1.0
 26
0.0
 36
0.0
 17
0.0
 27
1.0
 37
0.0
 76
     0
330
1F
331
29
  0
MLINESTYLE
  5
18
102
{ACAD_REACTORS
330
17
102
}
330
17
100
AcDbMlineStyle
  2
Standard
 70
     0
  3

 62
   256
 51
90.0
 52
90.0
 71
     2
 49
0.5
 62
   256
  6
BYLAYER
 49
-0.5
 62
   256
  6
BYLAYER
  0
ACDBPLACEHOLDER
  5
F
102
{ACAD_REACTORS
330
E
102
}
330
E
  0
ENDSEC
  0
EOF
