  0
SECTION
  2
HEADER
  9
$ACADVER
  1
AC1015
  9
$ACADMAINTVER
 70
     6
  9
$DWGCODEPAGE
  3
ANSI_1252
  9
$INSBASE
 10
0.0
 20
0.0
 30
0.0
  9
$EXTMIN
 10
0.0
 20
0.0
 30
0.0
  9
$EXTMAX
 10
431.8
 20
279.4
 30
0.0
  9
$LIMMIN
 10
0.0
 20
0.0
  9
$LIMMAX
 10
431.8
 20
279.4
  9
$ORTHOMODE
 70
     0
  9
$REGENMODE
 70
     1
  9
$FILLMODE
 70
     1
  9
$QTEXTMODE
 70
     0
  9
$MIRRTEXT
 70
     1
  9
$LTSCALE
 40
1.0
  9
$ATTMODE
 70
     1
  9
$TEXTSIZE
 40
2.5
  9
$TRACEWID
 40
1.0
  9
$TEXTSTYLE
  7
Standard
  9
$CLAYER
  8
0
  9
$CELTYPE
  6
ByLayer
  9
$CECOLOR
 62
   256
  9
$CELTSCALE
 40
1.0
  9
$DISPSILH
 70
     0
  9
$DIMSCALE
 40
1.0
  9
$DIMASZ
 40
2.5
  9
$DIMEXO
 40
1.0
  9
$DIMDLI
 40
3.75
  9
$DIMRND
 40
0.0
  9
$DIMDLE
 40
0.0
  9
$DIMEXE
 40
1.0
  9
$DIMTP
 40
0.0
  9
$DIMTM
 40
0.0
  9
$DIMTXT
 40
2.5
  9
$DIMCEN
 40
2.5
  9
$DIMTSZ
 40
0.0
  9
$DIMTOL
 70
     0
  9
$DIMLIM
 70
     0
  9
$DIMTIH
 70
     1
  9
$DIMTOH
 70
     1
  9
$DIMSE1
 70
     0
  9
$DIMSE2
 70
     0
  9
$DIMTAD
 70
     1
  9
$DIMZIN
 70
     0
  9
$DIMBLK
  1

  9
$DIMASO
 70
     1
  9
$DIMSHO
 70
     1
  9
$DIMPOST
  1

  9
$DIMAPOST
  1

  9
$DIMALT
 70
     0
  9
$DIMALTD
 70
     3
  9
$DIMALTF
 40
0.0393700787
  9
$DIMLFAC
 40
1.0
  9
$DIMTOFL
 70
     1
  9
$DIMTVP
 40
0.0
  9
$DIMTIX
 70
     0
  9
$DIMSOXD
 70
     0
  9
$DIMSAH
 70
     0
  9
$DIMBLK1
  1

  9
$DIMBLK2
  1

  9
$DIMSTYLE
  2
ISO-25
  9
$DIMCLRD
 70
     0
  9
$DIMCLRE
 70
     0
  9
$DIMCLRT
 70
     0
  9
$DIMTFAC
 40
1.0
  9
$DIMGAP
 40
1.524
  9
$DIMJUST
 70
     0
  9
$DIMSD1
 70
     0
  9
$DIMSD2
 70
     0
  9
$DIMTOLJ
 70
     0
  9
$DIMTZIN
 70
     0
  9
$DIMALTZ
 70
     0
  9
$DIMALTTZ
 70
     0
  9
$DIMUPT
 70
     0
  9
$DIMDEC
 70
     2
  9
$DIMTDEC
 70
     2
  9
$DIMALTU
 70
     2
  9
$DIMALTTD
 70
     3
  9
$DIMTXSTY
  7
Standard
  9
$DIMAUNIT
 70
     0
  9
$DIMADEC
 70
     2
  9
$DIMALTRND
 40
0.0
  9
$DIMAZIN
 70
     0
  9
$DIMDSEP
 70
    44
  9
$DIMATFIT
 70
     3
  9
$DIMFRAC
 70
     0
  9
$DIMLDRBLK
  1

  9
$DIMLUNIT
 70
     2
  9
$DIMLWD
 70
    -2
  9
$DIMLWE
 70
    -2
  9
$DIMTMOVE
 70
     0
  9
$LUNITS
 70
     2
  9
$LUPREC
 70
     2
  9
$SKETCHINC
 40
1.0
  9
$FILLETRAD
 40
10.0
  9
$AUNITS
 70
     0
  9
$AUPREC
 70
     2
  9
$MENU
  1
.
  9
$ELEVATION
 40
0.0
  9
$PELEVATION
 40
0.0
  9
$THICKNESS
 40
0.0
  9
$LIMCHECK
 70
     0
  9
$CHAMFERA
 40
10.0
  9
$CHAMFERB
 40
10.0
  9
$CHAMFERC
 40
20.0
  9
$CHAMFERD
 40
0.0
  9
$SKPOLY
 70
     0
  9
$TDCREATE
 40
2457199.367608472
  9
$TDUCREATE
 40
2457199.034275139
  9
$TDUPDATE
 40
2457199.367609375
  9
$TDUUPDATE
 40
2457199.034276042
  9
$TDINDWG
 40
0.0000000116
  9
$TDUSRTIMER
 40
0.0000000116
  9
$USRTIMER
 70
     1
  9
$ANGBASE
 50
0.0
  9
$ANGDIR
 70
     0
  9
$PDMODE
 70
     0
  9
$PDSIZE
 40
-1.0
  9
$PLINEWID
 40
0.0
  9
$SPLFRAME
 70
     0
  9
$SPLINETYPE
 70
     6
  9
$SPLINESEGS
 70
     8
  9
$HANDSEED
  5
332
  9
$SURFTAB1
 70
     6
  9
$SURFTAB2
 70
     6
  9
$SURFTYPE
 70
     6
  9
$SURFU
 70
     6
  9
$SURFV
 70
     6
  9
$UCSBASE
  2

  9
$UCSNAME
  2

  9
$UCSORG
 10
0.0
 20
0.0
 30
0.0
  9
$UCSXDIR
 10
1.0
 20
0.0
 30
0.0
  9
$UCSYDIR
 10
0.0
 20
1.0
 30
0.0
  9
$UCSORTHOREF
  2

  9
$UCSORTHOVIEW
 70
     0
  9
$UCSORGTOP
 10
0.0
 20
0.0
 30
0.0
  9
$UCSORGBOTTOM
 10
0.0
 20
0.0
 30
0.0
  9
$UCSORGLEFT
 10
0.0
 20
0.0
 30
0.0
  9
$UCSORGRIGHT
 10
0.0
 20
0.0
 30
0.0
  9
$UCSORGFRONT
 10
0.0
 20
0.0
 30
0.0
  9
$UCSORGBACK
 10
0.0
 20
0.0
 30
0.0
  9
$PUCSBASE
  2

  9
$PUCSNAME
  2

  9
$PUCSORG
 10
0.0
 20
0.0
 30
0.0
  9
$PUCSXDIR
 10
1.0
 20
0.0
 30
0.0
  9
$PUCSYDIR
 10
0.0
 20
1.0
 30
0.0
  9
$PUCSORTHOREF
  2

  9
$PUCSORTHOVIEW
 70
     0
  9
$PUCSORGTOP
 10
0.0
 20
0.0
 30
0.0
  9
$PUCSORGBOTTOM
 10
0.0
 20
0.0
 30
0.0
  9
$PUCSORGLEFT
 10
0.0
 20
0.0
 30
0.0
  9
$PUCSORGRIGHT
 10
0.0
 20
0.0
 30
0.0
  9
$PUCSORGFRONT
 10
0.0
 20
0.0
 30
0.0
  9
$PUCSORGBACK
 10
0.0
 20
0.0
 30
0.0
  9
$USERI1
 70
     0
  9
$USERI2
 70
     0
  9
$USERI3
 70
     0
  9
$USERI4
 70
     0
  9
$USERI5
 70
     0
  9
$USERR1
 40
0.0
  9
$USERR2
 40
0.0
  9
$USERR3
 40
0.0
  9
$USERR4
 40
0.0
  9
$USERR5
 40
0.0
  9
$WORLDVIEW
 70
     1
  9
$SHADEDGE
 70
     3
  9
$SHADEDIF
 70
    70
  9
$TILEMODE
 70
     1
  9
$MAXACTVP
 70
    64
  9
$PINSBASE
 10
0.0
 20
0.0
 30
0.0
  9
$PLIMCHECK
 70
     0
  9
$PEXTMIN
 10
1.0000000000E+20
 20
1.0000000000E+20
 30
1.0000000000E+20
  9
$PEXTMAX
 10
-1.0000000000E+20
 20
-1.0000000000E+20
 30
-1.0000000000E+20
  9
$PLIMMIN
 10
0.0
 20
0.0
  9
$PLIMMAX
 10
420.0
 20
297.0
  9
$UNITMODE
 70
     0
  9
$VISRETAIN
 70
     1
  9
$PLINEGEN
 70
     0
  9
$PSLTSCALE
 70
     1
  9
$TREEDEPTH
 70
  3020
  9
$CMLSTYLE
  2
Standard
  9
$CMLJUST
 70
     0
  9
$CMLSCALE
 40
20.0
  9
$PROXYGRAPHICS
 70
     1
  9
$MEASUREMENT
 70
     1
  9
$CELWEIGHT
370
    -1
  9
$ENDCAPS
280
     0
  9
$JOINSTYLE
280
     0
  9
$LWDISPLAY
290
     1
  9
$INSUNITS
 70
     4
  9
$HYPERLINKBASE
  1

  9
$STYLESHEET
  1

  9
$XEDIT
290
     1
  9
$CEPSNTYPE
380
     0
  9
$PSTYLEMODE
290
     1
  9
$FINGERPRINTGUID
  2
{3B9779F3-A87A-41E5-863A-4884951A3179}
  9
$VERSIONGUID
  2
{FAEB1C32-E019-11D5-929B-00C0DF256EC4}
  9
$EXTNAMES
290
     1
  9
$PSVPSCALE
 40
0.0
  9
$OLESTARTUP
290
     0
  0
ENDSEC
  0
SECTION
  2
CLASSES
  0
CLASS
  1
ACDBDICTIONARYWDFLT
  2
AcDbDictionaryWithDefault
  3
ObjectDBX Classes
 90
        0
280
     0
281
     0
  0
CLASS
  1
VISUALSTYLE
  2
AcDbVisualStyle
  3
ObjectDBX Classes
 90
     4095
280
     0
281
     0
  0
CLASS
  1
MATERIAL
  2
AcDbMaterial
  3
ObjectDBX Classes
 90
     1153
280
     0
281
     0
  0
CLASS
  1
ACDBPLACEHOLDER
  2
AcDbPlaceHolder
  3
ObjectDBX Classes
 90
        0
280
     0
281
     0
  0
CLASS
  1
LAYOUT
  2
AcDbLayout
  3
ObjectDBX Classes
 90
        0
280
     0
281
     0
  0
ENDSEC
  0
SECTION
  2
TABLES
  0
TABLE
  2
VPORT
  5
8
330
0
100
AcDbSymbolTable
 70
     1
  0
VPORT
  5
29
330
8
100
AcDbSymbolTableRecord
100
AcDbViewportTableRecord
  2
*Active
 70
     0
 10
0.0
 20
0.0
 11
1.0
 21
1.0
 12
215.9
 22
139.7
 13
0.0
 23
0.0
 14
10.0
 24
10.0
 15
10.0
 25
10.0
 16
0.0
 26
0.0
 36
1.0
 17
0.0
 27
0.0
 37
0.0
 40
279.4
 41
1.5454545455
 42
50.0
 43
0.0
 44
0.0
 50
0.0
 51
0.0
 71
     0
 72
  2000
 73
     1
 74
     3
 75
     0
 76
     0
 77
     0
 78
     0
281
     0
 65
     1
110
0.0
120
0.0
130
0.0
111
1.0
121
0.0
131
0.0
112
0.0
122
1.0
132
0.0
 79
     0
146
0.0
  0
ENDTAB
  0
TABLE
  2
LTYPE
  5
5
330
0
100
AcDbSymbolTable
 70
     6
  0
LTYPE
  5
14
330
5
100
AcDbSymbolTableRecord
100
AcDbLinetypeTableRecord
  2
ByBlock
 70
     0
  3

 72
    65
 73
     0
 40
0.0
  0
LTYPE
  5
15
330
5
100
AcDbSymbolTableRecord
100
AcDbLinetypeTableRecord
  2
ByLayer
 70
     0
  3

 72
    65
 73
     0
 40
0.0
  0
LTYPE
  5
16
330
5
100
AcDbSymbolTableRecord
100
AcDbLinetypeTableRecord
  2
Continuous
 70
     0
  3
Solid line
 72
    65
 73
     0
 40
0.0
  0
LTYPE
  5
3F
330
5
100
AcDbSymbolTableRecord
100
AcDbLinetypeTableRecord
  2
HIDDEN
 70
     0
  3
Hidden __ __ __ __ __ __ __ __ __ __ __ __ __ __
 72
    65
 73
     2
 40
1.905
 49
1.27
 74
     0
 49
-0.635
 74
     0
  0
LTYPE
  5
40
330
5
100
AcDbSymbolTableRecord
100
AcDbLinetypeTableRecord
  2
PHANTOM
 70
     0
  3
Phantom ______  __  __  ______  __  __  ______
 72
    65
 73
     6
 40
12.7
 49
6.35
 74
     0
 49
-1.27
 74
     0
 49
1.27
 74
     0
 49
-1.27
 74
     0
 49
1.27
 74
     0
 49
-1.27
 74
     0
  0
LTYPE
  5
41
330
5
100
AcDbSymbolTableRecord
100
AcDbLinetypeTableRecord
  2
CENTER
 70
     0
  3
Center ____ _ ____ _ ____ _ ____ _ ____ _ ____
 72
    65
 73
     4
 40
10.16
 49
6.35
 74
     0
 49
-1.27
 74
     0
 49
1.27
 74
     0
 49
-1.27
 74
     0
  0
LTYPE
  5
42
330
5
100
AcDbSymbolTableRecord
100
AcDbLinetypeTableRecord
  2
CENTERX2
 70
     0
  3
Center (2x) ________  __  ________  __  _____
 72
    65
 73
     4
 40
20.32
 49
12.7
 74
     0
 49
-2.54
 74
     0
 49
2.54
 74
     0
 49
-2.54
 74
     0
  0
LTYPE
  5
43
330
5
100
AcDbSymbolTableRecord
100
AcDbLinetypeTableRecord
  2
DOT2
 70
     0
  3
Dot (.5x) ........................................
 72
    65
 73
     2
 40
0.635
 49
0.0
 74
     0
 49
-0.635
 74
     0
  0
ENDTAB
  0
TABLE
  2
LAYER
  5
2
330
0
100
AcDbSymbolTable
 70
     3
  0
LAYER
  5
10
330
2
100
AcDbSymbolTableRecord
100
AcDbLayerTableRecord
  2
0
 70
     0
 62
     7
  6
Continuous
370
    -3
390
F
  0
LAYER
  5
44
330
2
100
AcDbSymbolTableRecord
100
AcDbLayerTableRecord
  2
FORMAT
 70
     0
 62
     7
  6
Continuous
370
    -3
390
F
  0
LAYER
  5
45
330
2
100
AcDbSymbolTableRecord
100
AcDbLayerTableRecord
  2
PROTOTYPE
 70
     0
 62
     7
  6
Continuous
370
    -3
390
F
  0
ENDTAB
  0
TABLE
  2
STYLE
  5
3
330
0
100
AcDbSymbolTable
 70
     1
  0
STYLE
  5
11
330
3
100
AcDbSymbolTableRecord
100
AcDbTextStyleTableRecord
  2
Standard
 70
     0
 40
0.0
 41
1.0
 50
0.0
 71
     0
 42
2.5
  3
txt
  4

  0
ENDTAB
  0
TABLE
  2
VIEW
  5
6
330
0
100
AcDbSymbolTable
 70
     0
  0
ENDTAB
  0
TABLE
  2
UCS
  5
7
330
0
100
AcDbSymbolTable
 70
     0
  0
ENDTAB
  0
TABLE
  2
APPID
  5
9
330
0
100
AcDbSymbolTable
 70
     1
  0
APPID
  5
12
330
9
100
AcDbSymbolTableRecord
100
AcDbRegAppTableRecord
  2
ACAD
 70
     0
  0
ENDTAB
  0
TABLE
  2
DIMSTYLE
  5
A
330
0
100
AcDbSymbolTable
 70
     1
100
AcDbDimStyleTable
  0
DIMSTYLE
105
27
330
A
100
AcDbSymbolTableRecord
100
AcDbDimStyleTableRecord
  2
ISO-25
 70
     0
 41
2.5
 42
0.625
 43
3.75
 44
1.25
 73
     0
 74
     0
 77
     1
 78
     8
140
2.5
141
2.5
143
0.0393700787
147
0.625
171
     3
172
     1
178
     0
271
     2
272
     2
274
     3
278
    44
283
     0
284
     8
340
11
  0
ENDTAB
  0
TABLE
  2
BLOCK_RECORD
  5
1
330
0
100
AcDbSymbolTable
 70
     2
  0
BLOCK_RECORD
  5
1F
330
1
100
AcDbSymbolTableRecord
100
AcDbBlockTableRecord
  2
*Model_Space
340
22
  0
BLOCK_RECORD
  5
1B
330
1
100
AcDbSymbolTableRecord
100
AcDbBlockTableRecord
  2
*Paper_Space
340
1E
  0
BLOCK_RECORD
  5
23
330
1
100
AcDbSymbolTableRecord
100
AcDbBlockTableRecord
  2
*Paper_Space0
340
26
  0
BLOCK_RECORD
  5
20F
330
1
100
AcDbSymbolTableRecord
100
AcDbBlockTableRecord
  2
SW_CENTERMARKSYMBOL_0
340
0
102
{BLKREFS
331
21A
102
}
  0
ENDTAB
  0
ENDSEC
  0
SECTION
  2
BLOCKS
  0
BLOCK
  5
20
330
1F
100
AcDbEntity
  8
0
100
AcDbBlockBegin
  2
*Model_Space
 70
     0
 10
0.0
 20
0.0
 30
0.0
  3
*Model_Space
  1

  0
ENDBLK
  5
21
330
1F
100
AcDbEntity
  8
0
100
AcDbBlockEnd
  0
BLOCK
  5
1C
330
1B
100
AcDbEntity
 67
     1
  8
0
100
AcDbBlockBegin
  2
*Paper_Space
 70
     0
 10
0.0
 20
0.0
 30
0.0
  3
*Paper_Space
  1

  0
ENDBLK
  5
1D
330
1B
100
AcDbEntity
 67
     1
  8
0
100
AcDbBlockEnd
  0
BLOCK
  5
24
330
23
100
AcDbEntity
  8
0
100
AcDbBlockBegin
  2
*Paper_Space0
 70
     0
 10
0.0
 20
0.0
 30
0.0
  3
*Paper_Space0
  1

  0
ENDBLK
  5
25
330
23
100
AcDbEntity
  8
0
100
AcDbBlockEnd
  0
BLOCK
  5
210
330
20F
100
AcDbEntity
  8
0
100
AcDbBlockBegin
  2
SW_CENTERMARKSYMBOL_0
 70
     0
 10
0.0
 20
0.0
 30
0.0
  3
SW_CENTERMARKSYMBOL_0
  1

  0
LINE
  5
212
330
20F
100
AcDbEntity
  8
0
  6
Continuous
 62
     0
370
     0
100
AcDbLine
 10
0.0
 20
0.0
 30
0.0
 11
0.0
 21
2.5
 31
0.0
  0
LINE
  5
213
330
20F
100
AcDbEntity
  8
0
  6
Continuous
 62
     0
370
     0
100
AcDbLine
 10
0.0
 20
0.0
 30
0.0
 11
-2.5
 21
0.0
 31
0.0
  0
LINE
  5
214
330
20F
100
AcDbEntity
  8
0
  6
Continuous
 62
     0
370
     0
100
AcDbLine
 10
0.0
 20
0.0
 30
0.0
 11
0.0
 21
-2.5
 31
0.0
  0
LINE
  5
215
330
20F
100
AcDbEntity
  8
0
  6
Continuous
 62
     0
370
     0
100
AcDbLine
 10
0.0
 20
0.0
 30
0.0
 11
2.5
 21
0.0
 31
0.0
  0
LINE
  5
216
330
20F
100
AcDbEntity
  8
0
  6
Continuous
 62
     0
370
     0
100
AcDbLine
 10
0.0
 20
5.0
 30
0.0
 11
0.0
 21
125.9891392263
 31
0.0
  0
LINE
  5
217
330
20F
100
AcDbEntity
  8
0
  6
Continuous
 62
     0
370
     0
100
AcDbLine
 10
-5.0
 20
0.0
 30
0.0
 11
-122.9722699449
 21
0.0
 31
0.0
  0
LINE
  5
218
330
20F
100
AcDbEntity
  8
0
  6
Continuous
 62
     0
370
     0
100
AcDbLine
 10
0.0
 20
-5.0
 30
0.0
 11
0.0
 21
-126.3798339708
 31
0.0
  0
LINE
  5
219
330
20F
100
AcDbEntity
  8
0
  6
Continuous
 62
     0
370
     0
100
AcDbLine
 10
5.0
 20
0.0
 30
0.0
 11
124.7518755246
 21
0.0
 31
0.0
  0
ENDBLK
  5
211
330
20F
100
AcDbEntity
  8
0
100
AcDbBlockEnd
  0
ENDSEC
  0
SECTION
  2
ENTITIES
  0
LINE
  5
46
330
1F
100
AcDbEntity
  8
0
  6
Continuous
 62
     7
370
    15
100
AcDbLine
 10
234.6012174948
 20
227.0406208128
 30
0.0
 11
234.6012174948
 21
239.0406199858
 31
0.0
  0
LINE
  5
47
330
1F
100
AcDbEntity
  8
0
  6
Continuous
 62
     7
370
    15
100
AcDbLine
 10
5.601215349
 20
239.0406199858
 30
0.0
 11
5.601215349
 21
227.0406208128
 31
0.0
  0
LINE
  5
48
330
1F
100
AcDbEntity
  8
0
  6
Continuous
 62
     7
370
    15
100
AcDbLine
 10
234.6012174948
 20
239.0406199858
 30
0.0
 11
196.468751119
 21
241.039059417
 31
0.0
  0
LINE
  5
49
330
1F
100
AcDbEntity
  8
0
  6
Continuous
 62
     7
370
    15
100
AcDbLine
 10
43.7195405229
 20
241.0383180842
 30
0.0
 11
5.601215349
 21
239.0406199858
 31
0.0
  0
LINE
  5
4A
330
1F
100
AcDbEntity
  8
0
  6
Continuous
 62
     7
370
    15
100
AcDbLine
 10
175.6474852427
 20
223.0406206228
 30
0.0
 11
175.6474852427
 21
227.0406208128
 31
0.0
  0
LINE
  5
4B
330
1F
100
AcDbEntity
  8
0
  6
Continuous
 62
     7
370
    15
100
AcDbLine
 10
64.5549476012
 20
227.0406208128
 30
0.0
 11
64.5549476012
 21
223.0406206228
 31
0.0
  0
LINE
  5
4C
330
1F
100
AcDbEntity
  8
0
  6
Continuous
 62
     7
370
    15
100
AcDbLine
 10
192.4635574086
 20
227.0406208128
 30
0.0
 11
192.4635574086
 21
234.0406210289
 31
0.0
  0
LINE
  5
4D
330
1F
100
AcDbEntity
  8
0
  6
Continuous
 62
     7
370
    15
100
AcDbLine
 10
47.7388754352
 20
234.0406210289
 30
0.0
 11
47.7388754352
 21
227.0406208128
 31
0.0
  0
ARC
  5
4E
330
1F
100
AcDbEntity
  8
0
  6
Continuous
 62
     7
370
    15
100
AcDbCircle
 10
187.0995839393
 20
249.9090242244
 30
0.0
 40
22.67267151925522
100
AcDbArc
 50
283.6849650677
 51
311.4212052824
  0
LINE
  5
4F
330
1F
100
AcDbEntity
  8
0
  6
Continuous
 62
     7
370
    15
100
AcDbLine
 10
202.0995870097
 20
232.9075525642
 30
0.0
 11
202.0995870097
 21
234.0363527775
 31
0.0
  0
ARC
  5
50
330
1F
100
AcDbEntity
  8
0
  6
Continuous
 62
     7
370
    15
100
AcDbCircle
 10
53.0887067689
 20
249.9090242244
 30
0.0
 40
22.67267151925522
100
AcDbArc
 50
228.5787947176
 51
256.3518146589
  0
LINE
  5
51
330
1F
100
AcDbEntity
  8
0
  6
Continuous
 62
     7
370
    15
100
AcDbLine
 10
38.0887046321
 20
234.0363527775
 30
0.0
 11
38.0887046321
 21
232.9075525642
 31
0.0
  0
LINE
  5
52
330
1F
100
AcDbEntity
  8
0
  6
Continuous
 62
     7
370
    15
100
AcDbLine
 10
40.6012192233
 20
223.0406206228
 30
0.0
 11
43.6012178524
 21
220.0406205967
 31
0.0
  0
LINE
  5
53
330
1F
100
AcDbEntity
  8
0
  6
Continuous
 62
     7
370
    15
100
AcDbLine
 10
196.6012149914
 20
220.0406205967
 30
0.0
 11
199.6012136205
 21
223.0406206228
 31
0.0
  0
LINE
  5
54
330
1F
100
AcDbEntity
  8
0
  6
Continuous
 62
     7
370
    15
100
AcDbLine
 10
199.0995809301
 20
350.3163469151
 30
0.0
 11
199.0995809301
 21
352.8163594321
 31
0.0
  0
LINE
  5
55
330
1F
100
AcDbEntity
  8
0
  6
Continuous
 62
     7
370
    15
100
AcDbLine
 10
175.0995844467
 20
352.8163594321
 30
0.0
 11
175.0995844467
 21
350.3163469151
 31
0.0
  0
LINE
  5
56
330
1F
100
AcDbEntity
  8
0
  6
Continuous
 62
     7
370
    15
100
AcDbLine
 10
65.0887071951
 20
350.3163469151
 30
0.0
 11
65.0887071951
 21
352.8163594321
 31
0.0
  0
LINE
  5
57
330
1F
100
AcDbEntity
  8
0
  6
Continuous
 62
     7
370
    15
100
AcDbLine
 10
41.0887032612
 20
352.8163594321
 30
0.0
 11
41.0887032612
 21
350.3163469151
 31
0.0
  0
LINE
  5
58
330
1F
100
AcDbEntity
  8
0
  6
Continuous
 62
     7
370
    15
100
AcDbLine
 10
195.0995802744
 20
367.0363587454
 30
0.0
 11
195.0995802744
 21
367.5363523081
 31
0.0
  0
LINE
  5
59
330
1F
100
AcDbEntity
  8
0
  6
Continuous
 62
     7
370
    15
100
AcDbLine
 10
179.0995851024
 20
367.5363523081
 30
0.0
 11
179.0995851024
 21
367.0363587454
 31
0.0
  0
ARC
  5
5A
330
1F
100
AcDbEntity
  8
0
  6
Continuous
 62
     7
370
    15
100
AcDbCircle
 10
192.1012164219
 20
317.2015209655
 30
0.0
 40
3.0
100
AcDbArc
 50
310.0
 51
0.0
  0
ARC
  5
5B
330
1F
100
AcDbEntity
  8
0
  6
Continuous
 62
     7
370
    15
100
AcDbCircle
 10
48.1012164219
 20
317.2015209655
 30
0.0
 40
3.0
100
AcDbArc
 50
180.0
 51
230.0
  0
LINE
  5
5C
330
1F
100
AcDbEntity
  8
0
  6
Continuous
 62
     7
370
    15
100
AcDbLine
 10
195.1012194022
 20
317.2015187457
 30
0.0
 11
195.1012194022
 21
318.0406180337
 31
0.0
  0
LINE
  5
5D
330
1F
100
AcDbEntity
  8
0
  6
Continuous
 62
     7
370
    15
100
AcDbLine
 10
45.1012134417
 20
318.0406180337
 30
0.0
 11
45.1012134417
 21
317.2015187457
 31
0.0
  0
ARC
  5
5E
330
1F
100
AcDbEntity
  8
0
  6
Continuous
 62
     7
370
    15
100
AcDbCircle
 10
193.1012164219
 20
318.0406205967
 30
0.0
 40
2.0
100
AcDbArc
 50
0.0
 51
90.0
  0
ARC
  5
5F
330
1F
100
AcDbEntity
  8
0
  6
Continuous
 62
     7
370
    15
100
AcDbCircle
 10
47.1012164219
 20
318.0406205967
 30
0.0
 40
2.0
100
AcDbArc
 50
90.3583774982
 51
180.0
  0
LINE
  5
60
330
1F
100
AcDbEntity
  8
0
  6
Continuous
 62
     7
370
    15
100
AcDbLine
 10
61.0887065395
 20
367.0363587454
 30
0.0
 11
61.0887065395
 21
367.5363523081
 31
0.0
  0
LINE
  5
61
330
1F
100
AcDbEntity
  8
0
  6
Continuous
 62
     7
370
    15
100
AcDbLine
 10
45.0887039169
 20
367.5363523081
 30
0.0
 11
45.0887039169
 21
367.0363587454
 31
0.0
  0
LINE
  5
62
330
1F
100
AcDbEntity
  8
0
  6
Continuous
 62
     7
370
    15
100
AcDbLine
 10
46.1728528007
 20
314.9033871606
 30
0.0
 11
47.08870797
 21
314.1348970249
 31
0.0
  0
LINE
  5
63
330
1F
100
AcDbEntity
  8
0
  6
Continuous
 62
     7
370
    15
100
AcDbLine
 10
193.0995836719
 20
314.1230282501
 30
0.0
 11
194.0295800432
 21
314.9033871606
 31
0.0
  0
LINE
  5
64
330
1F
100
AcDbEntity
  8
0
  6
Continuous
 62
     7
370
    15
100
AcDbLine
 10
193.5995846852
 20
367.5363523081
 30
0.0
 11
193.5995846852
 21
379.0363532618
 31
0.0
  0
LINE
  5
65
330
1F
100
AcDbEntity
  8
0
  6
Continuous
 62
     7
370
    15
100
AcDbLine
 10
180.5995844169
 20
379.0363532618
 30
0.0
 11
180.5995844169
 21
367.5363523081
 31
0.0
  0
LINE
  5
66
330
1F
100
AcDbEntity
  8
0
  6
Continuous
 62
     7
370
    15
100
AcDbLine
 10
59.5887072249
 20
367.5363523081
 30
0.0
 11
59.5887072249
 21
379.0363532618
 31
0.0
  0
LINE
  5
67
330
1F
100
AcDbEntity
  8
0
  6
Continuous
 62
     7
370
    15
100
AcDbLine
 10
46.5887069567
 20
379.0363532618
 30
0.0
 11
46.5887069567
 21
367.5363523081
 31
0.0
  0
LINE
  5
68
330
1F
100
AcDbEntity
  8
0
  6
Continuous
 62
     7
370
    15
100
AcDbLine
 10
193.0995836719
 20
362.8163498953
 30
0.0
 11
193.0995836719
 21
367.0363587454
 31
0.0
  0
LINE
  5
69
330
1F
100
AcDbEntity
  8
0
  6
Continuous
 62
     7
370
    15
100
AcDbLine
 10
181.0995854302
 20
367.0363587454
 30
0.0
 11
181.0995854302
 21
362.8163498953
 31
0.0
  0
LINE
  5
6A
330
1F
100
AcDbEntity
  8
0
  6
Continuous
 62
     7
370
    15
100
AcDbLine
 10
193.0995836719
 20
242.8363517985
 30
0.0
 11
193.0995836719
 21
345.3163516835
 31
0.0
  0
LINE
  5
6B
330
1F
100
AcDbEntity
  8
0
  6
Continuous
 62
     7
370
    15
100
AcDbLine
 10
181.0995854302
 20
333.86434737
 30
0.0
 11
181.0995854302
 21
242.8363517985
 31
0.0
  0
LINE
  5
6C
330
1F
100
AcDbEntity
  8
0
  6
Continuous
 62
     7
370
    15
100
AcDbLine
 10
59.0887062116
 20
242.8363517985
 30
0.0
 11
59.0887062116
 21
333.8872877076
 31
0.0
  0
LINE
  5
6D
330
1F
100
AcDbEntity
  8
0
  6
Continuous
 62
     7
370
    15
100
AcDbLine
 10
47.08870797
 20
345.3163516835
 30
0.0
 11
47.08870797
 21
242.8363517985
 31
0.0
  0
LINE
  5
6E
330
1F
100
AcDbEntity
  8
0
  6
Continuous
 62
     7
370
    15
100
AcDbLine
 10
59.0887062116
 20
362.8163498953
 30
0.0
 11
59.0887062116
 21
367.0363587454
 31
0.0
  0
LINE
  5
6F
330
1F
100
AcDbEntity
  8
0
  6
Continuous
 62
     7
370
    15
100
AcDbLine
 10
47.08870797
 20
367.0363587454
 30
0.0
 11
47.08870797
 21
362.8163498953
 31
0.0
  0
LINE
  5
70
330
1F
100
AcDbEntity
  8
0
  6
Continuous
 62
     7
370
    15
100
AcDbLine
 10
204.7316685184
 20
234.040609853
 30
0.0
 11
204.9926996096
 21
227.0406021863
 31
0.0
  0
LINE
  5
71
330
1F
100
AcDbEntity
  8
0
  6
Continuous
 62
     7
370
    15
100
AcDbLine
 10
35.2097183331
 20
227.0406119652
 30
0.0
 11
35.4707792266
 21
234.0406024024
 31
0.0
  0
LINE
  5
72
330
1F
100
AcDbEntity
  8
0
  6
Continuous
 62
     7
370
    15
100
AcDbLine
 10
227.3317083581
 20
223.0406206228
 30
0.0
 11
227.3317083581
 21
227.0406208128
 31
0.0
  0
LINE
  5
73
330
1F
100
AcDbEntity
  8
0
  6
Continuous
 62
     7
370
    15
100
AcDbLine
 10
12.8707244857
 20
227.0406208128
 30
0.0
 11
12.8707244857
 21
223.0406206228
 31
0.0
  0
ARC
  5
74
330
1F
100
AcDbEntity
  8
0
  6
Continuous
 62
     7
370
    15
100
AcDbCircle
 10
39.1806494195
 20
322.5406205967
 30
0.0
 40
2.499999999999997
100
AcDbArc
 50
183.0
 51
270.0
  0
ARC
  5
75
330
1F
100
AcDbEntity
  8
0
  6
Continuous
 62
     7
370
    15
100
AcDbCircle
 10
201.0217834244
 20
322.5406205967
 30
0.0
 40
2.500000000000018
100
AcDbArc
 50
270.0
 51
357.0
  0
LINE
  5
76
330
1F
100
AcDbEntity
  8
0
  6
Continuous
 62
     7
370
    15
100
AcDbLine
 10
35.6145009263
 20
342.8185519889
 30
0.0
 11
36.6840764745
 21
322.4097800568
 31
0.0
  0
LINE
  5
77
330
1F
100
AcDbEntity
  8
0
  6
Continuous
 62
     7
370
    15
100
AcDbLine
 10
203.5183563693
 20
322.4097800568
 30
0.0
 11
204.5879319175
 21
342.8185519889
 31
0.0
  0
LINE
  5
78
330
1F
100
AcDbEntity
  8
0
  6
Continuous
 62
     7
370
    15
100
AcDbLine
 10
36.4219277962
 20
343.11243269
 30
0.0
 11
35.6145009263
 21
342.8185519889
 31
0.0
  0
LINE
  5
79
330
1F
100
AcDbEntity
  8
0
  6
Continuous
 62
     7
370
    15
100
AcDbLine
 10
204.5879319175
 20
342.8185519889
 30
0.0
 11
203.7805050476
 21
343.11243269
 31
0.0
  0
LINE
  5
7A
330
1F
100
AcDbEntity
  8
0
  6
Continuous
 62
     7
370
    15
100
AcDbLine
 10
199.1137295826
 20
350.3163469151
 30
0.0
 11
199.1137295826
 21
352.8163594321
 31
0.0
  0
LINE
  5
7B
330
1F
100
AcDbEntity
  8
0
  6
Continuous
 62
     7
370
    15
100
AcDbLine
 10
195.113728927
 20
367.0363587454
 30
0.0
 11
195.113728927
 21
367.5363523081
 31
0.0
  0
LINE
  5
7C
330
1F
100
AcDbEntity
  8
0
  6
Continuous
 62
     7
370
    15
100
AcDbLine
 10
61.1028477414
 20
367.0363587454
 30
0.0
 11
61.1028477414
 21
367.5363523081
 31
0.0
  0
LINE
  5
7D
330
1F
100
AcDbEntity
  8
0
  6
Continuous
 62
     7
370
    15
100
AcDbLine
 10
193.6137258871
 20
367.5363523081
 30
0.0
 11
193.6137258871
 21
379.0363532618
 31
0.0
  0
LINE
  5
7E
330
1F
100
AcDbEntity
  8
0
  6
Continuous
 62
     7
370
    15
100
AcDbLine
 10
59.6028484269
 20
367.5363523081
 30
0.0
 11
59.6028484269
 21
379.0363532618
 31
0.0
  0
LINE
  5
7F
330
1F
100
AcDbEntity
  8
0
  6
Continuous
 62
     7
370
    15
100
AcDbLine
 10
193.1137248739
 20
242.8363517985
 30
0.0
 11
193.1137248739
 21
314.1348970249
 31
0.0
  0
LINE
  5
80
330
1F
100
AcDbEntity
  8
0
  6
Continuous
 62
     7
370
    15
100
AcDbLine
 10
193.1137248739
 20
320.0405848339
 30
0.0
 11
193.1137248739
 21
320.0406220868
 31
0.0
  0
LINE
  5
81
330
1F
100
AcDbEntity
  8
0
  6
Continuous
 62
     7
370
    15
100
AcDbLine
 10
193.1137248739
 20
362.8163498953
 30
0.0
 11
193.1137248739
 21
367.0363587454
 31
0.0
  0
LINE
  5
82
330
1F
100
AcDbEntity
  8
0
  6
Continuous
 62
     7
370
    15
100
AcDbLine
 10
59.1028474136
 20
362.8163498953
 30
0.0
 11
59.1028474136
 21
367.0363587454
 31
0.0
  0
LINE
  5
83
330
1F
100
AcDbEntity
  8
0
  6
Continuous
 62
     7
370
    15
100
AcDbLine
 10
234.6012174948
 20
227.0406208128
 30
0.0
 11
225.8854240044
 21
227.0406208128
 31
0.0
  0
LINE
  5
84
330
1F
100
AcDbEntity
  8
0
  6
Continuous
 62
     7
370
    15
100
AcDbLine
 10
225.8854240044
 20
227.0406208128
 30
0.0
 11
209.5952436193
 21
227.0406208128
 31
0.0
  0
LINE
  5
85
330
1F
100
AcDbEntity
  8
0
  6
Continuous
 62
     7
370
    15
100
AcDbLine
 10
209.5952436193
 20
234.0406210289
 30
0.0
 11
191.5229812129
 21
234.0406210289
 31
0.0
  0
LINE
  5
86
330
1F
100
AcDbEntity
  8
0
  6
Continuous
 62
     7
370
    15
100
AcDbLine
 10
191.5229812129
 20
227.0406208128
 30
0.0
 11
163.9184683426
 21
227.0406208128
 31
0.0
  0
LINE
  5
87
330
1F
100
AcDbEntity
  8
0
  6
Continuous
 62
     7
370
    15
100
AcDbLine
 10
76.2839645012
 20
227.0406208128
 30
0.0
 11
48.6794516309
 21
227.0406208128
 31
0.0
  0
LINE
  5
88
330
1F
100
AcDbEntity
  8
0
  6
Continuous
 62
     7
370
    15
100
AcDbLine
 10
48.6794516309
 20
234.0406210289
 30
0.0
 11
30.6071892246
 21
234.0406210289
 31
0.0
  0
LINE
  5
89
330
1F
100
AcDbEntity
  8
0
  6
Continuous
 62
     7
370
    15
100
AcDbLine
 10
30.6071892246
 20
227.0406208128
 30
0.0
 11
14.3170088394
 21
227.0406208128
 31
0.0
  0
LINE
  5
8A
330
1F
100
AcDbEntity
  8
0
  6
Continuous
 62
     7
370
    15
100
AcDbLine
 10
14.3170088394
 20
227.0406208128
 30
0.0
 11
5.601215349
 21
227.0406208128
 31
0.0
  0
LINE
  5
8B
330
1F
100
AcDbEntity
  8
0
  6
Continuous
 62
     7
370
    15
100
AcDbLine
 10
234.6012174948
 20
239.0406199858
 30
0.0
 11
5.601215349
 21
239.0406199858
 31
0.0
  0
LINE
  5
8C
330
1F
100
AcDbEntity
  8
0
  6
Continuous
 62
     7
370
    15
100
AcDbLine
 10
163.9184683426
 20
227.0406208128
 30
0.0
 11
76.2839645012
 21
227.0406208128
 31
0.0
  0
LINE
  5
8D
330
1F
100
AcDbEntity
  8
0
  6
Continuous
 62
     7
370
    15
100
AcDbLine
 10
177.7304179831
 20
241.3279612675
 30
0.0
 11
62.4578699334
 21
241.3279612675
 31
0.0
  0
SPLINE
  5
8E
330
1F
100
AcDbEntity
  8
0
  6
Continuous
 62
     7
370
    15
100
AcDbSpline
210
0.0
220
0.0
230
1.0
 70
     8
 71
     3
 72
     8
 73
     4
 74
     0
 42
0.00000001
 43
0.00000001
 12
1.0
 22
0.0
 32
0.0
 13
1.0
 23
0.0
 33
0.0
 40
0.0
 40
0.0
 40
0.0
 40
0.0
 40
1.0
 40
1.0
 40
1.0
 40
1.0
 10
43.71954191814956
 20
239.7165825697342
 30
0.0
 10
46.84259681334031
 20
239.7316983151379
 30
0.0
 10
49.96565176358021
 20
239.7317212913777
 30
0.0
 10
53.0887067688714
 20
239.7166509156695
 30
0.0
  0
LINE
  5
8F
330
1F
100
AcDbEntity
  8
0
  6
Continuous
 62
     7
370
    15
100
AcDbLine
 10
53.0887052282
 20
239.7166502789
 30
0.0
 11
62.4578699334
 21
240.4093605593
 31
0.0
  0
LINE
  5
90
330
1F
100
AcDbEntity
  8
0
  6
Continuous
 62
     7
370
    15
100
AcDbLine
 10
177.7304179831
 20
240.4092823282
 30
0.0
 11
187.0995864137
 21
239.7165832237
 31
0.0
  0
SPLINE
  5
91
330
1F
100
AcDbEntity
  8
0
  6
Continuous
 62
     7
370
    15
100
AcDbSpline
210
0.0
220
0.0
230
1.0
 70
     8
 71
     3
 72
     8
 73
     4
 74
     0
 42
0.00000001
 43
0.00000001
 12
1.0
 22
0.0
 32
0.0
 13
1.0
 23
0.0
 33
0.0
 40
0.0
 40
0.0
 40
0.0
 40
0.0
 40
1.0
 40
1.0
 40
1.0
 40
1.0
 10
187.0995839393452
 20
239.7165825697342
 30
0.0
 10
190.2226388345359
 20
239.7316983151379
 30
0.0
 10
193.3456937847758
 20
239.7317212913777
 30
0.0
 10
196.468748790067
 20
239.7166509156695
 30
0.0
  0
SPLINE
  5
92
330
1F
100
AcDbEntity
  8
0
  6
Continuous
 62
     7
370
    15
100
AcDbSpline
210
0.0
220
0.0
230
1.0
 70
     8
 71
     3
 72
    49
 73
    45
 74
     0
 42
0.00000001
 43
0.00000001
 12
1.0
 22
0.0
 32
0.0
 13
1.0
 23
0.0
 33
0.0
 40
0.0
 40
0.0
 40
0.0
 40
0.0
 40
0.0624999999999987
 40
0.0624999999999987
 40
0.1249999999999973
 40
0.1249999999999973
 40
0.187499999999996
 40
0.187499999999996
 40
0.2187499999999961
 40
0.2187499999999961
 40
0.2499999999999962
 40
0.2812499999999963
 40
0.2812499999999963
 40
0.3124999999999964
 40
0.3124999999999964
 40
0.3749999999999969
 40
0.3749999999999969
 40
0.4062499999999972
 40
0.4062499999999972
 40
0.4374999999999976
 40
0.4374999999999976
 40
0.4999999999999982
 40
0.4999999999999982
 40
0.5312499999999984
 40
0.5312499999999984
 40
0.5624999999999987
 40
0.5624999999999987
 40
0.6249999999999987
 40
0.6249999999999987
 40
0.6874999999999987
 40
0.6874999999999987
 40
0.7187499999999987
 40
0.7187499999999987
 40
0.7499999999999987
 40
0.7499999999999987
 40
0.8124999999999992
 40
0.8124999999999992
 40
0.8749999999999998
 40
0.8749999999999998
 40
0.9375000000000003
 40
0.9375000000000003
 40
0.9687500000000002
 40
0.9687500000000002
 40
1.0
 40
1.0
 40
1.0
 40
1.0
 10
93.83560119658237
 20
240.356116104158
 30
0.0
 10
94.04539913690334
 20
240.3849169396682
 30
0.0
 10
94.20319276561779
 20
240.4136495408945
 30
0.0
 10
94.41588461723215
 20
240.4709778778091
 30
0.0
 10
94.46975841136022
 20
240.4997547252307
 30
0.0
 10
94.46770424171768
 20
240.5546875831096
 30
0.0
 10
94.41353473562191
 20
240.5811356620945
 30
0.0
 10
94.25083207593187
 20
240.6191541372172
 30
0.0
 10
94.18267338067604
 20
240.6315541061492
 30
0.0
 10
94.02187386604656
 20
240.65522931809
 30
0.0
 10
93.83609199766174
 20
240.6779254546003
 30
0.0
 10
93.60115539282879
 20
240.6986527550433
 30
0.0
 10
93.34133549334295
 20
240.7183609777337
 30
0.0
 10
93.19825451721833
 20
240.7277456325689
 30
0.0
 10
92.7353830748705
 20
240.7539816592206
 30
0.0
 10
92.38625441474582
 20
240.768759209546
 30
0.0
 10
91.80352914215212
 20
240.7868545662308
 30
0.0
 10
91.59937757440663
 20
240.7922033793092
 30
0.0
 10
91.17068303809226
 20
240.8014791193667
 30
0.0
 10
90.94671617341649
 20
240.8053817524712
 30
0.0
 10
90.25890025667586
 20
240.8146868393448
 30
0.0
 10
89.77483894940852
 20
240.8178101506608
 30
0.0
 10
89.01039377111364
 20
240.8178348918486
 30
0.0
 10
88.74763128207726
 20
240.8170502178746
 30
0.0
 10
88.2173318068451
 20
240.8139104894918
 30
0.0
 10
87.95004114373351
 20
240.8115679249312
 30
0.0
 10
87.14191309792793
 20
240.8022936997881
 30
0.0
 10
86.5948800960276
 20
240.7931347828968
 30
0.0
 10
85.48367627342154
 20
240.7687749104801
 30
0.0
 10
84.93373549360082
 20
240.7538662142313
 30
0.0
 10
84.12627155618696
 20
240.7279307752227
 30
0.0
 10
83.8595221740415
 20
240.7186744436739
 30
0.0
 10
83.33092364023892
 20
240.6989391127187
 30
0.0
 10
83.06781322656268
 20
240.6884014760526
 30
0.0
 10
82.30139153554481
 20
240.6555796771927
 30
0.0
 10
81.81730921530583
 20
240.6319983404292
 30
0.0
 10
80.90197998244311
 20
240.5816548453081
 30
0.0
 10
80.4679389484322
 20
240.5546380006855
 30
0.0
 10
79.68936027301835
 20
240.499670785696
 30
0.0
 10
79.3403054240949
 20
240.471519375137
 30
0.0
 10
78.87803865205417
 20
240.4283233734938
 30
0.0
 10
78.73395979780085
 20
240.4137166113538
 30
0.0
 10
78.47275489718069
 20
240.3848021682278
 30
0.0
 10
78.35477521287886
 20
240.3704218315042
 30
0.0
 10
78.24918068626849
 20
240.356116104158
 30
0.0
  0
LINE
  5
93
330
1F
100
AcDbEntity
  8
0
  6
Continuous
 62
     7
370
    15
100
AcDbLine
 10
78.2491817935
 20
240.3561168477
 30
0.0
 11
75.7453098758
 21
240.0168006435
 31
0.0
  0
SPLINE
  5
94
330
1F
100
AcDbEntity
  8
0
  6
Continuous
 62
     7
370
    15
100
AcDbSpline
210
0.0
220
0.0
230
1.0
 70
     8
 71
     3
 72
    49
 73
    45
 74
     0
 42
0.00000001
 43
0.00000001
 12
1.0
 22
0.0
 32
0.0
 13
1.0
 23
0.0
 33
0.0
 40
0.0
 40
0.0
 40
0.0
 40
0.0
 40
0.0624999999999992
 40
0.0624999999999992
 40
0.1249999999999984
 40
0.1249999999999984
 40
0.1874999999999976
 40
0.1874999999999976
 40
0.2187499999999973
 40
0.2187499999999973
 40
0.2499999999999969
 40
0.2812499999999966
 40
0.2812499999999966
 40
0.3124999999999963
 40
0.3124999999999963
 40
0.3749999999999966
 40
0.3749999999999966
 40
0.4062499999999964
 40
0.4062499999999964
 40
0.4374999999999962
 40
0.4374999999999962
 40
0.4999999999999959
 40
0.4999999999999959
 40
0.5312499999999958
 40
0.5312499999999958
 40
0.5624999999999958
 40
0.5624999999999958
 40
0.6249999999999962
 40
0.6249999999999962
 40
0.6874999999999968
 40
0.6874999999999968
 40
0.7187499999999971
 40
0.7187499999999971
 40
0.7499999999999973
 40
0.7499999999999973
 40
0.8124999999999981
 40
0.8124999999999981
 40
0.8749999999999988
 40
0.8749999999999988
 40
0.9374999999999996
 40
0.9374999999999996
 40
0.9687499999999999
 40
0.9687499999999999
 40
1.0
 40
1.0
 40
1.0
 40
1.0
 10
75.74530922927617
 20
240.0168004452747
 30
0.0
 10
75.53152492569662
 20
239.9878214942001
 30
0.0
 10
75.37014349739447
 20
239.9594157196637
 30
0.0
 10
75.15105620585668
 20
239.9036874720889
 30
0.0
 10
75.09437481989565
 20
239.8762042471123
 30
0.0
 10
75.09189450826392
 20
239.8245694111142
 30
0.0
 10
75.14429277460363
 20
239.8001270203974
 30
0.0
 10
75.3051565681894
 20
239.7654799048304
 30
0.0
 10
75.37281497695952
 20
239.7542707660719
 30
0.0
 10
75.53287630115507
 20
239.7330115897819
 30
0.0
 10
75.71818812276527
 20
239.7127773555644
 30
0.0
 10
75.95320362283393
 20
239.6945282256261
 30
0.0
 10
76.21339565021704
 20
239.6772687660376
 30
0.0
 10
76.356872428235
 20
239.6690966652821
 30
0.0
 10
76.82077136859887
 20
239.6463846624451
 30
0.0
 10
77.1710760837961
 20
239.6337380798546
 30
0.0
 10
77.75637377105573
 20
239.6183317047449
 30
0.0
 10
77.96151873103763
 20
239.6137948020314
 30
0.0
 10
78.39250232654143
 20
239.6059444217495
 30
0.0
 10
78.61736549209658
 20
239.6026575902887
 30
0.0
 10
79.30842681718497
 20
239.5948250814783
 30
0.0
 10
79.79507627514637
 20
239.5922073747234
 30
0.0
 10
80.564143890469
 20
239.592187939524
 30
0.0
 10
80.8285836538974
 20
239.5928479425864
 30
0.0
 10
81.36150267504676
 20
239.5954844798793
 30
0.0
 10
81.63018531528576
 20
239.5974520533384
 30
0.0
 10
82.4427393132957
 20
239.6052612657809
 30
0.0
 10
82.9930530327361
 20
239.6129892044553
 30
0.0
 10
84.11156449054376
 20
239.6337493834634
 30
0.0
 10
84.66323916816629
 20
239.6464853355553
 30
0.0
 10
85.47503096303842
 20
239.6689494973132
 30
0.0
 10
85.74326426231904
 20
239.6770069866684
 30
0.0
 10
86.27490333935347
 20
239.694299788046
 30
0.0
 10
86.53929830175319
 20
239.7035785889037
 30
0.0
 10
87.30851764819292
 20
239.7326424640956
 30
0.0
 10
87.7945061918109
 20
239.7537818627277
 30
0.0
 10
88.71348363276242
 20
239.7996751555738
 30
0.0
 10
89.1485541565103
 20
239.8246379321625
 30
0.0
 10
89.9278847260085
 20
239.8762798262326
 30
0.0
 10
90.27716426222158
 20
239.9031672919891
 30
0.0
 10
90.73921373750919
 20
239.9452039636877
 30
0.0
 10
90.88272539063011
 20
239.9595101158228
 30
0.0
 10
91.14256826743505
 20
239.9880734399703
 30
0.0
 10
91.25981388419686
 20
240.0024091631769
 30
0.0
 10
91.3645880328284
 20
240.0168004452747
 30
0.0
  0
LINE
  5
95
330
1F
100
AcDbEntity
  8
0
  6
Continuous
 62
     7
370
    15
100
AcDbLine
 10
91.3645878299
 20
240.0168006435
 30
0.0
 11
93.8356008246
 21
240.3561168477
 31
0.0
  0
SPLINE
  5
96
330
1F
100
AcDbEntity
  8
0
  6
Continuous
 62
     7
370
    15
100
AcDbSpline
210
0.0
220
0.0
230
1.0
 70
     8
 71
     3
 72
    50
 73
    46
 74
     0
 42
0.00000001
 43
0.00000001
 12
1.0
 22
0.0
 32
0.0
 13
1.0
 23
0.0
 33
0.0
 40
0.0
 40
0.0
 40
0.0
 40
0.0
 40
0.0312500000000002
 40
0.0312500000000002
 40
0.0625000000000003
 40
0.0625000000000003
 40
0.1250000000000007
 40
0.1250000000000007
 40
0.1562500000000006
 40
0.1562500000000006
 40
0.1875000000000004
 40
0.1875000000000004
 40
0.2500000000000011
 40
0.2500000000000011
 40
0.2812500000000011
 40
0.2812500000000011
 40
0.3125000000000011
 40
0.3125000000000011
 40
0.3750000000000019
 40
0.3750000000000019
 40
0.4375000000000028
 40
0.4375000000000028
 40
0.4687500000000032
 40
0.4687500000000032
 40
0.5000000000000036
 40
0.5000000000000036
 40
0.5625000000000047
 40
0.5625000000000047
 40
0.6250000000000058
 40
0.6250000000000058
 40
0.6875000000000069
 40
0.6875000000000069
 40
0.7187500000000069
 40
0.7187500000000069
 40
0.7500000000000068
 40
0.7500000000000068
 40
0.8125000000000054
 40
0.8125000000000054
 40
0.8750000000000041
 40
0.8750000000000041
 40
0.9062500000000027
 40
0.9062500000000027
 40
0.9375000000000013
 40
0.9375000000000013
 40
1.0
 40
1.0
 40
1.0
 40
1.0
 10
161.9532521575686
 20
240.356116104158
 30
0.0
 10
161.8476771635934
 20
240.3704191852634
 30
0.0
 10
161.7298309127956
 20
240.3847819839607
 30
0.0
 10
161.4692827518542
 20
240.4136302193072
 30
0.0
 10
161.3257929410514
 20
240.4281877254762
 30
0.0
 10
160.8623502310704
 20
240.4715083935328
 30
0.0
 10
160.5129404626115
 20
240.4996774398107
 30
0.0
 10
159.9298655854562
 20
240.5408462037062
 30
0.0
 10
159.7256098782009
 20
240.5543866242276
 30
0.0
 10
159.296721205796
 20
240.5810777900923
 30
0.0
 10
159.0728780039719
 20
240.5941695496274
 30
0.0
 10
158.3852905660397
 20
240.6319931653351
 30
0.0
 10
157.901382584027
 20
240.6555584152147
 30
0.0
 10
157.1371053550921
 20
240.6882983311848
 30
0.0
 10
156.8743846848232
 20
240.698827886114
 30
0.0
 10
156.3443610481304
 20
240.7186241319995
 30
0.0
 10
156.0771899436899
 20
240.7278961816144
 30
0.0
 10
155.269360988021
 20
240.7538479977225
 30
0.0
 10
154.7224486317045
 20
240.7686811865227
 30
0.0
 10
153.6112930185998
 20
240.7930654896126
 30
0.0
 10
153.0613972643318
 20
240.8022790226694
 30
0.0
 10
152.2538736270997
 20
240.8115532131368
 30
0.0
 10
151.98709239457
 20
240.8138933265596
 30
0.0
 10
151.4584091948187
 20
240.8170341744257
 30
0.0
 10
151.1952356267984
 20
240.8178298739317
 30
0.0
 10
150.4286400874092
 20
240.8178203530724
 30
0.0
 10
149.9444843624034
 20
240.8146905994106
 30
0.0
 10
149.0291230969372
 20
240.8023253713435
 30
0.0
 10
148.5951299739145
 20
240.7929385996209
 30
0.0
 10
147.8169368350599
 20
240.7687921045824
 30
0.0
 10
147.4681875451766
 20
240.7540246990023
 30
0.0
 10
147.0065546761292
 20
240.7278909494113
 30
0.0
 10
146.8627560484248
 20
240.7184771498854
 30
0.0
 10
146.602181397621
 20
240.6987308737671
 30
0.0
 10
146.4845375058999
 20
240.6883567749474
 30
0.0
 10
146.168820607816
 20
240.6557932681523
 30
0.0
 10
146.0071696880964
 20
240.6320748189645
 30
0.0
 10
145.7890511809155
 20
240.5812350152864
 30
0.0
 10
145.7348710500743
 20
240.554760713143
 30
0.0
 10
145.7331231671888
 20
240.5136120402478
 30
0.0
 10
145.7458908595415
 20
240.4996539956003
 30
0.0
 10
145.798830186622
 20
240.471251718861
 30
0.0
 10
145.839170148315
 20
240.4568160361087
 30
0.0
 10
145.9988618118714
 20
240.4137083650338
 30
0.0
 10
146.1569298461012
 20
240.3849311975716
 30
0.0
 10
146.3668316472545
 20
240.356116104158
 30
0.0
  0
LINE
  5
97
330
1F
100
AcDbEntity
  8
0
  6
Continuous
 62
     7
370
    15
100
AcDbLine
 10
146.3668320193
 20
240.3561168477
 30
0.0
 11
148.8378450139
 21
240.0168006435
 31
0.0
  0
SPLINE
  5
98
330
1F
100
AcDbEntity
  8
0
  6
Continuous
 62
     7
370
    15
100
AcDbSpline
210
0.0
220
0.0
230
1.0
 70
     8
 71
     3
 72
    51
 73
    47
 74
     0
 42
0.00000001
 43
0.00000001
 12
1.0
 22
0.0
 32
0.0
 13
1.0
 23
0.0
 33
0.0
 40
0.0
 40
0.0
 40
0.0
 40
0.0
 40
0.0312499999999993
 40
0.0312499999999993
 40
0.0624999999999985
 40
0.0624999999999985
 40
0.1249999999999969
 40
0.1249999999999969
 40
0.1562499999999961
 40
0.1562499999999961
 40
0.1874999999999952
 40
0.1874999999999952
 40
0.2499999999999942
 40
0.2499999999999942
 40
0.2812499999999938
 40
0.2812499999999938
 40
0.3124999999999933
 40
0.3124999999999933
 40
0.3749999999999924
 40
0.3749999999999924
 40
0.4374999999999915
 40
0.4374999999999915
 40
0.468749999999991
 40
0.468749999999991
 40
0.4999999999999906
 40
0.4999999999999906
 40
0.5624999999999898
 40
0.5624999999999898
 40
0.6249999999999889
 40
0.6249999999999889
 40
0.6874999999999881
 40
0.6874999999999881
 40
0.7187499999999885
 40
0.7187499999999885
 40
0.7499999999999887
 40
0.7812499999999889
 40
0.7812499999999889
 40
0.8124999999999892
 40
0.8124999999999892
 40
0.8749999999999911
 40
0.8749999999999911
 40
0.906249999999993
 40
0.906249999999993
 40
0.9374999999999948
 40
0.9374999999999948
 40
1.0
 40
1.0
 40
1.0
 40
1.0
 10
148.8378448110084
 20
240.0168004452747
 30
0.0
 10
148.942612925059
 20
240.0024099920584
 30
0.0
 10
149.0597878564968
 20
239.9880838043441
 30
0.0
 10
149.319265326691
 20
239.9595567896902
 30
0.0
 10
149.4623466731592
 20
239.9452867515099
 30
0.0
 10
149.9251027680076
 20
239.9031755686724
 30
0.0
 10
150.2746018125496
 20
239.8762780605105
 30
0.0
 10
150.8586030767028
 20
239.837576863511
 30
0.0
 10
151.0633010513761
 20
239.8249524553598
 30
0.0
 10
151.4933539191391
 20
239.8002570818846
 30
0.0
 10
151.7178549619071
 20
239.7882451207955
 30
0.0
 10
152.4077651717874
 20
239.7537871152342
 30
0.0
 10
152.8936567567789
 20
239.7326563073109
 30
0.0
 10
153.6615846619211
 20
239.7036351164022
 30
0.0
 10
153.925650573741
 20
239.6943633216388
 30
0.0
 10
154.4581798647885
 20
239.6770367429803
 30
0.0
 10
154.7266787544065
 20
239.6689705171545
 30
0.0
 10
155.5387120546116
 20
239.6464966482032
 30
0.0
 10
156.0887191761577
 20
239.6337965319954
 30
0.0
 10
157.2066903765639
 20
239.6130318945267
 30
0.0
 10
157.7590641845153
 20
239.6052699572822
 30
0.0
 10
158.571255869153
 20
239.597460265542
 30
0.0
 10
158.8396271379341
 20
239.5954938115004
 30
0.0
 10
159.3715538577553
 20
239.5928564327809
 30
0.0
 10
159.636235426255
 20
239.5921906548277
 30
0.0
 10
160.4066360784927
 20
239.5922018480485
 30
0.0
 10
160.8933452993473
 20
239.594822646886
 30
0.0
 10
161.8136959566288
 20
239.6052438324072
 30
0.0
 10
162.2496852087606
 20
239.6131680153248
 30
0.0
 10
163.0308353447507
 20
239.6337190469706
 30
0.0
 10
163.3809049915969
 20
239.6463600238871
 30
0.0
 10
163.8440419687981
 20
239.669016162697
 30
0.0
 10
163.9879974274903
 20
239.6772053495151
 30
0.0
 10
164.2486496502543
 20
239.6944842602027
 30
0.0
 10
164.4838794507934
 20
239.7127438358615
 30
0.0
 10
164.6691236068294
 20
239.732963005332
 30
0.0
 10
164.8290765880907
 20
239.7541900105278
 30
0.0
 10
164.8966522639624
 20
239.7653640887441
 30
0.0
 10
165.0580449889461
 20
239.800069603826
 30
0.0
 10
165.1104507917425
 20
239.8245259413139
 30
0.0
 10
165.10872632773
 20
239.8632210762555
 30
0.0
 10
165.0946654043192
 20
239.8764567232382
 30
0.0
 10
165.0387897736113
 20
239.9036352802016
 30
0.0
 10
164.9969402665305
 20
239.91752252775
 30
0.0
 10
164.8325159724185
 20
239.959381336435
 30
0.0
 10
164.6709690799478
 20
239.9878132035772
 30
0.0
 10
164.4571236145608
 20
240.0168004452747
 30
0.0
  0
LINE
  5
99
330
1F
100
AcDbEntity
  8
0
  6
Continuous
 62
     7
370
    15
100
AcDbLine
 10
164.457122968
 20
240.0168006435
 30
0.0
 11
161.9532510503
 21
240.3561168477
 31
0.0
  0
SPLINE
  5
9A
330
1F
100
AcDbEntity
  8
0
  6
Continuous
 62
     7
370
    15
100
AcDbSpline
210
0.0
220
0.0
230
1.0
 70
     8
 71
     3
 72
    22
 73
    18
 74
     0
 42
0.00000001
 43
0.00000001
 12
1.0
 22
0.0
 32
0.0
 13
1.0
 23
0.0
 33
0.0
 40
0.0
 40
0.0
 40
0.0
 40
0.0
 40
0.0612355444455397
 40
0.1226260725374416
 40
0.1840170552193657
 40
0.2452518158054174
 40
0.3178022824769722
 40
0.3906127409468118
 40
0.4634224867408844
 40
0.5359726660820837
 40
0.6084957209349074
 40
0.6812782271463833
 40
0.7540610514677123
 40
0.8265828349403421
 40
0.8990202982855331
 40
0.9717168531222257
 40
1.0
 40
1.0
 40
1.0
 40
1.0
 10
205.5545478924089
 20
240.3561168477079
 30
0.0
 10
205.3679857626052
 20
240.3665737930247
 30
0.0
 10
204.9943893249611
 20
240.3875141495862
 30
0.0
 10
204.4159948898528
 20
240.4190378742877
 30
0.0
 10
203.8283930423072
 20
240.4504338639705
 30
0.0
 10
203.1968533400617
 20
240.4834456230222
 30
0.0
 10
202.5227100594026
 20
240.5178453101101
 30
0.0
 10
201.8096076025018
 20
240.5532737709217
 30
0.0
 10
201.100242824393
 20
240.5875426361912
 30
0.0
 10
200.4004915327758
 20
240.6203345901061
 30
0.0
 10
199.7149837869729
 20
240.6513663725098
 30
0.0
 10
199.0473937853978
 20
240.6804668855729
 30
0.0
 10
198.4031289250475
 20
240.7073561717928
 30
0.0
 10
197.7869705443899
 20
240.7318171296924
 30
0.0
 10
197.2068850516568
 20
240.753333668843
 30
0.0
 10
196.7658467063571
 20
240.7687757975652
 30
0.0
 10
196.5337566346834
 20
240.7759281766134
 30
0.0
 10
196.4687511189751
 20
240.7779314682028
 30
0.0
  0
SPLINE
  5
9B
330
1F
100
AcDbEntity
  8
0
  6
Continuous
 62
     7
370
    15
100
AcDbSpline
210
0.0
220
0.0
230
1.0
 70
     8
 71
     3
 72
    12
 73
     8
 74
     0
 42
0.00000001
 43
0.00000001
 12
1.0
 22
0.0
 32
0.0
 13
1.0
 23
0.0
 33
0.0
 40
0.0
 40
0.0
 40
0.0
 40
0.0
 40
0.1463984494807319
 40
0.3707434968969333
 40
0.5942900397768565
 40
0.7971457149352955
 40
1.0
 40
1.0
 40
1.0
 40
1.0
 10
196.4687511189752
 20
240.5207020357391
 30
0.0
 10
196.5797593530147
 20
240.512914375916
 30
0.0
 10
196.8608796860381
 20
240.493192690026
 30
0.0
 10
197.3566338001554
 20
240.4606776501595
 30
0.0
 10
197.9282627944299
 20
240.4247587485081
 30
0.0
 10
198.5094252738649
 20
240.389809034609
 30
0.0
 10
198.9021028672618
 20
240.3673475510215
 30
0.0
 10
199.09844099124
 20
240.3561168477079
 30
0.0
  0
LINE
  5
9C
330
1F
100
AcDbEntity
  8
0
  6
Continuous
 62
     7
370
    15
100
AcDbLine
 10
199.0984409912
 20
240.3561168477
 30
0.0
 11
205.0968512758
 21
240.0168006435
 31
0.0
  0
SPLINE
  5
9D
330
1F
100
AcDbEntity
  8
0
  6
Continuous
 62
     7
370
    15
100
AcDbSpline
210
0.0
220
0.0
230
1.0
 70
     8
 71
     3
 72
    49
 73
    45
 74
     0
 42
0.00000001
 43
0.00000001
 12
1.0
 22
0.0
 32
0.0
 13
1.0
 23
0.0
 33
0.0
 40
0.0
 40
0.0
 40
0.0
 40
0.0
 40
0.0624999999999998
 40
0.0624999999999998
 40
0.1249999999999995
 40
0.1249999999999995
 40
0.1874999999999993
 40
0.1874999999999993
 40
0.2187499999999993
 40
0.2187499999999993
 40
0.2499999999999992
 40
0.2812499999999992
 40
0.2812499999999992
 40
0.3124999999999992
 40
0.3124999999999992
 40
0.3750000000000008
 40
0.3750000000000008
 40
0.4062500000000013
 40
0.4062500000000013
 40
0.4375000000000019
 40
0.4375000000000019
 40
0.500000000000003
 40
0.500000000000003
 40
0.5312500000000032
 40
0.5312500000000032
 40
0.5625000000000034
 40
0.5625000000000034
 40
0.6250000000000032
 40
0.6250000000000032
 40
0.687500000000003
 40
0.687500000000003
 40
0.7187500000000029
 40
0.7187500000000029
 40
0.7500000000000027
 40
0.7500000000000027
 40
0.8125000000000019
 40
0.8125000000000019
 40
0.8750000000000011
 40
0.8750000000000011
 40
0.9375000000000006
 40
0.9375000000000006
 40
0.9687500000000003
 40
0.9687500000000003
 40
1.0
 40
1.0
 40
1.0
 40
1.0
 10
205.0968532192879
 20
240.0168004452747
 30
0.0
 10
205.6090055713411
 20
239.9878214942001
 30
0.0
 10
206.1361749528822
 20
239.9594157196637
 30
0.0
 10
207.2202211909487
 20
239.9036874720889
 30
0.0
 10
207.7810561589769
 20
239.8762042471123
 30
0.0
 10
208.885825674506
 20
239.8245694111142
 30
0.0
 10
209.4350921285029
 20
239.8001270203974
 30
0.0
 10
210.2542050068928
 20
239.7654799048304
 30
0.0
 10
210.5265104344903
 20
239.7542707660719
 30
0.0
 10
211.057454919006
 20
239.7330115897819
 30
0.0
 10
211.5778514456729
 20
239.7127773190347
 30
0.0
 10
212.0774836139853
 20
239.6945282256261
 30
0.0
 10
212.5665975107165
 20
239.6772687660376
 30
0.0
 10
212.8070500846513
 20
239.6690966652821
 30
0.0
 10
213.5032975108677
 20
239.6463846624451
 30
0.0
 10
213.9304656293803
 20
239.6337380798546
 30
0.0
 10
214.5172688341709
 20
239.6183317047449
 30
0.0
 10
214.7038132390232
 20
239.6137948020314
 30
0.0
 10
215.0582455314299
 20
239.6059444217495
 30
0.0
 10
215.225132197329
 20
239.6026575902887
 30
0.0
 10
215.6872092312351
 20
239.5948250814783
 30
0.0
 10
215.9476770906998
 20
239.5922073747234
 30
0.0
 10
216.2666722531097
 20
239.592187939524
 30
0.0
 10
216.3613664529124
 20
239.5928479425864
 30
0.0
 10
216.522857783928
 20
239.5954844798793
 30
0.0
 10
216.5899407558473
 20
239.5974520533384
 30
0.0
 10
216.7512048255109
 20
239.6052612657809
 30
0.0
 10
216.8057927630137
 20
239.6129892044553
 30
0.0
 10
216.8050532251046
 20
239.6337493834635
 30
0.0
 10
216.7495235885457
 20
239.6464853355554
 30
0.0
 10
216.5871794289529
 20
239.6689494973132
 30
0.0
 10
216.5197910865775
 20
239.6770069866684
 30
0.0
 10
216.3579102120029
 20
239.694299788046
 30
0.0
 10
216.2628758060304
 20
239.7035785889037
 30
0.0
 10
215.9426279484814
 20
239.7326424640956
 30
0.0
 10
215.6815547354525
 20
239.7537818627277
 30
0.0
 10
215.0654205444051
 20
239.7996751555738
 30
0.0
 10
214.7068096489618
 20
239.8246379321625
 30
0.0
 10
213.9236862465795
 20
239.8762798262326
 30
0.0
 10
213.4966679807163
 20
239.9031672919891
 30
0.0
 10
212.8018267089736
 20
239.9452039636877
 30
0.0
 10
212.5608987944349
 20
239.9595101158228
 30
0.0
 10
212.0713707213894
 20
239.9880734399703
 30
0.0
 10
211.8214883639463
 20
240.0024091631769
 30
0.0
 10
211.566570334206
 20
240.0168004452747
 30
0.0
  0
LINE
  5
9E
330
1F
100
AcDbEntity
  8
0
  6
Continuous
 62
     7
370
    15
100
AcDbLine
 10
211.5665703877
 20
240.0168006435
 30
0.0
 11
205.5545478924
 21
240.3561168477
 31
0.0
  0
SPLINE
  5
9F
330
1F
100
AcDbEntity
  8
0
  6
Continuous
 62
     7
370
    15
100
AcDbSpline
210
0.0
220
0.0
230
1.0
 70
     8
 71
     3
 72
    12
 73
     8
 74
     0
 42
0.00000001
 43
0.00000001
 12
1.0
 22
0.0
 32
0.0
 13
1.0
 23
0.0
 33
0.0
 40
0.0
 40
0.0
 40
0.0
 40
0.0
 40
0.232618247853197
 40
0.4652370534602403
 40
0.6904203812971239
 40
0.9164098934976781
 40
1.0
 40
1.0
 40
1.0
 40
1.0
 10
41.10399185259867
 20
240.3561168477079
 30
0.0
 10
41.32746565875857
 20
240.3689204467822
 30
0.0
 10
41.77441380690639
 20
240.3945276756303
 30
0.0
 10
42.4026898763044
 20
240.4326438279003
 30
0.0
 10
42.99013102963638
 20
240.470043919432
 30
0.0
 10
43.42833050535091
 20
240.4990495139601
 30
0.0
 10
43.6576276267031
 20
240.5153271365163
 30
0.0
 10
43.71954052289058
 20
240.5197222843906
 30
0.0
  0
SPLINE
  5
A0
330
1F
100
AcDbEntity
  8
0
  6
Continuous
 62
     7
370
    15
100
AcDbSpline
210
0.0
220
0.0
230
1.0
 70
     8
 71
     3
 72
    21
 73
    17
 74
     0
 42
0.00000001
 43
0.00000001
 12
1.0
 22
0.0
 32
0.0
 13
1.0
 23
0.0
 33
0.0
 40
0.0
 40
0.0
 40
0.0
 40
0.0
 40
0.0463276612643969
 40
0.1190112192147899
 40
0.1914368977821994
 40
0.2639236720627567
 40
0.3366693038060847
 40
0.4094147067477106
 40
0.4819025066619692
 40
0.5544901088464169
 40
0.6273365509488072
 40
0.7001831204800547
 40
0.7727707837617137
 40
0.8484649049791507
 40
0.9243057591726992
 40
1.0
 40
1.0
 40
1.0
 40
1.0
 10
43.71954052289057
 20
240.7774937465927
 30
0.0
 10
43.61117941404617
 20
240.7740658652196
 30
0.0
 10
43.33281035057378
 20
240.7652599740868
 30
0.0
 10
42.84026712750737
 20
240.7477138366452
 30
0.0
 10
42.25156937737934
 20
240.7254506481272
 30
0.0
 10
41.6291733043805
 20
240.7003818419096
 30
0.0
 10
40.97982639779195
 20
240.6729434232376
 30
0.0
 10
40.30856626344013
 20
240.6433732905941
 30
0.0
 10
39.62049759001041
 20
240.6119331489766
 30
0.0
 10
38.91932982029811
 20
240.5788078330605
 30
0.0
 10
38.20962761008939
 20
240.5442651806552
 30
0.0
 10
37.49751125624373
 20
240.5086355225244
 30
0.0
 10
36.77849771500563
 20
240.4717040091641
 30
0.0
 10
36.05831412651372
 20
240.4336976181471
 30
0.0
 10
35.34015314423508
 20
240.3948597437452
 30
0.0
 10
34.87849212680924
 20
240.3690228137974
 30
0.0
 10
34.64788495142984
 20
240.3561168477079
 30
0.0
  0
LINE
  5
A1
330
1F
100
AcDbEntity
  8
0
  6
Continuous
 62
     7
370
    15
100
AcDbLine
 10
34.6478849514
 20
240.3561168477
 30
0.0
 11
28.6358624562
 21
240.0168006435
 31
0.0
  0
SPLINE
  5
A2
330
1F
100
AcDbEntity
  8
0
  6
Continuous
 62
     7
370
    15
100
AcDbSpline
210
0.0
220
0.0
230
1.0
 70
     8
 71
     3
 72
    51
 73
    47
 74
     0
 42
0.00000001
 43
0.00000001
 12
1.0
 22
0.0
 32
0.0
 13
1.0
 23
0.0
 33
0.0
 40
0.0
 40
0.0
 40
0.0
 40
0.0
 40
0.0312499999999995
 40
0.0312499999999995
 40
0.062499999999999
 40
0.062499999999999
 40
0.1249999999999995
 40
0.1249999999999995
 40
0.1562499999999996
 40
0.1562499999999996
 40
0.1875
 40
0.1875
 40
0.2500000000000009
 40
0.2500000000000009
 40
0.2812500000000013
 40
0.2812500000000013
 40
0.3125000000000018
 40
0.3125000000000018
 40
0.3750000000000026
 40
0.3750000000000026
 40
0.4375000000000034
 40
0.4375000000000034
 40
0.4687500000000037
 40
0.4687500000000037
 40
0.5000000000000039
 40
0.5000000000000039
 40
0.5625000000000038
 40
0.5625000000000038
 40
0.6250000000000037
 40
0.6250000000000037
 40
0.6875000000000036
 40
0.6875000000000036
 40
0.7187500000000039
 40
0.7187500000000039
 40
0.7500000000000042
 40
0.7812500000000047
 40
0.7812500000000047
 40
0.812500000000005
 40
0.812500000000005
 40
0.8750000000000043
 40
0.8750000000000043
 40
0.9062500000000033
 40
0.9062500000000033
 40
0.9375000000000022
 40
0.9375000000000022
 40
1.0
 40
1.0
 40
1.0
 40
1.0
 10
28.63586250963251
 20
240.0168004452747
 30
0.0
 10
28.38095916217315
 20
240.0024099920584
 30
0.0
 10
28.1312453462952
 20
239.9880838043441
 30
0.0
 10
27.64232837772991
 20
239.9595567896902
 30
0.0
 10
27.40198675267079
 20
239.9452867515099
 30
0.0
 10
26.70587737875955
 20
239.9031755686724
 30
0.0
 10
26.27872906673233
 20
239.8762780605105
 30
0.0
 10
25.69183097625265
 20
239.837576863511
 30
0.0
 10
25.50523397010135
 20
239.8249524553598
 30
0.0
 10
25.15064839891032
 20
239.8002570818846
 30
0.0
 10
24.98357014594399
 20
239.7882451207955
 30
0.0
 10
24.52092820350196
 20
239.7537871152342
 30
0.0
 10
24.25999876096611
 20
239.7326563073109
 30
0.0
 10
23.94015930316211
 20
239.7036351164022
 30
0.0
 10
23.84514648734242
 20
239.6943633216388
 30
0.0
 10
23.68289136083869
 20
239.6770367429803
 30
0.0
 10
23.61541987788253
 20
239.6689705171545
 30
0.0
 10
23.45296194806669
 20
239.6464966482032
 30
0.0
 10
23.39754135990349
 20
239.6337965319954
 30
0.0
 10
23.39648223122256
 20
239.6130318945267
 30
0.0
 10
23.45116226772441
 20
239.6052699572822
 30
0.0
 10
23.61226577246178
 20
239.597460265542
 30
0.0
 10
23.67924498791159
 20
239.5954938115004
 30
0.0
 10
23.84030648184139
 20
239.5928564327809
 30
0.0
 10
23.93497103511531
 20
239.5921906548277
 30
0.0
 10
24.25433307028335
 20
239.5922018480485
 30
0.0
 10
24.51489498587102
 20
239.594822646886
 30
0.0
 10
25.13005991776417
 20
239.6052438324072
 30
0.0
 10
25.48840294363075
 20
239.6131680153248
 30
0.0
 10
26.27132681298731
 20
239.6337190469706
 30
0.0
 10
26.69827126817439
 20
239.6463600238871
 30
0.0
 10
27.3929689590338
 20
239.669016162697
 30
0.0
 10
27.63400157254521
 20
239.6772053495151
 30
0.0
 10
28.12373967869976
 20
239.6944842602027
 30
0.0
 10
28.62369389940075
 20
239.7127438358615
 30
0.0
 10
29.143733884253
 20
239.732963005332
 30
0.0
 10
29.67393601834203
 20
239.7541900105278
 30
0.0
 10
29.94544940073104
 20
239.7653640887441
 30
0.0
 10
30.76606351397981
 20
239.800069603826
 30
0.0
 10
31.3156331353263
 20
239.8245259413139
 30
0.0
 10
32.14361303287441
 20
239.8632210762555
 30
0.0
 10
32.42021497714498
 20
239.8764567232382
 30
0.0
 10
32.97467082779382
 20
239.9036352802016
 30
0.0
 10
33.25131279803931
 20
239.91752252775
 30
0.0
 10
34.0656356920778
 20
239.959381336435
 30
0.0
 10
34.59328075021746
 20
239.9878132035772
 30
0.0
 10
35.10557962455049
 20
240.0168004452747
 30
0.0
  0
LINE
  5
A3
330
1F
100
AcDbEntity
  8
0
  6
Continuous
 62
     7
370
    15
100
AcDbLine
 10
35.1055815681
 20
240.0168006435
 30
0.0
 11
41.1039918526
 21
240.3561168477
 31
0.0
  0
SPLINE
  5
A4
330
1F
100
AcDbEntity
  8
0
  6
Continuous
 62
     7
370
    15
100
AcDbSpline
210
0.0
220
0.0
230
1.0
 70
     8
 71
     3
 72
     8
 73
     4
 74
     0
 42
0.00000001
 43
0.00000001
 12
1.0
 22
0.0
 32
0.0
 13
1.0
 23
0.0
 33
0.0
 40
0.0000002003057535
 40
0.0000002003057535
 40
0.0000002003057535
 40
0.0000002003057535
 40
0.0040063543009631
 40
0.0040063543009631
 40
0.0040063543009631
 40
0.0040063543009631
 10
142.5726305473304
 20
223.0406205967209
 30
0.0
 10
142.5367207243073
 20
224.373966864562
 30
0.0
 10
142.5007043051966
 20
225.7073010471209
 30
0.0
 10
142.464560085724
 20
227.0406205967209
 30
0.0
  0
SPLINE
  5
A5
330
1F
100
AcDbEntity
  8
0
  6
Continuous
 62
     7
370
    15
100
AcDbSpline
210
0.0
220
0.0
230
1.0
 70
     8
 71
     3
 72
     8
 73
     4
 74
     0
 42
0.00000001
 43
0.00000001
 12
1.0
 22
0.0
 32
0.0
 13
1.0
 23
0.0
 33
0.0
 40
0.0000002003097672
 40
0.0000002003097672
 40
0.0000002003097672
 40
0.0000002003097672
 40
0.0040063543049768
 40
0.0040063543049768
 40
0.0040063543049768
 40
0.0040063543049768
 10
97.73787275811259
 20
227.0406205967209
 30
0.0
 10
97.70172853864004
 20
225.7073010471209
 30
0.0
 10
97.66571211952929
 20
224.373966864562
 30
0.0
 10
97.62980229650621
 20
223.0406205967209
 30
0.0
  0
LINE
  5
A6
330
1F
100
AcDbEntity
  8
0
  6
Continuous
 62
     7
370
    15
100
AcDbLine
 10
142.5726313009
 20
227.0406208128
 30
0.0
 11
142.5726313009
 21
223.0406206228
 31
0.0
  0
LINE
  5
A7
330
1F
100
AcDbEntity
  8
0
  6
Continuous
 62
     7
370
    15
100
AcDbLine
 10
175.6474852427
 20
223.0406206228
 30
0.0
 11
142.5726313009
 21
223.0406206228
 31
0.0
  0
LINE
  5
A8
330
1F
100
AcDbEntity
  8
0
  6
Continuous
 62
     7
370
    15
100
AcDbLine
 10
97.629801543
 20
227.0406208128
 30
0.0
 11
97.629801543
 21
223.0406206228
 31
0.0
  0
LINE
  5
A9
330
1F
100
AcDbEntity
  8
0
  6
Continuous
 62
     7
370
    15
100
AcDbLine
 10
97.629801543
 20
223.0406206228
 30
0.0
 11
64.5549476012
 21
223.0406206228
 31
0.0
  0
LINE
  5
AA
330
1F
100
AcDbEntity
  8
0
  6
Continuous
 62
     7
370
    15
100
AcDbLine
 10
139.093772681
 20
223.0406206228
 30
0.0
 11
142.5726313009
 21
223.0406206228
 31
0.0
  0
LINE
  5
AB
330
1F
100
AcDbEntity
  8
0
  6
Continuous
 62
     7
370
    15
100
AcDbLine
 10
101.1086601629
 20
223.0406206228
 30
0.0
 11
97.629801543
 21
223.0406206228
 31
0.0
  0
LINE
  5
AC
330
1F
100
AcDbEntity
  8
0
  6
Continuous
 62
     7
370
    15
100
AcDbLine
 10
134.9498566105
 20
223.0406206228
 30
0.0
 11
139.093772681
 21
223.0406206228
 31
0.0
  0
LINE
  5
AD
330
1F
100
AcDbEntity
  8
0
  6
Continuous
 62
     7
370
    15
100
AcDbLine
 10
105.2525762333
 20
223.0406206228
 30
0.0
 11
101.1086601629
 21
223.0406206228
 31
0.0
  0
LINE
  5
AE
330
1F
100
AcDbEntity
  8
0
  6
Continuous
 62
     7
370
    15
100
AcDbLine
 10
77.7050770684
 20
345.3163516835
 30
0.0
 11
57.6905302568
 21
345.3163516835
 31
0.0
  0
LINE
  5
AF
330
1F
100
AcDbEntity
  8
0
  6
Continuous
 62
     7
370
    15
100
AcDbLine
 10
51.6886368259
 20
345.3163516835
 30
0.0
 11
57.6905302568
 21
345.3163516835
 31
0.0
  0
LINE
  5
B0
330
1F
100
AcDbEntity
  8
0
  6
Continuous
 62
     7
370
    15
100
AcDbLine
 10
51.6886368259
 20
350.3163469151
 30
0.0
 11
51.6886368259
 21
345.3163516835
 31
0.0
  0
LINE
  5
B1
330
1F
100
AcDbEntity
  8
0
  6
Continuous
 62
     7
370
    15
100
AcDbLine
 10
86.1379980906
 20
350.3163469151
 30
0.0
 11
51.6886368259
 21
350.3163469151
 31
0.0
  0
LINE
  5
B2
330
1F
100
AcDbEntity
  8
0
  6
Continuous
 62
     7
370
    15
100
AcDbLine
 10
86.1379980906
 20
350.3163469151
 30
0.0
 11
86.1379980906
 21
349.5471638754
 31
0.0
  0
SPLINE
  5
B3
330
1F
100
AcDbEntity
  8
0
  6
Continuous
 62
     7
370
    15
100
AcDbSpline
210
0.0
220
0.0
230
1.0
 70
     8
 71
     3
 72
     8
 73
     4
 74
     0
 42
0.00000001
 43
0.00000001
 12
1.0
 22
0.0
 32
0.0
 13
1.0
 23
0.0
 33
0.0
 40
0.0
 40
0.0
 40
0.0
 40
0.0
 40
1.0
 40
1.0
 40
1.0
 40
1.0
 10
86.13799923021773
 20
349.5471671531619
 30
0.0
 10
83.32555885149029
 20
348.1426980701001
 30
0.0
 10
80.51480506106017
 20
346.7315529326885
 30
0.0
 10
77.70507571819304
 20
345.3163527051167
 30
0.0
  0
LINE
  5
B4
330
1F
100
AcDbEntity
  8
0
  6
Continuous
 62
     7
370
    15
100
AcDbLine
 10
29.0612161024
 20
350.3163469151
 30
0.0
 11
29.0612161024
 21
345.3163516835
 31
0.0
  0
LINE
  5
B5
330
1F
100
AcDbEntity
  8
0
  6
Continuous
 62
     7
370
    15
100
AcDbLine
 10
51.6886368259
 20
350.3163469151
 30
0.0
 11
29.0612161024
 21
350.3163469151
 31
0.0
  0
LINE
  5
B6
330
1F
100
AcDbEntity
  8
0
  6
Continuous
 62
     7
370
    15
100
AcDbLine
 10
51.6886368259
 20
345.3163516835
 30
0.0
 11
29.0612161024
 21
345.3163516835
 31
0.0
  0
LINE
  5
B7
330
1F
100
AcDbEntity
  8
0
  6
Continuous
 62
     7
370
    15
100
AcDbLine
 10
188.513796018
 20
350.3163469151
 30
0.0
 11
188.513796018
 21
345.3163516835
 31
0.0
  0
LINE
  5
B8
330
1F
100
AcDbEntity
  8
0
  6
Continuous
 62
     7
370
    15
100
AcDbLine
 10
211.1412167414
 20
350.3163469151
 30
0.0
 11
188.513796018
 21
350.3163469151
 31
0.0
  0
LINE
  5
B9
330
1F
100
AcDbEntity
  8
0
  6
Continuous
 62
     7
370
    15
100
AcDbLine
 10
211.1412167414
 20
350.3163469151
 30
0.0
 11
211.1412167414
 21
345.3163516835
 31
0.0
  0
LINE
  5
BA
330
1F
100
AcDbEntity
  8
0
  6
Continuous
 62
     7
370
    15
100
AcDbLine
 10
211.1412167414
 20
345.3163516835
 30
0.0
 11
188.513796018
 21
345.3163516835
 31
0.0
  0
LINE
  5
BB
330
1F
100
AcDbEntity
  8
0
  6
Continuous
 62
     7
370
    15
100
AcDbLine
 10
188.513796018
 20
350.3163469151
 30
0.0
 11
154.0644347533
 21
350.3163469151
 31
0.0
  0
LINE
  5
BC
330
1F
100
AcDbEntity
  8
0
  6
Continuous
 62
     7
370
    15
100
AcDbLine
 10
182.511902587
 20
345.3163516835
 30
0.0
 11
162.4973557754
 21
345.3163516835
 31
0.0
  0
SPLINE
  5
BD
330
1F
100
AcDbEntity
  8
0
  6
Continuous
 62
     7
370
    15
100
AcDbSpline
210
0.0
220
0.0
230
1.0
 70
     8
 71
     3
 72
     8
 73
     4
 74
     0
 42
0.00000001
 43
0.00000001
 12
1.0
 22
0.0
 32
0.0
 13
1.0
 23
0.0
 33
0.0
 40
0.0
 40
0.0
 40
0.0
 40
0.0
 40
1.0
 40
1.0
 40
1.0
 40
1.0
 10
154.0644336136218
 20
349.5471671531619
 30
0.0
 10
156.8768739923492
 20
348.1426980701001
 30
0.0
 10
159.6876277827794
 20
346.7315529326885
 30
0.0
 10
162.4973571256465
 20
345.3163527051167
 30
0.0
  0
LINE
  5
BE
330
1F
100
AcDbEntity
  8
0
  6
Continuous
 62
     7
370
    15
100
AcDbLine
 10
154.0644347533
 20
350.3163469151
 30
0.0
 11
154.0644347533
 21
349.5471638754
 31
0.0
  0
LINE
  5
BF
330
1F
100
AcDbEntity
  8
0
  6
Continuous
 62
     7
370
    15
100
AcDbLine
 10
188.513796018
 20
345.3163516835
 30
0.0
 11
182.511902587
 21
345.3163516835
 31
0.0
  0
LINE
  5
C0
330
1F
100
AcDbEntity
  8
0
  6
Continuous
 62
     7
370
    15
100
AcDbLine
 10
192.4635574086
 20
227.0406208128
 30
0.0
 11
191.5229812129
 21
227.0406208128
 31
0.0
  0
LINE
  5
C1
330
1F
100
AcDbEntity
  8
0
  6
Continuous
 62
     7
370
    15
100
AcDbLine
 10
48.6794516309
 20
227.0406208128
 30
0.0
 11
47.7388754352
 21
227.0406208128
 31
0.0
  0
LINE
  5
C2
330
1F
100
AcDbEntity
  8
0
  6
Continuous
 62
     7
370
    15
100
AcDbLine
 10
175.8383467658
 20
227.0406208128
 30
0.0
 11
175.6474852427
 21
223.4649849717
 31
0.0
  0
LINE
  5
C3
330
1F
100
AcDbEntity
  8
0
  6
Continuous
 62
     7
370
    15
100
AcDbLine
 10
64.5549476012
 20
223.4649849717
 30
0.0
 11
64.364086078
 21
227.0406208128
 31
0.0
  0
LINE
  5
C4
330
1F
100
AcDbEntity
  8
0
  6
Continuous
 62
     7
370
    15
100
AcDbLine
 10
125.0842629797
 20
223.0406206228
 30
0.0
 11
134.9498566105
 21
223.0406206228
 31
0.0
  0
LINE
  5
C5
330
1F
100
AcDbEntity
  8
0
  6
Continuous
 62
     7
370
    15
100
AcDbLine
 10
115.1181698642
 20
223.0406206228
 30
0.0
 11
105.2525762333
 21
223.0406206228
 31
0.0
  0
LINE
  5
C6
330
1F
100
AcDbEntity
  8
0
  6
Continuous
 62
     7
370
    15
100
AcDbLine
 10
57.6905302568
 20
345.3163516835
 30
0.0
 11
71.4007906481
 21
320.0406220868
 31
0.0
  0
SPLINE
  5
C7
330
1F
100
AcDbEntity
  8
0
  6
Continuous
 62
     7
370
    15
100
AcDbSpline
210
0.0
220
0.0
230
1.0
 70
     8
 71
     3
 72
     8
 73
     4
 74
     0
 42
0.00000001
 43
0.00000001
 12
1.0
 22
0.0
 32
0.0
 13
1.0
 23
0.0
 33
0.0
 40
0.0000005961072614
 40
0.0000005961072614
 40
0.0000005961072614
 40
0.0000005961072614
 40
0.0074583428403484
 40
0.0074583428403484
 40
0.0074583428403484
 40
0.0074583428403484
 10
72.64452292075745
 20
342.8185516345456
 30
0.0
 10
74.33106189959572
 20
343.6526011233175
 30
0.0
 10
76.01788595056388
 20
344.4853301380704
 30
0.0
 10
77.70507571819304
 20
345.3163527051167
 30
0.0
  0
SPLINE
  5
C8
330
1F
100
AcDbEntity
  8
0
  6
Continuous
 62
     7
370
    15
100
AcDbSpline
210
0.0
220
0.0
230
1.0
 70
     8
 71
     3
 72
     8
 73
     4
 74
     0
 42
0.00000001
 43
0.00000001
 12
1.0
 22
0.0
 32
0.0
 13
1.0
 23
0.0
 33
0.0
 40
0.0000002004659946
 40
0.0000002004659946
 40
0.0000002004659946
 40
0.0000002004659946
 40
0.0204563139527376
 40
0.0204563139527376
 40
0.0204563139527376
 40
0.0204563139527376
 10
72.51696568465083
 20
322.4097807061135
 30
0.0
 10
72.55834930759615
 20
329.2126345492617
 30
0.0
 10
72.6008805324611
 20
336.0155593088505
 30
0.0
 10
72.64452292075745
 20
342.8185516345456
 30
0.0
  0
SPLINE
  5
C9
330
1F
100
AcDbEntity
  8
0
  6
Continuous
 62
     7
370
    15
100
AcDbSpline
210
0.0
220
0.0
230
1.0
 70
     8
 71
     3
 72
    20
 73
    16
 74
     0
 42
0.00000001
 43
0.00000001
 12
1.0
 22
0.0
 32
0.0
 13
1.0
 23
0.0
 33
0.0
 40
0.0
 40
0.0
 40
0.0
 40
0.0
 40
0.2500000000000027
 40
0.2500000000000027
 40
0.3750000000000022
 40
0.3750000000000022
 40
0.5000000000000018
 40
0.5000000000000018
 40
0.6250000000000013
 40
0.6250000000000013
 40
0.7500000000000009
 40
0.7500000000000009
 40
0.8750000000000004
 40
0.8750000000000004
 40
1.0
 40
1.0
 40
1.0
 40
1.0
 10
74.20760939295302
 20
320.0406205967209
 30
0.0
 10
73.98370250850178
 20
320.0406205967209
 30
0.0
 10
73.75922539744856
 20
320.1004130171555
 30
0.0
 10
73.45267832827412
 20
320.2730778737993
 30
0.0
 10
73.35351706961119
 20
320.3454171529694
 30
0.0
 10
73.16892184998028
 20
320.5151155943603
 30
0.0
 10
73.08382774377952
 20
320.6117024650086
 30
0.0
 10
72.92796377712767
 20
320.8282166516553
 30
0.0
 10
72.85670856909064
 20
320.9495373959443
 30
0.0
 10
72.73465448752947
 20
321.2067555183568
 30
0.0
 10
72.68313552165651
 20
321.3432433765142
 30
0.0
 10
72.5993702247553
 20
321.6321892211809
 30
0.0
 10
72.56748661840945
 20
321.7845444009654
 30
0.0
 10
72.52605928393706
 20
322.0923891577394
 30
0.0
 10
72.51599037634591
 20
322.249454485785
 30
0.0
 10
72.51696568465084
 20
322.4097807061135
 30
0.0
  0
LINE
  5
CA
330
1F
100
AcDbEntity
  8
0
  6
Continuous
 62
     7
370
    15
100
AcDbLine
 10
74.2076106234
 20
320.0406220868
 30
0.0
 11
71.4007906481
 21
320.0406220868
 31
0.0
  0
LINE
  5
CB
330
1F
100
AcDbEntity
  8
0
  6
Continuous
 62
     7
370
    15
100
AcDbLine
 10
71.4007906481
 20
320.0406220868
 30
0.0
 11
67.6257826253
 21
320.0406220868
 31
0.0
  0
LINE
  5
CC
330
1F
100
AcDbEntity
  8
0
  6
Continuous
 62
     7
370
    15
100
AcDbLine
 10
52.0421892269
 20
345.3163516835
 30
0.0
 11
67.6257826253
 21
320.0406220868
 31
0.0
  0
SPLINE
  5
CD
330
1F
100
AcDbEntity
  8
0
  6
Continuous
 62
     7
370
    15
100
AcDbSpline
210
0.0
220
0.0
230
1.0
 70
     8
 71
     3
 72
     8
 73
     4
 74
     0
 42
0.00000001
 43
0.00000001
 12
1.0
 22
0.0
 32
0.0
 13
1.0
 23
0.0
 33
0.0
 40
0.0000002004659946
 40
0.0000002004659946
 40
0.0000002004659946
 40
0.0000002004659946
 40
0.0204563139527376
 40
0.0204563139527376
 40
0.0204563139527376
 40
0.0204563139527376
 10
167.6854671591888
 20
322.4097807061135
 30
0.0
 10
167.6440835362435
 20
329.2126345492617
 30
0.0
 10
167.6015523113786
 20
336.0155593088505
 30
0.0
 10
167.5579099230822
 20
342.8185516345456
 30
0.0
  0
SPLINE
  5
CE
330
1F
100
AcDbEntity
  8
0
  6
Continuous
 62
     7
370
    15
100
AcDbSpline
210
0.0
220
0.0
230
1.0
 70
     8
 71
     3
 72
     8
 73
     4
 74
     0
 42
0.00000001
 43
0.00000001
 12
1.0
 22
0.0
 32
0.0
 13
1.0
 23
0.0
 33
0.0
 40
0.0000005961072614
 40
0.0000005961072614
 40
0.0000005961072614
 40
0.0000005961072614
 40
0.0074583428403484
 40
0.0074583428403484
 40
0.0074583428403484
 40
0.0074583428403484
 10
167.5579099230822
 20
342.8185516345456
 30
0.0
 10
165.8713709442439
 20
343.6526011233175
 30
0.0
 10
164.1845468932758
 20
344.4853301380704
 30
0.0
 10
162.4973571256465
 20
345.3163527051167
 30
0.0
  0
LINE
  5
CF
330
1F
100
AcDbEntity
  8
0
  6
Continuous
 62
     7
370
    15
100
AcDbLine
 10
168.8016421958
 20
320.0406220868
 30
0.0
 11
182.511902587
 21
345.3163516835
 31
0.0
  0
LINE
  5
D0
330
1F
100
AcDbEntity
  8
0
  6
Continuous
 62
     7
370
    15
100
AcDbLine
 10
168.8016421958
 20
320.0406220868
 30
0.0
 11
165.9948222204
 21
320.0406220868
 31
0.0
  0
SPLINE
  5
D1
330
1F
100
AcDbEntity
  8
0
  6
Continuous
 62
     7
370
    15
100
AcDbSpline
210
0.0
220
0.0
230
1.0
 70
     8
 71
     3
 72
    20
 73
    16
 74
     0
 42
0.00000001
 43
0.00000001
 12
1.0
 22
0.0
 32
0.0
 13
1.0
 23
0.0
 33
0.0
 40
0.0
 40
0.0
 40
0.0
 40
0.0
 40
0.2500000000000027
 40
0.2500000000000027
 40
0.3750000000000022
 40
0.3750000000000022
 40
0.5000000000000018
 40
0.5000000000000018
 40
0.6250000000000013
 40
0.6250000000000013
 40
0.7500000000000009
 40
0.7500000000000009
 40
0.8750000000000004
 40
0.8750000000000004
 40
1.0
 40
1.0
 40
1.0
 40
1.0
 10
165.9948234508867
 20
320.0406205967209
 30
0.0
 10
166.2187303353379
 20
320.0406205967209
 30
0.0
 10
166.4432074463911
 20
320.1004130171555
 30
0.0
 10
166.7497545155655
 20
320.2730778737993
 30
0.0
 10
166.8489157742285
 20
320.3454171529694
 30
0.0
 10
167.0335109938594
 20
320.5151155943603
 30
0.0
 10
167.1186051000601
 20
320.6117024650086
 30
0.0
 10
167.274469066712
 20
320.8282166516553
 30
0.0
 10
167.345724274749
 20
320.9495373959443
 30
0.0
 10
167.4677783563102
 20
321.2067555183568
 30
0.0
 10
167.5192973221831
 20
321.3432433765142
 30
0.0
 10
167.6030626190844
 20
321.6321892211809
 30
0.0
 10
167.6349462254302
 20
321.7845444009654
 30
0.0
 10
167.6763735599026
 20
322.0923891577393
 30
0.0
 10
167.6864424674938
 20
322.249454485785
 30
0.0
 10
167.6854671591888
 20
322.4097807061135
 30
0.0
  0
LINE
  5
D2
330
1F
100
AcDbEntity
  8
0
  6
Continuous
 62
     7
370
    15
100
AcDbLine
 10
172.5766502186
 20
320.0406220868
 30
0.0
 11
188.1602436169
 21
345.3163516835
 31
0.0
  0
LINE
  5
D3
330
1F
100
AcDbEntity
  8
0
  6
Continuous
 62
     7
370
    15
100
AcDbLine
 10
172.5766502186
 20
320.0406220868
 30
0.0
 11
168.8016421958
 21
320.0406220868
 31
0.0
  0
LINE
  5
D4
330
1F
100
AcDbEntity
  8
0
  6
Continuous
 62
     7
370
    15
100
AcDbLine
 10
72.6445235177
 20
342.8185519889
 30
0.0
 11
167.5579093262
 21
342.8185519889
 31
0.0
  0
LINE
  5
D5
330
1F
100
AcDbEntity
  8
0
  6
Continuous
 62
     7
370
    15
100
AcDbLine
 10
86.1379980906
 20
349.5471638754
 30
0.0
 11
154.0644347533
 21
349.5471638754
 31
0.0
  0
LINE
  5
D6
330
1F
100
AcDbEntity
  8
0
  6
Continuous
 62
     7
370
    15
100
AcDbLine
 10
74.2076106234
 20
320.0406220868
 30
0.0
 11
165.9948222204
 21
320.0406220868
 31
0.0
  0
LINE
  5
D7
330
1F
100
AcDbEntity
  8
0
  6
Continuous
 62
     7
370
    15
100
AcDbLine
 10
202.0995870097
 20
232.9075525642
 30
0.0
 11
192.4635574086
 21
232.9075525642
 31
0.0
  0
LINE
  5
D8
330
1F
100
AcDbEntity
  8
0
  6
Continuous
 62
     7
370
    15
100
AcDbLine
 10
202.0995870097
 20
234.0363527775
 30
0.0
 11
192.4635574086
 21
234.0363527775
 31
0.0
  0
LINE
  5
D9
330
1F
100
AcDbEntity
  8
0
  6
Continuous
 62
     7
370
    15
100
AcDbLine
 10
47.7388754352
 20
232.9075525642
 30
0.0
 11
38.0887046321
 21
232.9075525642
 31
0.0
  0
LINE
  5
DA
330
1F
100
AcDbEntity
  8
0
  6
Continuous
 62
     7
370
    15
100
AcDbLine
 10
47.7388754352
 20
234.0363527775
 30
0.0
 11
38.0887046321
 21
234.0363527775
 31
0.0
  0
LINE
  5
DB
330
1F
100
AcDbEntity
  8
0
  6
Continuous
 62
     7
370
    15
100
AcDbLine
 10
125.0842629797
 20
223.0406206228
 30
0.0
 11
115.1181698642
 21
223.0406206228
 31
0.0
  0
LINE
  5
DC
330
1F
100
AcDbEntity
  8
0
  6
Continuous
 62
     7
370
    15
100
AcDbLine
 10
64.5549476012
 20
223.0406206228
 30
0.0
 11
60.4732178016
 21
223.0406206228
 31
0.0
  0
LINE
  5
DD
330
1F
100
AcDbEntity
  8
0
  6
Continuous
 62
     7
370
    15
100
AcDbLine
 10
179.7292150422
 20
223.0406206228
 30
0.0
 11
175.6474852427
 21
223.0406206228
 31
0.0
  0
LINE
  5
DE
330
1F
100
AcDbEntity
  8
0
  6
Continuous
 62
     7
370
    15
100
AcDbLine
 10
196.6012149914
 20
220.0406205967
 30
0.0
 11
43.6012178524
 21
220.0406205967
 31
0.0
  0
LINE
  5
DF
330
1F
100
AcDbEntity
  8
0
  6
Continuous
 62
     7
370
    15
100
AcDbLine
 10
199.0995809301
 20
352.8163594321
 30
0.0
 11
175.0995844467
 21
352.8163594321
 31
0.0
  0
LINE
  5
E0
330
1F
100
AcDbEntity
  8
0
  6
Continuous
 62
     7
370
    15
100
AcDbLine
 10
65.0887071951
 20
352.8163594321
 30
0.0
 11
41.0887032612
 21
352.8163594321
 31
0.0
  0
LINE
  5
E1
330
1F
100
AcDbEntity
  8
0
  6
Continuous
 62
     7
370
    15
100
AcDbLine
 10
176.5037096902
 20
362.8163498953
 30
0.0
 11
176.5037096902
 21
352.8163594321
 31
0.0
  0
LINE
  5
E2
330
1F
100
AcDbEntity
  8
0
  6
Continuous
 62
     7
370
    15
100
AcDbLine
 10
184.2604309185
 20
362.8163498953
 30
0.0
 11
184.2604309185
 21
352.8163594321
 31
0.0
  0
LINE
  5
E3
330
1F
100
AcDbEntity
  8
0
  6
Continuous
 62
     7
370
    15
100
AcDbLine
 10
176.5037096902
 20
362.8163498953
 30
0.0
 11
184.2604309185
 21
362.8163498953
 31
0.0
  0
LINE
  5
E4
330
1F
100
AcDbEntity
  8
0
  6
Continuous
 62
     7
370
    15
100
AcDbLine
 10
194.8563039168
 20
362.8163498953
 30
0.0
 11
194.8563039168
 21
352.8163594321
 31
0.0
  0
LINE
  5
E5
330
1F
100
AcDbEntity
  8
0
  6
Continuous
 62
     7
370
    15
100
AcDbLine
 10
184.2604309185
 20
362.8163498953
 30
0.0
 11
194.8563039168
 21
362.8163498953
 31
0.0
  0
LINE
  5
E6
330
1F
100
AcDbEntity
  8
0
  6
Continuous
 62
     7
370
    15
100
AcDbLine
 10
45.3319877251
 20
362.8163498953
 30
0.0
 11
45.3319877251
 21
352.8163594321
 31
0.0
  0
LINE
  5
E7
330
1F
100
AcDbEntity
  8
0
  6
Continuous
 62
     7
370
    15
100
AcDbLine
 10
45.3319877251
 20
362.8163498953
 30
0.0
 11
55.9278607233
 21
362.8163498953
 31
0.0
  0
LINE
  5
E8
330
1F
100
AcDbEntity
  8
0
  6
Continuous
 62
     7
370
    15
100
AcDbLine
 10
55.9278607233
 20
362.8163498953
 30
0.0
 11
55.9278607233
 21
352.8163594321
 31
0.0
  0
LINE
  5
E9
330
1F
100
AcDbEntity
  8
0
  6
Continuous
 62
     7
370
    15
100
AcDbLine
 10
55.9278607233
 20
362.8163498953
 30
0.0
 11
63.6845782264
 21
362.8163498953
 31
0.0
  0
LINE
  5
EA
330
1F
100
AcDbEntity
  8
0
  6
Continuous
 62
     7
370
    15
100
AcDbLine
 10
63.6845782264
 20
362.8163498953
 30
0.0
 11
63.6845782264
 21
352.8163594321
 31
0.0
  0
SPLINE
  5
EB
330
1F
100
AcDbEntity
  8
0
  6
Continuous
 62
     7
370
    15
100
AcDbSpline
210
0.0
220
0.0
230
1.0
 70
     8
 71
     3
 72
    18
 73
    14
 74
     0
 42
0.00000001
 43
0.00000001
 12
1.0
 22
0.0
 32
0.0
 13
1.0
 23
0.0
 33
0.0
 40
0.0
 40
0.0
 40
0.0
 40
0.0
 40
0.0612249133755768
 40
0.1231497079990225
 40
0.1857751882570716
 40
0.2491021611886303
 40
0.3724580569737357
 40
0.4990626403862583
 40
0.6223573359799703
 40
0.7494937678424467
 40
0.830913626718426
 40
0.9144148123058297
 40
0.9999999999999999
 40
0.9999999999999999
 40
0.9999999999999999
 40
0.9999999999999999
 10
143.6808357690678
 20
282.3650116092414
 30
0.0
 10
143.4108499651259
 20
282.2550884298068
 30
0.0
 10
142.8677920645724
 20
282.0339855044886
 30
0.0
 10
142.0442851099757
 20
281.6986991596161
 30
0.0
 10
141.2083950623004
 20
281.3583737084435
 30
0.0
 10
140.0948237143712
 20
280.9049936815271
 30
0.0
 10
138.6878070431925
 20
280.3321307964139
 30
0.0
 10
137.0001912363967
 20
279.6450375507341
 30
0.0
 10
135.285096439046
 20
278.9467405737825
 30
0.0
 10
133.7672241921066
 20
278.3287578343107
 30
0.0
 10
132.4258777423697
 20
277.782632213314
 30
0.0
 10
131.2721353532726
 20
277.3128946507968
 30
0.0
 10
130.4906699795802
 20
276.9947287421684
 30
0.0
 10
130.0951214833535
 20
276.833685078629
 30
0.0
  0
LINE
  5
EC
330
1F
100
AcDbEntity
  8
0
  6
Continuous
 62
     7
370
    15
100
AcDbLine
 10
143.6808362468
 20
293.0406195238
 30
0.0
 11
143.6808362468
 21
282.3650104121
 31
0.0
  0
LINE
  5
ED
330
1F
100
AcDbEntity
  8
0
  6
Continuous
 62
     7
370
    15
100
AcDbLine
 10
147.2379781171
 20
293.0406195238
 30
0.0
 11
143.6808362468
 21
293.0406195238
 31
0.0
  0
LINE
  5
EE
330
1F
100
AcDbEntity
  8
0
  6
Continuous
 62
     7
370
    15
100
AcDbLine
 10
147.2379781171
 20
279.9263347998
 30
0.0
 11
147.2379781171
 21
293.0406195238
 31
0.0
  0
SPLINE
  5
EF
330
1F
100
AcDbEntity
  8
0
  6
Continuous
 62
     7
370
    15
100
AcDbSpline
210
0.0
220
0.0
230
1.0
 70
     8
 71
     3
 72
    17
 73
    13
 74
     0
 42
0.00000001
 43
0.00000001
 12
1.0
 22
0.0
 32
0.0
 13
1.0
 23
0.0
 33
0.0
 40
0.0
 40
0.0
 40
0.0
 40
0.0
 40
0.0638523508411361
 40
0.1269039821069264
 40
0.1891556354348405
 40
0.2506080465318943
 40
0.3772030107811256
 40
0.5010190641105695
 40
0.6271957971827974
 40
0.750919953958163
 40
0.8765543248276847
 40
1.0
 40
1.0
 40
1.0
 40
1.0
 10
135.2379786262106
 20
275.0406205967208
 30
0.0
 10
135.4995745763275
 20
275.1471271951374
 30
0.0
 10
136.0194860178884
 20
275.3588047807186
 30
0.0
 10
136.7919084351604
 20
275.6732898972991
 30
0.0
 10
137.5526198037989
 20
275.983009147043
 30
0.0
 10
138.5692861190879
 20
276.3969395822652
 30
0.0
 10
139.8305076924929
 20
276.9104330306493
 30
0.0
 10
141.3437783548483
 20
277.5265547255345
 30
0.0
 10
142.8353244087165
 20
278.1338231112677
 30
0.0
 10
144.3228386396725
 20
278.7394575945776
 30
0.0
 10
145.7888488177985
 20
279.3363300493584
 30
0.0
 10
146.7577733748021
 20
279.7308220874081
 30
0.0
 10
147.2379786262106
 20
279.9263348824352
 30
0.0
  0
SPLINE
  5
F0
330
1F
100
AcDbEntity
  8
0
  6
Continuous
 62
     7
370
    15
100
AcDbSpline
210
0.0
220
0.0
230
1.0
 70
     8
 71
     3
 72
    17
 73
    13
 74
     0
 42
0.00000001
 43
0.00000001
 12
1.0
 22
0.0
 32
0.0
 13
1.0
 23
0.0
 33
0.0
 40
0.0
 40
0.0
 40
0.0
 40
0.0
 40
0.0611981509462837
 40
0.1231315130237624
 40
0.1857995855278022
 40
0.2492018560688539
 40
0.3724550033749273
 40
0.4991428217621589
 40
0.622273532437318
 40
0.7495144652212554
 40
0.8722056260514733
 40
1.0
 40
1.0
 40
1.0
 40
1.0
 10
147.2379786262107
 20
270.1549063110067
 30
0.0
 10
146.9990083412895
 20
270.2522016514129
 30
0.0
 10
146.5181968740297
 20
270.4479612011564
 30
0.0
 10
145.7893125010758
 20
270.7447223127803
 30
0.0
 10
145.0493621916063
 20
271.0459868717998
 30
0.0
 10
144.0646094742955
 20
271.4469199284351
 30
0.0
 10
142.8209044240206
 20
271.9532902131072
 30
0.0
 10
141.331075718186
 20
272.5598576337921
 30
0.0
 10
139.8169264394172
 20
273.1763390216585
 30
0.0
 10
138.3110147631208
 20
273.7894536518915
 30
0.0
 10
136.7796207287617
 20
274.4129566407887
 30
0.0
 10
135.758791872706
 20
274.8285767623859
 30
0.0
 10
135.2379786262106
 20
275.0406205967208
 30
0.0
  0
LINE
  5
F1
330
1F
100
AcDbEntity
  8
0
  6
Continuous
 62
     7
370
    15
100
AcDbLine
 10
147.2379781171
 20
257.0406210736
 30
0.0
 11
147.2379781171
 21
270.1549057976
 31
0.0
  0
LINE
  5
F2
330
1F
100
AcDbEntity
  8
0
  6
Continuous
 62
     7
370
    15
100
AcDbLine
 10
143.6808362468
 20
257.0406210736
 30
0.0
 11
147.2379781171
 21
257.0406210736
 31
0.0
  0
LINE
  5
F3
330
1F
100
AcDbEntity
  8
0
  6
Continuous
 62
     7
370
    15
100
AcDbLine
 10
143.6808362468
 20
267.7162301853
 30
0.0
 11
143.6808362468
 21
257.0406210736
 31
0.0
  0
LINE
  5
F4
330
1F
100
AcDbEntity
  8
0
  6
Continuous
 62
     7
370
    15
100
AcDbLine
 10
130.0951216235
 20
276.8336844757
 30
0.0
 11
130.0951216235
 21
273.2475561217
 31
0.0
  0
SPLINE
  5
F5
330
1F
100
AcDbEntity
  8
0
  6
Continuous
 62
     7
370
    15
100
AcDbSpline
210
0.0
220
0.0
230
1.0
 70
     8
 71
     3
 72
    19
 73
    15
 74
     0
 42
0.00000001
 43
0.00000001
 12
1.0
 22
0.0
 32
0.0
 13
1.0
 23
0.0
 33
0.0
 40
0.0
 40
0.0
 40
0.0
 40
0.0
 40
0.0530619031887525
 40
0.1046302640876362
 40
0.1547039653071843
 40
0.2032819234206904
 40
0.2503630890530478
 40
0.3787861841848292
 40
0.5007433599000862
 40
0.6282148789369836
 40
0.7507510456122272
 40
0.8356024372211814
 40
0.9186860757180646
 40
1.0
 40
1.0
 40
1.0
 40
1.0
 10
130.0951214833535
 20
273.2475561148127
 30
0.0
 10
130.3391402133298
 20
273.1482064631424
 30
0.0
 10
130.8203092371571
 20
272.9523035711128
 30
0.0
 10
131.5307566406435
 20
272.6630546477966
 30
0.0
 10
132.2198449419261
 20
272.38249712007
 30
0.0
 10
132.8875104056127
 20
272.110657559533
 30
0.0
 10
133.9128154051958
 20
271.6932064792475
 30
0.0
 10
135.2705341509995
 20
271.1404334539384
 30
0.0
 10
136.9880360638597
 20
270.4411509159839
 30
0.0
 10
138.6709154990783
 20
269.7559902121586
 30
0.0
 10
140.1780002250576
 20
269.1423816623781
 30
0.0
 10
141.4788599343177
 20
268.6127514623921
 30
0.0
 10
142.5907990324999
 20
268.1600329161595
 30
0.0
 10
143.3201071530715
 20
267.8630985440634
 30
0.0
 10
143.6808357690678
 20
267.7162295842006
 30
0.0
  0
LINE
  5
F6
330
1F
100
AcDbEntity
  8
0
  6
Continuous
 62
     7
370
    15
100
AcDbLine
 10
187.0995864137
 20
242.8363517985
 30
0.0
 11
196.468751119
 21
242.8363517985
 31
0.0
  0
LINE
  5
F7
330
1F
100
AcDbEntity
  8
0
  6
Continuous
 62
     7
370
    15
100
AcDbLine
 10
196.468751119
 20
242.8363517985
 30
0.0
 11
196.468751119
 21
239.7166502789
 31
0.0
  0
LINE
  5
F8
330
1F
100
AcDbEntity
  8
0
  6
Continuous
 62
     7
370
    15
100
AcDbLine
 10
187.0995864137
 20
242.8363517985
 30
0.0
 11
187.0995864137
 21
239.7165832237
 31
0.0
  0
LINE
  5
F9
330
1F
100
AcDbEntity
  8
0
  6
Continuous
 62
     7
370
    15
100
AcDbLine
 10
177.7304179831
 20
242.8363517985
 30
0.0
 11
187.0995864137
 21
242.8363517985
 31
0.0
  0
LINE
  5
FA
330
1F
100
AcDbEntity
  8
0
  6
Continuous
 62
     7
370
    15
100
AcDbLine
 10
177.7304179831
 20
242.8363517985
 30
0.0
 11
177.7304179831
 21
240.4092823282
 31
0.0
  0
LINE
  5
FB
330
1F
100
AcDbEntity
  8
0
  6
Continuous
 62
     7
370
    15
100
AcDbLine
 10
196.468751119
 20
234.0406210289
 30
0.0
 11
196.468751119
 21
234.0363527775
 31
0.0
  0
LINE
  5
FC
330
1F
100
AcDbEntity
  8
0
  6
Continuous
 62
     7
370
    15
100
AcDbLine
 10
43.7195405229
 20
242.8363517985
 30
0.0
 11
53.0887052282
 21
242.8363517985
 31
0.0
  0
LINE
  5
FD
330
1F
100
AcDbEntity
  8
0
  6
Continuous
 62
     7
370
    15
100
AcDbLine
 10
53.0887052282
 20
242.8363517985
 30
0.0
 11
53.0887052282
 21
239.7166502789
 31
0.0
  0
LINE
  5
FE
330
1F
100
AcDbEntity
  8
0
  6
Continuous
 62
     7
370
    15
100
AcDbLine
 10
43.7195405229
 20
242.8363517985
 30
0.0
 11
43.7195405229
 21
239.7165832237
 31
0.0
  0
LINE
  5
FF
330
1F
100
AcDbEntity
  8
0
  6
Continuous
 62
     7
370
    15
100
AcDbLine
 10
62.4578699334
 20
242.8363517985
 30
0.0
 11
62.4578699334
 21
240.4093605593
 31
0.0
  0
LINE
  5
100
330
1F
100
AcDbEntity
  8
0
  6
Continuous
 62
     7
370
    15
100
AcDbLine
 10
53.0887052282
 20
242.8363517985
 30
0.0
 11
62.4578699334
 21
242.8363517985
 31
0.0
  0
LINE
  5
101
330
1F
100
AcDbEntity
  8
0
  6
Continuous
 62
     7
370
    15
100
AcDbLine
 10
43.7195405229
 20
234.0406210289
 30
0.0
 11
43.7195405229
 21
234.0363527775
 31
0.0
  0
SPLINE
  5
102
330
1F
100
AcDbEntity
  8
0
  6
Continuous
 62
     7
370
    15
100
AcDbSpline
210
0.0
220
0.0
230
1.0
 70
     8
 71
     3
 72
    25
 73
    21
 74
     0
 42
0.00000001
 43
0.00000001
 12
1.0
 22
0.0
 32
0.0
 13
1.0
 23
0.0
 33
0.0
 40
0.0
 40
0.0
 40
0.0
 40
0.0
 40
0.0418889275296542
 40
0.0837948538092022
 40
0.1257972587121235
 40
0.1884182751765045
 40
0.2509073816730533
 40
0.3132937391457292
 40
0.3756034150057668
 40
0.4378619126990195
 40
0.5000967167258668
 40
0.5623171093089596
 40
0.6245432507815356
 40
0.6868160543055865
 40
0.7491700916829012
 40
0.8116358089701151
 40
0.8742417532439373
 40
0.9370167922908995
 40
0.9685027752610087
 40
0.9999999999999999
 40
0.9999999999999999
 40
0.9999999999999999
 40
0.9999999999999999
 10
135.5272363598145
 20
261.9911556196444
 30
0.0
 10
135.5438724929782
 20
261.917312345383
 30
0.0
 10
135.5771515103371
 20
261.7695958308663
 30
0.0
 10
135.638991593219
 20
261.5507293311759
 30
0.0
 10
135.7209616688663
 20
261.298878205345
 30
0.0
 10
135.8296436584283
 20
261.0169034587419
 30
0.0
 10
135.9709432143011
 20
260.7088621625914
 30
0.0
 10
136.1307684647627
 20
260.4108682235682
 30
0.0
 10
136.3084027694237
 20
260.1239652248485
 30
0.0
 10
136.5031644685392
 20
259.8491950800559
 30
0.0
 10
136.7143458173174
 20
259.5876381456699
 30
0.0
 10
136.9411720224526
 20
259.3403710355309
 30
0.0
 10
137.1825389645639
 20
259.1081169965714
 30
0.0
 10
137.4374280016092
 20
258.891543641935
 30
0.0
 10
137.7048454965082
 20
258.6912673288532
 30
0.0
 10
137.9838150891447
 20
258.5079354887428
 30
0.0
 10
138.273317516706
 20
258.3420921852334
 30
0.0
 10
138.5224875216782
 20
258.2193208766059
 30
0.0
 10
138.7258588879813
 20
258.130061724769
 30
0.0
 10
138.8291706620564
 20
258.0894843393147
 30
0.0
 10
138.880835769068
 20
258.0691920252924
 30
0.0
  0
SPLINE
  5
103
330
1F
100
AcDbEntity
  8
0
  6
Continuous
 62
     7
370
    15
100
AcDbSpline
210
0.0
220
0.0
230
1.0
 70
     8
 71
     3
 72
    13
 73
     9
 74
     0
 42
0.00000001
 43
0.00000001
 12
1.0
 22
0.0
 32
0.0
 13
1.0
 23
0.0
 33
0.0
 40
0.0
 40
0.0
 40
0.0
 40
0.0
 40
0.1275977164407449
 40
0.2535968826873533
 40
0.3779991479841329
 40
0.5008061497997747
 40
0.753214928927368
 40
1.0
 40
1.0
 40
1.0
 40
1.0
 10
130.0951214833538
 20
257.8977634538637
 30
0.0
 10
130.3273707711027
 20
258.0727754687442
 30
0.0
 10
130.7889597165981
 20
258.42060693975
 30
0.0
 10
131.475854942168
 20
258.9382182776757
 30
0.0
 10
132.1531947893799
 20
259.4486316913939
 30
0.0
 10
133.0586234370532
 20
260.1309233860893
 30
0.0
 10
134.1836394909988
 20
260.9786797509033
 30
0.0
 10
135.082747059503
 20
261.6562079125426
 30
0.0
 10
135.5272363598145
 20
261.9911556196444
 30
0.0
  0
LINE
  5
104
330
1F
100
AcDbEntity
  8
0
  6
Continuous
 62
     7
370
    15
100
AcDbLine
 10
130.0951216235
 20
262.3517898038
 30
0.0
 11
130.0951216235
 21
257.8977619425
 31
0.0
  0
SPLINE
  5
105
330
1F
100
AcDbEntity
  8
0
  6
Continuous
 62
     7
370
    15
100
AcDbSpline
210
0.0
220
0.0
230
1.0
 70
     8
 71
     3
 72
    12
 73
     8
 74
     0
 42
0.00000001
 43
0.00000001
 12
1.0
 22
0.0
 32
0.0
 13
1.0
 23
0.0
 33
0.0
 40
0.0
 40
0.0
 40
0.0
 40
0.0
 40
0.1641735355903207
 40
0.3306055383153181
 40
0.499298852338231
 40
0.7467970312716282
 40
1.0
 40
1.0
 40
1.0
 40
1.0
 10
134.897717646064
 20
265.9708046558665
 30
0.0
 10
134.6361815171116
 20
265.7737226942679
 30
0.0
 10
134.1095114153176
 20
265.3768475963889
 30
0.0
 10
133.3121733985598
 20
264.776010128459
 30
0.0
 10
132.3801680719237
 20
264.0736957987588
 30
0.0
 10
131.3071715657057
 20
263.2651319918627
 30
0.0
 10
130.5021953703733
 20
262.6585403296579
 30
0.0
 10
130.0951214833537
 20
262.3517888664479
 30
0.0
  0
SPLINE
  5
106
330
1F
100
AcDbEntity
  8
0
  6
Continuous
 62
     7
370
    15
100
AcDbSpline
210
0.0
220
0.0
230
1.0
 70
     8
 71
     3
 72
    12
 73
     8
 74
     0
 42
0.00000001
 43
0.00000001
 12
1.0
 22
0.0
 32
0.0
 13
1.0
 23
0.0
 33
0.0
 40
0.0
 40
0.0
 40
0.0
 40
0.0
 40
0.1729553443750977
 40
0.3396846600568094
 40
0.5001827154186335
 40
0.755331159688876
 40
1.0
 40
1.0
 40
1.0
 40
1.0
 10
130.0951214833536
 20
267.9261473792557
 30
0.0
 10
130.3730402052777
 20
267.8129953000309
 30
0.0
 10
130.9188731595661
 20
267.5907643784883
 30
0.0
 10
131.7213378539258
 20
267.2640468219501
 30
0.0
 10
132.6544479899775
 20
266.8841347628486
 30
0.0
 10
133.7106825371049
 20
266.4540998372383
 30
0.0
 10
134.5076089606139
 20
266.1296353816524
 30
0.0
 10
134.8977176460639
 20
265.9708046558665
 30
0.0
  0
LINE
  5
107
330
1F
100
AcDbEntity
  8
0
  6
Continuous
 62
     7
370
    15
100
AcDbLine
 10
130.0951216235
 20
271.766816558
 30
0.0
 11
130.0951216235
 21
267.9261465684
 31
0.0
  0
LINE
  5
108
330
1F
100
AcDbEntity
  8
0
  6
Continuous
 62
     7
370
    15
100
AcDbLine
 10
142.3094078763
 20
262.9531894937
 30
0.0
 11
142.3094078763
 21
266.793855758
 31
0.0
  0
SPLINE
  5
109
330
1F
100
AcDbEntity
  8
0
  6
Continuous
 62
     7
370
    15
100
AcDbSpline
210
0.0
220
0.0
230
1.0
 70
     8
 71
     3
 72
    12
 73
     8
 74
     0
 42
0.00000001
 43
0.00000001
 12
1.0
 22
0.0
 32
0.0
 13
1.0
 23
0.0
 33
0.0
 40
0.0
 40
0.0
 40
0.0
 40
0.0
 40
0.1696111143584178
 40
0.3363764765214451
 40
0.5002939184449305
 40
0.7529183895387297
 40
1.0
 40
1.0
 40
1.0
 40
1.0
 10
137.8551233135761
 20
264.7667180626652
 30
0.0
 10
138.1086042156441
 20
264.6635153414157
 30
0.0
 10
138.6113130919207
 20
264.4588414444684
 30
0.0
 10
139.3568454942214
 20
264.15530334687
 30
0.0
 10
140.2240989833207
 20
263.8022060787922
 30
0.0
 10
141.2079506415138
 20
263.4016393931134
 30
0.0
 10
141.9449801152837
 20
263.1015624193194
 30
0.0
 10
142.3094071976394
 20
262.9531881955824
 30
0.0
  0
SPLINE
  5
10A
330
1F
100
AcDbEntity
  8
0
  6
Continuous
 62
     7
370
    15
100
AcDbSpline
210
0.0
220
0.0
230
1.0
 70
     8
 71
     3
 72
    27
 73
    23
 74
     0
 42
0.00000001
 43
0.00000001
 12
1.0
 22
0.0
 32
0.0
 13
1.0
 23
0.0
 33
0.0
 40
0.0
 40
0.0
 40
0.0
 40
0.0
 40
0.0314563763731093
 40
0.0629431988506895
 40
0.0943077235757839
 40
0.1256818047971467
 40
0.188230351462907
 40
0.2506307342707103
 40
0.3129153685031841
 40
0.375135564896209
 40
0.437373496404702
 40
0.499753819639232
 40
0.5621957057882518
 40
0.6245708062475199
 40
0.6869391846267808
 40
0.7493363919828172
 40
0.8117896872450733
 40
0.874334295956427
 40
0.9370295652670119
 40
0.962179854221851
 40
0.981060947735316
 40
1.0
 40
1.0
 40
1.0
 40
1.0
 10
142.3094071976394
 20
260.4691920252923
 30
0.0
 10
142.2400941202668
 20
260.4701525720294
 30
0.0
 10
142.1014008785448
 20
260.4720745952006
 30
0.0
 10
141.8934953075776
 20
260.4875777177284
 30
0.0
 10
141.6862457267131
 20
260.5122016409331
 30
0.0
 10
141.4118612427642
 20
260.5582116739357
 30
0.0
 10
141.0726239717592
 20
260.6396912457218
 30
0.0
 10
140.6750441312863
 20
260.775229668792
 30
0.0
 10
140.2903276839188
 20
260.9476553485972
 30
0.0
 10
139.9217729576167
 20
261.1561954945016
 30
0.0
 10
139.5727166562525
 20
261.4001194450012
 30
0.0
 10
139.2468390809629
 20
261.6781754748151
 30
0.0
 10
138.9488006253995
 20
261.9888686851974
 30
0.0
 10
138.6819055806766
 20
262.3285181528011
 30
0.0
 10
138.4483058313606
 20
262.693098015748
 30
0.0
 10
138.2499550354609
 20
263.0791204746902
 30
0.0
 10
138.0887596378911
 20
263.4830812619766
 30
0.0
 10
137.9666963809828
 20
263.9014455789151
 30
0.0
 10
137.9018561795102
 20
264.2446022543953
 30
0.0
 10
137.8731283526985
 20
264.490174160568
 30
0.0
 10
137.8610014753502
 20
264.6354996732776
 30
0.0
 10
137.8570847016312
 20
264.7229339356797
 30
0.0
 10
137.8551233135761
 20
264.7667180626652
 30
0.0
  0
LINE
  5
10B
330
1F
100
AcDbEntity
  8
0
  6
Continuous
 62
     7
370
    15
100
AcDbLine
 10
142.3094078763
 20
257.0406210736
 30
0.0
 11
142.3094078763
 21
260.4691919997
 31
0.0
  0
LINE
  5
10C
330
1F
100
AcDbEntity
  8
0
  6
Continuous
 62
     7
370
    15
100
AcDbLine
 10
138.8808350875
 20
257.0406210736
 30
0.0
 11
142.3094078763
 21
257.0406210736
 31
0.0
  0
LINE
  5
10D
330
1F
100
AcDbEntity
  8
0
  6
Continuous
 62
     7
370
    15
100
AcDbLine
 10
138.8808350875
 20
258.0691923514
 30
0.0
 11
138.8808350875
 21
257.0406210736
 31
0.0
  0
SPLINE
  5
10E
330
1F
100
AcDbEntity
  8
0
  6
Continuous
 62
     7
370
    15
100
AcDbSpline
210
0.0
220
0.0
230
1.0
 70
     8
 71
     3
 72
    17
 73
    13
 74
     0
 42
0.00000001
 43
0.00000001
 12
1.0
 22
0.0
 32
0.0
 13
1.0
 23
0.0
 33
0.0
 40
0.0
 40
0.0
 40
0.0
 40
0.0
 40
0.0609027885919958
 40
0.1227659159015168
 40
0.1855886619442506
 40
0.2493702909602988
 40
0.3720091758220075
 40
0.4993679140268662
 40
0.6214772473799037
 40
0.7496833125268946
 40
0.8705477889547457
 40
1.0
 40
1.0
 40
1.0
 40
1.0
 10
142.3094071976394
 20
266.7938571090713
 30
0.0
 10
142.0657748860813
 20
266.8930506378668
 30
0.0
 10
141.5746685744804
 20
267.0930018173715
 30
0.0
 10
140.8296319515473
 20
267.3963395064168
 30
0.0
 10
140.0711608085417
 20
267.7051444310978
 30
0.0
 10
139.0654391540914
 20
268.1146142570417
 30
0.0
 10
137.7946766774521
 20
268.6320024559698
 30
0.0
 10
136.2809806193121
 20
269.2482850588608
 30
0.0
 10
134.7385657813035
 20
269.8762775182138
 30
0.0
 10
133.2172246276291
 20
270.4956707831826
 30
0.0
 10
131.6612905023273
 20
271.1291694206429
 30
0.0
 10
130.6289831112218
 20
271.5494609543225
 30
0.0
 10
130.0951214833536
 20
271.7668162927446
 30
0.0
  0
LINE
  5
10F
330
1F
100
AcDbEntity
  8
0
  6
Continuous
 62
     7
370
    15
100
AcDbLine
 10
130.0951216235
 20
293.0406195238
 30
0.0
 11
130.0951216235
 21
289.2304075077
 31
0.0
  0
SPLINE
  5
110
330
1F
100
AcDbEntity
  8
0
  6
Continuous
 62
     7
370
    15
100
AcDbSpline
210
0.0
220
0.0
230
1.0
 70
     8
 71
     3
 72
    16
 73
    12
 74
     0
 42
0.00000001
 43
0.00000001
 12
1.0
 22
0.0
 32
0.0
 13
1.0
 23
0.0
 33
0.0
 40
0.0
 40
0.0
 40
0.0
 40
0.0
 40
0.0817502104055557
 40
0.1649614603202374
 40
0.2496326794759783
 40
0.3726690457801093
 40
0.4996196537330645
 40
0.6222991439864376
 40
0.7497974268715937
 40
0.871769523496263
 40
1.0
 40
1.0
 40
1.0
 40
1.0
 10
138.8808357690677
 20
289.6681008603383
 30
0.0
 10
138.644117585003
 20
289.7589686562503
 30
0.0
 10
138.1664505902158
 20
289.9423282370435
 30
0.0
 10
137.4414744142978
 20
290.2206206334363
 30
0.0
 10
136.594852053562
 20
290.5456072741798
 30
0.0
 10
135.6183320493209
 20
290.9204602182041
 30
0.0
 10
134.5277467369996
 20
291.3390943457895
 30
0.0
 10
133.4211726587053
 20
291.7638709939641
 30
0.0
 10
132.3265134373433
 20
292.1840685161662
 30
0.0
 10
131.2132474707396
 20
292.6114142691117
 30
0.0
 10
130.4739938579864
 20
292.8951858045925
 30
0.0
 10
130.0951214833533
 20
293.0406205967208
 30
0.0
  0
LINE
  5
111
330
1F
100
AcDbEntity
  8
0
  6
Continuous
 62
     7
370
    15
100
AcDbLine
 10
138.8808350875
 20
293.0406195238
 30
0.0
 11
138.8808350875
 21
289.6680993155
 31
0.0
  0
LINE
  5
112
330
1F
100
AcDbEntity
  8
0
  6
Continuous
 62
     7
370
    15
100
AcDbLine
 10
142.3094078763
 20
293.0406195238
 30
0.0
 11
138.8808350875
 21
293.0406195238
 31
0.0
  0
LINE
  5
113
330
1F
100
AcDbEntity
  8
0
  6
Continuous
 62
     7
370
    15
100
AcDbLine
 10
142.3094078763
 20
283.2873848394
 30
0.0
 11
142.3094078763
 21
293.0406195238
 31
0.0
  0
SPLINE
  5
114
330
1F
100
AcDbEntity
  8
0
  6
Continuous
 62
     7
370
    15
100
AcDbSpline
210
0.0
220
0.0
230
1.0
 70
     8
 71
     3
 72
    17
 73
    13
 74
     0
 42
0.00000001
 43
0.00000001
 12
1.0
 22
0.0
 32
0.0
 13
1.0
 23
0.0
 33
0.0
 40
0.0
 40
0.0
 40
0.0
 40
0.0
 40
0.064206110329247
 40
0.1273496249770913
 40
0.1894314679038155
 40
0.2504525499519415
 40
0.3774018484895888
 40
0.5008152558579765
 40
0.6273053791886655
 40
0.7507700300190212
 40
0.8767037786311982
 40
1.0
 40
1.0
 40
1.0
 40
1.0
 10
130.0951214833535
 20
278.314424900697
 30
0.0
 10
130.3612474429335
 20
278.422775759516
 30
0.0
 10
130.889095041478
 20
278.6376842965038
 30
0.0
 10
131.6724629780498
 20
278.9566254185348
 30
0.0
 10
132.4412782834889
 20
279.2696444862466
 30
0.0
 10
133.4713807105358
 20
279.6890459454676
 30
0.0
 10
134.7500616420569
 20
280.2096467184653
 30
0.0
 10
136.2901759935654
 20
280.8366988476762
 30
0.0
 10
137.8081429574992
 20
281.4547233110269
 30
0.0
 10
139.3273997730793
 20
282.073282466248
 30
0.0
 10
140.8251860664517
 20
282.6830916311459
 30
0.0
 10
141.818169637971
 20
283.0873794194252
 30
0.0
 10
142.3094071976392
 20
283.2873840843706
 30
0.0
  0
LINE
  5
115
330
1F
100
AcDbEntity
  8
0
  6
Continuous
 62
     7
370
    15
100
AcDbLine
 10
130.0951216235
 20
282.155094029
 30
0.0
 11
130.0951216235
 21
278.3144240394
 31
0.0
  0
SPLINE
  5
116
330
1F
100
AcDbEntity
  8
0
  6
Continuous
 62
     7
370
    15
100
AcDbSpline
210
0.0
220
0.0
230
1.0
 70
     8
 71
     3
 72
     9
 73
     5
 74
     0
 42
0.00000001
 43
0.00000001
 12
1.0
 22
0.0
 32
0.0
 13
1.0
 23
0.0
 33
0.0
 40
0.0
 40
0.0
 40
0.0
 40
0.0
 40
0.4946417920195051
 40
1.0
 40
1.0
 40
1.0
 40
1.0
 10
131.9808357690677
 20
282.9228489162268
 30
0.0
 10
131.6704398183958
 20
282.7964732481581
 30
0.0
 10
131.0429231878161
 20
282.5409839827792
 30
0.0
 10
130.4133044701993
 20
282.2846395681757
 30
0.0
 10
130.0951214833535
 20
282.155093814186
 30
0.0
  0
LINE
  5
117
330
1F
100
AcDbEntity
  8
0
  6
Continuous
 62
     7
370
    15
100
AcDbLine
 10
131.9808356329
 20
288.5065463498
 30
0.0
 11
131.9808356329
 21
282.9228502825
 31
0.0
  0
SPLINE
  5
118
330
1F
100
AcDbEntity
  8
0
  6
Continuous
 62
     7
370
    15
100
AcDbSpline
210
0.0
220
0.0
230
1.0
 70
     8
 71
     3
 72
     9
 73
     5
 74
     0
 42
0.00000001
 43
0.00000001
 12
1.0
 22
0.0
 32
0.0
 13
1.0
 23
0.0
 33
0.0
 40
0.0
 40
0.0
 40
0.0
 40
0.0
 40
0.5108987399450354
 40
1.0
 40
1.0
 40
1.0
 40
1.0
 10
130.0951214833533
 20
289.2304048336405
 30
0.0
 10
130.4166431798311
 20
289.1069845462703
 30
0.0
 10
131.0459688589518
 20
288.8654096945033
 30
0.0
 10
131.6737749962466
 20
288.6244168452409
 30
0.0
 10
131.9808357690677
 20
288.5065469390024
 30
0.0
  0
SPLINE
  5
119
330
1F
100
AcDbEntity
  8
0
  6
Continuous
 62
     7
370
    15
100
AcDbSpline
210
0.0
220
0.0
230
1.0
 70
    24
 71
     3
 72
    13
 73
     9
 74
     0
 42
0.00000001
 43
0.00000001
 12
1.0
 22
0.0
 32
0.0
 13
1.0
 23
0.0
 33
0.0
 40
0.0
 40
0.0
 40
0.0
 40
0.0
 40
0.1668197953584866
 40
0.333556284930012
 40
0.5002259960155357
 40
0.6668454757876715
 40
0.8334312863876477
 40
1.0
 40
1.0
 40
1.0
 40
1.0
 10
135.2379786262105
 20
287.6234966512769
 30
0.0
 10
135.4765291439664
 20
287.5319256869713
 30
0.0
 10
135.9535110530964
 20
287.3488294866937
 30
0.0
 10
136.6670959460413
 20
287.0749099103476
 30
0.0
 10
137.3790460776982
 20
286.8016178600658
 30
0.0
 10
138.0892001505644
 20
286.5290152521585
 30
0.0
 10
138.7977479722274
 20
286.2570292263194
 30
0.0
 10
139.2686522185369
 20
286.0762660222158
 30
0.0
 10
139.5040922586438
 20
285.9858890584114
 30
0.0
  0
LINE
  5
11A
330
1F
100
AcDbEntity
  8
0
  6
Continuous
 62
     7
370
    15
100
AcDbLine
 10
135.2379789441
 20
287.6234960869
 30
0.0
 11
135.2379789441
 21
284.2489716724
 31
0.0
  0
SPLINE
  5
11B
330
1F
100
AcDbEntity
  8
0
  6
Continuous
 62
     7
370
    15
100
AcDbSpline
210
0.0
220
0.0
230
1.0
 70
    24
 71
     3
 72
    13
 73
     9
 74
     0
 42
0.00000001
 43
0.00000001
 12
1.0
 22
0.0
 32
0.0
 13
1.0
 23
0.0
 33
0.0
 40
0.0
 40
0.0
 40
0.0
 40
0.0
 40
0.1665249855643585
 40
0.3330847927649443
 40
0.4996958224868421
 40
0.6663744604945215
 40
0.8331370726232822
 40
1.0
 40
1.0
 40
1.0
 40
1.0
 10
139.5040922586438
 20
285.9858890584114
 30
0.0
 10
139.2690300636171
 20
285.890185164722
 30
0.0
 10
138.7988565202776
 20
285.6987573649337
 30
0.0
 10
138.0909247200546
 20
285.4105279891287
 30
0.0
 10
137.3809895670036
 20
285.1214829625293
 30
0.0
 10
136.6688209696465
 20
284.8315286050339
 30
0.0
 10
135.9546205941855
 20
284.5407470235962
 30
0.0
 10
135.4769071621711
 20
284.3462494119904
 30
0.0
 10
135.2379786262106
 20
284.2489713652064
 30
0.0
  0
LINE
  5
11C
330
1F
100
AcDbEntity
  8
0
  6
Continuous
 62
     7
370
    15
100
AcDbLine
 10
195.0995802744
 20
367.5363523081
 30
0.0
 11
179.0995851024
 21
367.5363523081
 31
0.0
  0
LINE
  5
11D
330
1F
100
AcDbEntity
  8
0
  6
Continuous
 62
     7
370
    15
100
AcDbLine
 10
195.0995802744
 20
367.0363587454
 30
0.0
 11
179.0995851024
 21
367.0363587454
 31
0.0
  0
LINE
  5
11E
330
1F
100
AcDbEntity
  8
0
  6
Continuous
 62
     7
370
    15
100
AcDbLine
 10
61.0887065395
 20
367.5363523081
 30
0.0
 11
45.0887039169
 21
367.5363523081
 31
0.0
  0
LINE
  5
11F
330
1F
100
AcDbEntity
  8
0
  6
Continuous
 62
     7
370
    15
100
AcDbLine
 10
61.0887065395
 20
367.0363587454
 30
0.0
 11
45.0887039169
 21
367.0363587454
 31
0.0
  0
LINE
  5
120
330
1F
100
AcDbEntity
  8
0
  6
Continuous
 62
     7
370
    15
100
AcDbLine
 10
197.6954594119
 20
362.8163498953
 30
0.0
 11
197.6954594119
 21
352.8163594321
 31
0.0
  0
LINE
  5
121
330
1F
100
AcDbEntity
  8
0
  6
Continuous
 62
     7
370
    15
100
AcDbLine
 10
194.8563039168
 20
362.8163498953
 30
0.0
 11
197.6954594119
 21
362.8163498953
 31
0.0
  0
LINE
  5
122
330
1F
100
AcDbEntity
  8
0
  6
Continuous
 62
     7
370
    15
100
AcDbLine
 10
42.4928322299
 20
362.8163498953
 30
0.0
 11
42.4928322299
 21
352.8163594321
 31
0.0
  0
LINE
  5
123
330
1F
100
AcDbEntity
  8
0
  6
Continuous
 62
     7
370
    15
100
AcDbLine
 10
42.4928322299
 20
362.8163498953
 30
0.0
 11
45.3319877251
 21
362.8163498953
 31
0.0
  0
LINE
  5
124
330
1F
100
AcDbEntity
  8
0
  6
Continuous
 62
     7
370
    15
100
AcDbLine
 10
193.5995846852
 20
379.0363532618
 30
0.0
 11
180.5995844169
 21
379.0363532618
 31
0.0
  0
LINE
  5
125
330
1F
100
AcDbEntity
  8
0
  6
Continuous
 62
     7
370
    15
100
AcDbLine
 10
59.5887072249
 20
379.0363532618
 30
0.0
 11
46.5887069567
 21
379.0363532618
 31
0.0
  0
LINE
  5
126
330
1F
100
AcDbEntity
  8
0
  6
Continuous
 62
     7
370
    15
100
AcDbLine
 10
209.5952436193
 20
227.0406208128
 30
0.0
 11
205.8734625443
 21
227.0406208128
 31
0.0
  0
LINE
  5
127
330
1F
100
AcDbEntity
  8
0
  6
Continuous
 62
     7
370
    15
100
AcDbLine
 10
34.3289702996
 20
227.0406208128
 30
0.0
 11
30.6071892246
 21
227.0406208128
 31
0.0
  0
LINE
  5
128
330
1F
100
AcDbEntity
  8
0
  6
Continuous
 62
     7
370
    15
100
AcDbLine
 10
205.7267382606
 20
227.0406208128
 30
0.0
 11
205.8734625443
 21
227.0406208128
 31
0.0
  0
LINE
  5
129
330
1F
100
AcDbEntity
  8
0
  6
Continuous
 62
     7
370
    15
100
AcDbLine
 10
34.3289702996
 20
227.0406208128
 30
0.0
 11
34.4756945833
 21
227.0406208128
 31
0.0
  0
SPLINE
  5
12A
330
1F
100
AcDbEntity
  8
0
  6
Continuous
 62
     7
370
    15
100
AcDbSpline
210
0.0
220
0.0
230
1.0
 70
    24
 71
     3
 72
    14
 73
    10
 74
     0
 42
0.00000001
 43
0.00000001
 12
1.0
 22
0.0
 32
0.0
 13
1.0
 23
0.0
 33
0.0
 40
0.0
 40
0.0
 40
0.0
 40
0.0
 40
0.1430845551908601
 40
0.2866238530773285
 40
0.4297056532810736
 40
0.5727914196220708
 40
0.7163369104879385
 40
0.8594224867518327
 40
1.0
 40
1.0
 40
1.0
 40
1.0
 10
205.7267382605843
 20
227.0406208127877
 30
0.0
 10
205.6625945631425
 20
227.0406208127877
 30
0.0
 10
205.5341033106318
 20
227.0406208127877
 30
0.0
 10
205.3721573775015
 20
227.0406208127877
 30
0.0
 10
205.2351157493587
 20
227.0406208127877
 30
0.0
 10
205.1276218308002
 20
227.0406208127877
 30
0.0
 10
205.0502755569042
 20
227.0406208127877
 30
0.0
 10
205.0014697341411
 20
227.0406208127877
 30
0.0
 10
204.9959544233028
 20
227.0406208127877
 30
0.0
 10
204.9932211502366
 20
227.0406208127877
 30
0.0
  0
SPLINE
  5
12B
330
1F
100
AcDbEntity
  8
0
  6
Continuous
 62
     7
370
    15
100
AcDbSpline
210
0.0
220
0.0
230
1.0
 70
    24
 71
     3
 72
    15
 73
    11
 74
     0
 42
0.00000001
 43
0.00000001
 12
1.0
 22
0.0
 32
0.0
 13
1.0
 23
0.0
 33
0.0
 40
0.0
 40
0.0
 40
0.0
 40
0.0
 40
0.0015559140493917
 40
0.1442912368908324
 40
0.2874788280129179
 40
0.43021268701953
 40
0.5731431540851998
 40
0.7165228854826294
 40
0.8594528061443155
 40
1.0
 40
1.0
 40
1.0
 40
1.0
 10
35.20949481566478
 20
227.0406208127877
 30
0.0
 10
35.20955251037304
 20
227.0406208127877
 30
0.0
 10
35.21490296068895
 20
227.0406208127878
 30
0.0
 10
35.19607816910121
 20
227.0406208127877
 30
0.0
 10
35.15163888515315
 20
227.0406208127877
 30
0.0
 10
35.07276237913674
 20
227.0406208127877
 30
0.0
 10
34.96444996104368
 20
227.0406208127877
 30
0.0
 10
34.82727472735071
 20
227.0406208127877
 30
0.0
 10
34.66610171981269
 20
227.0406208127877
 30
0.0
 10
34.53880697611704
 20
227.0406208127877
 30
0.0
 10
34.47569458325435
 20
227.0406208127877
 30
0.0
  0
LINE
  5
12C
330
1F
100
AcDbEntity
  8
0
  6
Continuous
 62
     7
370
    15
100
AcDbLine
 10
47.08870797
 20
333.5594845131
 30
0.0
 11
40.7114580138
 21
345.3163516835
 31
0.0
  0
LINE
  5
12D
330
1F
100
AcDbEntity
  8
0
  6
Continuous
 62
     7
370
    15
100
AcDbLine
 10
199.49097483
 20
345.3163516835
 30
0.0
 11
193.0995836719
 21
333.5334149316
 31
0.0
  0
LINE
  5
12E
330
1F
100
AcDbEntity
  8
0
  6
Continuous
 62
     7
370
    15
100
AcDbLine
 10
47.08870797
 20
325.8114990905
 30
0.0
 11
35.0631132587
 21
345.3163516835
 31
0.0
  0
LINE
  5
12F
330
1F
100
AcDbEntity
  8
0
  6
Continuous
 62
     7
370
    15
100
AcDbLine
 10
205.1393195852
 20
345.3163516835
 30
0.0
 11
193.0995836719
 21
325.7885587528
 31
0.0
  0
LINE
  5
130
330
1F
100
AcDbEntity
  8
0
  6
Continuous
 62
     7
370
    15
100
AcDbLine
 10
74.8463824256
 20
353.3163529948
 30
0.0
 11
176.5037096902
 21
353.3163529948
 31
0.0
  0
LINE
  5
131
330
1F
100
AcDbEntity
  8
0
  6
Continuous
 62
     7
370
    15
100
AcDbLine
 10
63.6845782264
 20
353.3163529948
 30
0.0
 11
74.8463824256
 21
353.3163529948
 31
0.0
  0
LINE
  5
132
330
1F
100
AcDbEntity
  8
0
  6
Continuous
 62
     7
370
    15
100
AcDbLine
 10
59.0887062116
 20
320.0406220868
 30
0.0
 11
67.6257826253
 21
320.0406220868
 31
0.0
  0
LINE
  5
133
330
1F
100
AcDbEntity
  8
0
  6
Continuous
 62
     7
370
    15
100
AcDbLine
 10
172.5766502186
 20
320.0406220868
 30
0.0
 11
181.0995854302
 21
320.0406220868
 31
0.0
  0
SPLINE
  5
134
330
1F
100
AcDbEntity
  8
0
  6
Continuous
 62
     7
370
    15
100
AcDbSpline
210
0.0
220
0.0
230
1.0
 70
     8
 71
     3
 72
     8
 73
     4
 74
     0
 42
0.00000001
 43
0.00000001
 12
1.0
 22
0.0
 32
0.0
 13
1.0
 23
0.0
 33
0.0
 40
0.0000002003057535
 40
0.0000002003057535
 40
0.0000002003057535
 40
0.0000002003057535
 40
0.0040063543009631
 40
0.0040063543009631
 40
0.0040063543009631
 40
0.0040063543009631
 10
207.4042109700837
 20
223.0406205967209
 30
0.0
 10
207.4243733545355
 20
224.373966864562
 30
0.0
 10
207.4445955897779
 20
225.7073010471209
 30
0.0
 10
207.4648895814316
 20
227.0406205967209
 30
0.0
  0
SPLINE
  5
135
330
1F
100
AcDbEntity
  8
0
  6
Continuous
 62
     7
370
    15
100
AcDbSpline
210
0.0
220
0.0
230
1.0
 70
     8
 71
     3
 72
     8
 73
     4
 74
     0
 42
0.00000001
 43
0.00000001
 12
1.0
 22
0.0
 32
0.0
 13
1.0
 23
0.0
 33
0.0
 40
0.0000002003097672
 40
0.0000002003097672
 40
0.0000002003097672
 40
0.0000002003097672
 40
0.0040063543049768
 40
0.0040063543049768
 40
0.0040063543049768
 40
0.0040063543049768
 10
32.73754326240591
 20
227.0406205967209
 30
0.0
 10
32.7578372540596
 20
225.7073010471209
 30
0.0
 10
32.77805948930208
 20
224.373966864562
 30
0.0
 10
32.79822187375387
 20
223.0406205967209
 30
0.0
  0
LINE
  5
136
330
1F
100
AcDbEntity
  8
0
  6
Continuous
 62
     7
370
    15
100
AcDbLine
 10
201.0607302054
 20
223.0406206228
 30
0.0
 11
207.4042141302
 21
223.0406206228
 31
0.0
  0
LINE
  5
137
330
1F
100
AcDbEntity
  8
0
  6
Continuous
 62
     7
370
    15
100
AcDbLine
 10
39.1417026385
 20
223.0406206228
 30
0.0
 11
32.7982187136
 21
223.0406206228
 31
0.0
  0
LINE
  5
138
330
1F
100
AcDbEntity
  8
0
  6
Continuous
 62
     7
370
    15
100
AcDbLine
 10
227.3317083581
 20
223.0406206228
 30
0.0
 11
207.4042141302
 21
223.0406206228
 31
0.0
  0
LINE
  5
139
330
1F
100
AcDbEntity
  8
0
  6
Continuous
 62
     7
370
    15
100
AcDbLine
 10
12.8707244857
 20
223.0406206228
 30
0.0
 11
32.7982187136
 21
223.0406206228
 31
0.0
  0
LINE
  5
13A
330
1F
100
AcDbEntity
  8
0
  6
Continuous
 62
     7
370
    15
100
AcDbLine
 10
191.056425856
 20
223.0406206228
 30
0.0
 11
201.0607302054
 21
223.0406206228
 31
0.0
  0
LINE
  5
13B
330
1F
100
AcDbEntity
  8
0
  6
Continuous
 62
     7
370
    15
100
AcDbLine
 10
49.1460069879
 20
223.0406206228
 30
0.0
 11
39.1417026385
 21
223.0406206228
 31
0.0
  0
LINE
  5
13C
330
1F
100
AcDbEntity
  8
0
  6
Continuous
 62
     7
370
    15
100
AcDbLine
 10
179.7292150422
 20
223.0406206228
 30
0.0
 11
191.056425856
 21
223.0406206228
 31
0.0
  0
LINE
  5
13D
330
1F
100
AcDbEntity
  8
0
  6
Continuous
 62
     7
370
    15
100
AcDbLine
 10
60.4732178016
 20
223.0406206228
 30
0.0
 11
49.1460069879
 21
223.0406206228
 31
0.0
  0
LINE
  5
13E
330
1F
100
AcDbEntity
  8
0
  6
Continuous
 62
     7
370
    15
100
AcDbLine
 10
39.1806468232
 20
320.0406220868
 30
0.0
 11
47.08870797
 21
320.0406220868
 31
0.0
  0
LINE
  5
13F
330
1F
100
AcDbEntity
  8
0
  6
Continuous
 62
     7
370
    15
100
AcDbLine
 10
193.0995836719
 20
320.0406220868
 30
0.0
 11
201.0217860206
 21
320.0406220868
 31
0.0
  0
LINE
  5
140
330
1F
100
AcDbEntity
  8
0
  6
Continuous
 62
     7
370
    15
100
AcDbLine
 10
35.6145009263
 20
342.8185519889
 30
0.0
 11
36.6031184657
 21
342.8185519889
 31
0.0
  0
LINE
  5
141
330
1F
100
AcDbEntity
  8
0
  6
Continuous
 62
     7
370
    15
100
AcDbLine
 10
203.5993143781
 20
342.8185519889
 30
0.0
 11
204.5879319175
 21
342.8185519889
 31
0.0
  0
LINE
  5
142
330
1F
100
AcDbEntity
  8
0
  6
Continuous
 62
     7
370
    15
100
AcDbLine
 10
199.1137295826
 20
352.8163594321
 30
0.0
 11
199.0995809301
 21
352.8163594321
 31
0.0
  0
LINE
  5
143
330
1F
100
AcDbEntity
  8
0
  6
Continuous
 62
     7
370
    15
100
AcDbLine
 10
197.6954594119
 20
362.8163498953
 30
0.0
 11
197.7096006139
 21
362.8163498953
 31
0.0
  0
LINE
  5
144
330
1F
100
AcDbEntity
  8
0
  6
Continuous
 62
     7
370
    15
100
AcDbLine
 10
197.7096006139
 20
362.8163498953
 30
0.0
 11
197.7096006139
 21
352.8163594321
 31
0.0
  0
LINE
  5
145
330
1F
100
AcDbEntity
  8
0
  6
Continuous
 62
     7
370
    15
100
AcDbLine
 10
196.4828923209
 20
242.8363517985
 30
0.0
 11
196.4828923209
 21
241.0383180842
 31
0.0
  0
LINE
  5
146
330
1F
100
AcDbEntity
  8
0
  6
Continuous
 62
     7
370
    15
100
AcDbLine
 10
196.468751119
 20
242.8363517985
 30
0.0
 11
196.4828923209
 21
242.8363517985
 31
0.0
  0
LINE
  5
147
330
1F
100
AcDbEntity
  8
0
  6
Continuous
 62
     7
370
    15
100
AcDbLine
 10
195.113728927
 20
367.0363587454
 30
0.0
 11
195.0995802744
 21
367.0363587454
 31
0.0
  0
LINE
  5
148
330
1F
100
AcDbEntity
  8
0
  6
Continuous
 62
     7
370
    15
100
AcDbLine
 10
195.113728927
 20
367.5363523081
 30
0.0
 11
195.0995802744
 21
367.5363523081
 31
0.0
  0
LINE
  5
149
330
1F
100
AcDbEntity
  8
0
  6
Continuous
 62
     7
370
    15
100
AcDbLine
 10
61.1028477414
 20
367.0363587454
 30
0.0
 11
61.0887065395
 21
367.0363587454
 31
0.0
  0
LINE
  5
14A
330
1F
100
AcDbEntity
  8
0
  6
Continuous
 62
     7
370
    15
100
AcDbLine
 10
61.1028477414
 20
367.5363523081
 30
0.0
 11
61.0887065395
 21
367.5363523081
 31
0.0
  0
LINE
  5
14B
330
1F
100
AcDbEntity
  8
0
  6
Continuous
 62
     7
370
    15
100
AcDbLine
 10
63.6987231537
 20
362.8163498953
 30
0.0
 11
63.6987231537
 21
353.3163529948
 31
0.0
  0
LINE
  5
14C
330
1F
100
AcDbEntity
  8
0
  6
Continuous
 62
     7
370
    15
100
AcDbLine
 10
63.6845782264
 20
362.8163498953
 30
0.0
 11
63.6987231537
 21
362.8163498953
 31
0.0
  0
LINE
  5
14D
330
1F
100
AcDbEntity
  8
0
  6
Continuous
 62
     7
370
    15
100
AcDbLine
 10
193.6137258871
 20
379.0363532618
 30
0.0
 11
193.5995846852
 21
379.0363532618
 31
0.0
  0
LINE
  5
14E
330
1F
100
AcDbEntity
  8
0
  6
Continuous
 62
     7
370
    15
100
AcDbLine
 10
59.6028484269
 20
379.0363532618
 30
0.0
 11
59.5887072249
 21
379.0363532618
 31
0.0
  0
LINE
  5
14F
330
1F
100
AcDbEntity
  8
0
  6
Continuous
 62
     8
370
     0
100
AcDbLine
 10
209.5952436193
 20
234.0406210289
 30
0.0
 11
209.5952436193
 21
227.0406208128
 31
0.0
  0
LINE
  5
150
330
1F
100
AcDbEntity
  8
0
  6
Continuous
 62
     8
370
     0
100
AcDbLine
 10
191.5229812129
 20
227.0406208128
 30
0.0
 11
191.5229812129
 21
234.0406210289
 31
0.0
  0
LINE
  5
151
330
1F
100
AcDbEntity
  8
0
  6
Continuous
 62
     8
370
     0
100
AcDbLine
 10
48.6794516309
 20
234.0406210289
 30
0.0
 11
48.6794516309
 21
227.0406208128
 31
0.0
  0
LINE
  5
152
330
1F
100
AcDbEntity
  8
0
  6
Continuous
 62
     8
370
     0
100
AcDbLine
 10
30.6071892246
 20
227.0406208128
 30
0.0
 11
30.6071892246
 21
234.0406210289
 31
0.0
  0
LINE
  5
153
330
1F
100
AcDbEntity
  8
0
  6
Continuous
 62
     8
370
     0
100
AcDbLine
 10
142.4173388495
 20
227.0406208128
 30
0.0
 11
142.5726313009
 21
223.0406206228
 31
0.0
  0
LINE
  5
154
330
1F
100
AcDbEntity
  8
0
  6
Continuous
 62
     8
370
     0
100
AcDbLine
 10
97.7850939943
 20
227.0406208128
 30
0.0
 11
97.629801543
 21
223.0406206228
 31
0.0
  0
LINE
  5
155
330
1F
100
AcDbEntity
  8
0
  6
Continuous
 62
     8
370
     0
100
AcDbLine
 10
138.9000985636
 20
227.0406208128
 30
0.0
 11
139.093772681
 21
223.0406206228
 31
0.0
  0
LINE
  5
156
330
1F
100
AcDbEntity
  8
0
  6
Continuous
 62
     8
370
     0
100
AcDbLine
 10
101.3023342802
 20
227.0406208128
 30
0.0
 11
101.1086601629
 21
223.0406206228
 31
0.0
  0
LINE
  5
157
330
1F
100
AcDbEntity
  8
0
  6
Continuous
 62
     8
370
     0
100
AcDbLine
 10
164.457122968
 20
240.0168006435
 30
0.0
 11
164.4718006118
 21
239.713636519
 31
0.0
  0
LINE
  5
158
330
1F
100
AcDbEntity
  8
0
  6
Continuous
 62
     8
370
     0
100
AcDbLine
 10
75.7453098758
 20
240.0168006435
 30
0.0
 11
75.730632232
 21
239.7136514202
 31
0.0
  0
LINE
  5
159
330
1F
100
AcDbEntity
  8
0
  6
Continuous
 62
     8
370
     0
100
AcDbLine
 10
134.7561824932
 20
227.0406208128
 30
0.0
 11
134.9498566105
 21
223.0406206228
 31
0.0
  0
LINE
  5
15A
330
1F
100
AcDbEntity
  8
0
  6
Continuous
 62
     8
370
     0
100
AcDbLine
 10
105.4462503507
 20
227.0406208128
 30
0.0
 11
105.2525762333
 21
223.0406206228
 31
0.0
  0
LINE
  5
15B
330
1F
100
AcDbEntity
  8
0
  6
Continuous
 62
     8
370
     0
100
AcDbLine
 10
161.9532510503
 20
240.3561168477
 30
0.0
 11
161.9894161685
 21
239.6092371211
 31
0.0
  0
LINE
  5
15C
330
1F
100
AcDbEntity
  8
0
  6
Continuous
 62
     8
370
     0
100
AcDbLine
 10
78.2491817935
 20
240.3561168477
 30
0.0
 11
78.2130315765
 21
239.6094885782
 31
0.0
  0
LINE
  5
15D
330
1F
100
AcDbEntity
  8
0
  6
Continuous
 62
     8
370
     0
100
AcDbLine
 10
125.0974025442
 20
227.0406208128
 30
0.0
 11
125.0842629797
 21
223.0406206228
 31
0.0
  0
LINE
  5
15E
330
1F
100
AcDbEntity
  8
0
  6
Continuous
 62
     8
370
     0
100
AcDbLine
 10
115.1050302996
 20
227.0406208128
 30
0.0
 11
115.1181698642
 21
223.0406206228
 31
0.0
  0
LINE
  5
15F
330
1F
100
AcDbEntity
  8
0
  6
Continuous
 62
     8
370
     0
100
AcDbLine
 10
72.5169658526
 20
322.4097800568
 30
0.0
 11
167.6854669913
 21
322.4097800568
 31
0.0
  0
LINE
  5
160
330
1F
100
AcDbEntity
  8
0
  6
Continuous
 62
     8
370
     0
100
AcDbLine
 10
195.1012194022
 20
317.2015187457
 30
0.0
 11
193.0995836719
 21
317.2015187457
 31
0.0
  0
LINE
  5
161
330
1F
100
AcDbEntity
  8
0
  6
Continuous
 62
     8
370
     0
100
AcDbLine
 10
181.0995854302
 20
317.2015187457
 30
0.0
 11
59.0887062116
 21
317.2015187457
 31
0.0
  0
LINE
  5
162
330
1F
100
AcDbEntity
  8
0
  6
Continuous
 62
     8
370
     0
100
AcDbLine
 10
47.08870797
 20
317.2015187457
 30
0.0
 11
45.1012134417
 21
317.2015187457
 31
0.0
  0
LINE
  5
163
330
1F
100
AcDbEntity
  8
0
  6
Continuous
 62
     8
370
     0
100
AcDbLine
 10
194.0295800432
 20
314.9033871606
 30
0.0
 11
193.0995836719
 21
314.9033871606
 31
0.0
  0
LINE
  5
164
330
1F
100
AcDbEntity
  8
0
  6
Continuous
 62
     8
370
     0
100
AcDbLine
 10
181.0995854302
 20
314.9033871606
 30
0.0
 11
59.0887062116
 21
314.9033871606
 31
0.0
  0
LINE
  5
165
330
1F
100
AcDbEntity
  8
0
  6
Continuous
 62
     8
370
     0
100
AcDbLine
 10
47.08870797
 20
314.9033871606
 30
0.0
 11
46.1728528007
 21
314.9033871606
 31
0.0
  0
LINE
  5
166
330
1F
100
AcDbEntity
  8
0
  6
Continuous
 62
     8
370
     0
100
AcDbLine
 10
195.1012194022
 20
318.0406180337
 30
0.0
 11
193.0995836719
 21
318.0406180337
 31
0.0
  0
LINE
  5
167
330
1F
100
AcDbEntity
  8
0
  6
Continuous
 62
     8
370
     0
100
AcDbLine
 10
181.0995854302
 20
318.0406180337
 30
0.0
 11
59.0887062116
 21
318.0406180337
 31
0.0
  0
LINE
  5
168
330
1F
100
AcDbEntity
  8
0
  6
Continuous
 62
     8
370
     0
100
AcDbLine
 10
47.08870797
 20
318.0406180337
 30
0.0
 11
45.1012134417
 21
318.0406180337
 31
0.0
  0
LINE
  5
169
330
1F
100
AcDbEntity
  8
0
  6
Continuous
 62
     8
370
     0
100
AcDbLine
 10
181.0995854302
 20
310.0271833256
 30
0.0
 11
59.0887062116
 21
310.0271833256
 31
0.0
  0
LINE
  5
16A
330
1F
100
AcDbEntity
  8
0
  6
Continuous
 62
     8
370
     0
100
AcDbLine
 10
205.8734625443
 20
227.0406208128
 30
0.0
 11
205.8734625443
 21
234.0406210289
 31
0.0
  0
LINE
  5
16B
330
1F
100
AcDbEntity
  8
0
  6
Continuous
 62
     8
370
     0
100
AcDbLine
 10
34.3289702996
 20
234.0406210289
 30
0.0
 11
34.3289702996
 21
227.0406208128
 31
0.0
  0
LWPOLYLINE
  5
16C
330
1F
100
AcDbEntity
  8
0
  6
Continuous
 62
     8
370
     0
100
AcDbPolyline
 90
        3
 70
   128
 43
0.0
 10
205.4656848176
 20
234.0406210289
 10
205.5917858942
 20
230.659282127
 10
205.7267382606
 20
227.0406208128
  0
LWPOLYLINE
  5
16D
330
1F
100
AcDbEntity
  8
0
  6
Continuous
 62
     8
370
     0
100
AcDbPolyline
 90
        3
 70
   128
 43
0.0
 10
34.4756945833
 20
227.0406208128
 10
34.6106469496
 20
230.659282127
 10
34.7367480262
 20
234.0406210289
  0
LINE
  5
16E
330
1F
100
AcDbEntity
  8
0
  6
Continuous
 62
     8
370
     0
100
AcDbLine
 10
181.0995854302
 20
305.8481824711
 30
0.0
 11
59.0887062116
 21
305.8481824711
 31
0.0
  0
LINE
  5
16F
330
1F
100
AcDbEntity
  8
0
  6
Continuous
 62
     8
370
     0
100
AcDbLine
 10
73.4321690961
 20
351.3163489416
 30
0.0
 11
175.0995844467
 21
351.3163489416
 31
0.0
  0
LINE
  5
170
330
1F
100
AcDbEntity
  8
0
  6
Continuous
 62
     8
370
     0
100
AcDbLine
 10
65.0887071951
 20
351.3163489416
 30
0.0
 11
73.4321690961
 21
351.3163489416
 31
0.0
  0
LINE
  5
171
330
1F
100
AcDbEntity
  8
0
  6
Continuous
 62
     8
370
     0
100
AcDbLine
 10
207.3939770325
 20
227.0406208128
 30
0.0
 11
207.4042141302
 21
223.0406206228
 31
0.0
  0
LINE
  5
172
330
1F
100
AcDbEntity
  8
0
  6
Continuous
 62
     8
370
     0
100
AcDbLine
 10
32.8084558113
 20
227.0406208128
 30
0.0
 11
32.7982187136
 21
223.0406206228
 31
0.0
  0
LINE
  5
173
330
1F
100
AcDbEntity
  8
0
  6
Continuous
 62
     8
370
     0
100
AcDbLine
 10
179.8864446445
 20
227.0406208128
 30
0.0
 11
179.7292150422
 21
223.0406206228
 31
0.0
  0
LINE
  5
174
330
1F
100
AcDbEntity
  8
0
  6
Continuous
 62
     8
370
     0
100
AcDbLine
 10
60.3159881993
 20
227.0406208128
 30
0.0
 11
60.4732178016
 21
223.0406206228
 31
0.0
  0
LINE
  5
175
330
1F
100
AcDbEntity
  8
0
  6
Continuous
 62
     8
370
     0
100
AcDbLine
 10
200.8401185139
 20
234.0406210289
 30
0.0
 11
200.8402004703
 21
234.0363527775
 31
0.0
  0
LINE
  5
176
330
1F
100
AcDbEntity
  8
0
  6
Continuous
 62
     8
370
     0
100
AcDbLine
 10
200.8829071983
 20
231.9070764944
 30
0.0
 11
201.0607302054
 21
223.0406206228
 31
0.0
  0
LINE
  5
177
330
1F
100
AcDbEntity
  8
0
  6
Continuous
 62
     8
370
     0
100
AcDbLine
 10
39.3623143299
 20
234.0406210289
 30
0.0
 11
39.3622323736
 21
234.0363527775
 31
0.0
  0
LINE
  5
178
330
1F
100
AcDbEntity
  8
0
  6
Continuous
 62
     8
370
     0
100
AcDbLine
 10
39.3193170293
 20
231.8964212328
 30
0.0
 11
39.1417026385
 21
223.0406206228
 31
0.0
  0
LINE
  5
179
330
1F
100
AcDbEntity
  8
0
  6
Continuous
 62
     8
370
     0
100
AcDbLine
 10
190.9762054547
 20
227.0406208128
 30
0.0
 11
191.056425856
 21
223.0406206228
 31
0.0
  0
LINE
  5
17A
330
1F
100
AcDbEntity
  8
0
  6
Continuous
 62
     8
370
     0
100
AcDbLine
 10
49.2262273892
 20
227.0406208128
 30
0.0
 11
49.1460069879
 21
223.0406206228
 31
0.0
  0
LINE
  5
17B
330
1F
100
AcDbEntity
  8
0
  6
Continuous
 62
     8
370
     0
100
AcDbLine
 10
36.6840764745
 20
322.4097800568
 30
0.0
 11
47.08870797
 21
322.4097800568
 31
0.0
  0
LINE
  5
17C
330
1F
100
AcDbEntity
  8
0
  6
Continuous
 62
     8
370
     0
100
AcDbLine
 10
193.0995836719
 20
322.4097800568
 30
0.0
 11
203.5183563693
 21
322.4097800568
 31
0.0
  0
LINE
  5
17D
330
1F
100
AcDbEntity
  8
0
  6
Continuous
 62
     8
370
     0
100
AcDbLine
 10
211.5665703877
 20
240.0168006435
 30
0.0
 11
211.572657512
 21
239.7133366332
 31
0.0
  0
LINE
  5
17E
330
1F
100
AcDbEntity
  8
0
  6
Continuous
 62
     8
370
     0
100
AcDbLine
 10
28.6358624562
 20
240.0168006435
 30
0.0
 11
28.6297753318
 21
239.7133459464
 31
0.0
  0
LINE
  5
17F
330
1F
100
AcDbEntity
  8
0
  6
Continuous
 62
     8
370
     0
100
AcDbLine
 10
205.5545478924
 20
240.3561168477
 30
0.0
 11
205.5618718131
 21
239.9909583047
 31
0.0
  0
LINE
  5
180
330
1F
100
AcDbEntity
  8
0
  6
Continuous
 62
     8
370
     0
100
AcDbLine
 10
34.6478849514
 20
240.3561168477
 30
0.0
 11
34.6405610307
 21
239.9909378156
 31
0.0
  0
LINE
  5
181
330
1F
100
AcDbEntity
  8
0
  6
CENTERX2
 62
     7
370
     0
100
AcDbLine
 10
120.1012164219
 20
372.2700924888
 30
0.0
 11
120.1012164219
 21
205.6439373351
 31
0.0
  0
CIRCLE
  5
182
330
1F
100
AcDbEntity
  8
0
  6
Continuous
 62
     7
370
    15
100
AcDbCircle
 10
187.113726075
 20
116.6061620508
 30
0.0
 40
6.500000000000012
  0
CIRCLE
  5
183
330
1F
100
AcDbEntity
  8
0
  6
Continuous
 62
     7
370
    15
100
AcDbCircle
 10
53.1028489045
 20
116.6203041864
 30
0.0
 40
6.500000000000012
  0
CIRCLE
  5
184
330
1F
100
AcDbEntity
  8
0
  6
Continuous
 62
     7
370
    15
100
AcDbCircle
 10
53.0887067689
 20
-17.3905729841
 30
0.0
 40
6.499999999999999
  0
CIRCLE
  5
185
330
1F
100
AcDbEntity
  8
0
  6
Continuous
 62
     7
370
    15
100
AcDbCircle
 10
187.0995839393
 20
-17.4047151197
 30
0.0
 40
6.499999999999988
  0
CIRCLE
  5
186
330
1F
100
AcDbEntity
  8
0
  6
Continuous
 62
     7
370
    15
100
AcDbCircle
 10
53.1028489045
 20
116.6203041864
 30
0.0
 40
8.000000000000009
  0
CIRCLE
  5
187
330
1F
100
AcDbEntity
  8
0
  6
Continuous
 62
     7
370
    15
100
AcDbCircle
 10
187.113726075
 20
116.6061620508
 30
0.0
 40
7.999999999999994
  0
CIRCLE
  5
188
330
1F
100
AcDbEntity
  8
0
  6
Continuous
 62
     7
370
    15
100
AcDbCircle
 10
53.0887067689
 20
-17.3905729841
 30
0.0
 40
8.000000000000002
  0
CIRCLE
  5
189
330
1F
100
AcDbEntity
  8
0
  6
Continuous
 62
     7
370
    15
100
AcDbCircle
 10
187.0995839393
 20
-17.4047151197
 30
0.0
 40
8.000000000000016
  0
LINE
  5
18A
330
1F
100
AcDbEntity
  8
0
  6
Continuous
 62
     7
370
    15
100
AcDbLine
 10
55.9420019253
 20
127.2161787253
 30
0.0
 11
45.3461289271
 21
124.3770232302
 31
0.0
  0
LINE
  5
18B
330
1F
100
AcDbEntity
  8
0
  6
Continuous
 62
     7
370
    15
100
AcDbLine
 10
63.6987231537
 20
119.4594612223
 30
0.0
 11
55.9420019253
 21
127.2161787253
 31
0.0
  0
LINE
  5
18C
330
1F
100
AcDbEntity
  8
0
  6
Continuous
 62
     7
370
    15
100
AcDbLine
 10
60.8595676585
 20
108.863588224
 30
0.0
 11
63.6987231537
 21
119.4594612223
 31
0.0
  0
LINE
  5
18D
330
1F
100
AcDbEntity
  8
0
  6
Continuous
 62
     7
370
    15
100
AcDbLine
 10
50.263690935
 20
106.0244327289
 30
0.0
 11
60.8595676585
 21
108.863588224
 31
0.0
  0
LINE
  5
18E
330
1F
100
AcDbEntity
  8
0
  6
Continuous
 62
     7
370
    15
100
AcDbLine
 10
42.5069734319
 20
113.7811502319
 30
0.0
 11
50.263690935
 21
106.0244327289
 31
0.0
  0
LINE
  5
18F
330
1F
100
AcDbEntity
  8
0
  6
Continuous
 62
     7
370
    15
100
AcDbLine
 10
45.3461289271
 20
124.3770232302
 30
0.0
 11
42.5069734319
 21
113.7811502319
 31
0.0
  0
LINE
  5
190
330
1F
100
AcDbEntity
  8
0
  6
Continuous
 62
     7
370
    15
100
AcDbLine
 10
197.7096006139
 20
113.76700903
 30
0.0
 11
194.8704451187
 21
124.3628820282
 31
0.0
  0
LINE
  5
191
330
1F
100
AcDbEntity
  8
0
  6
Continuous
 62
     7
370
    15
100
AcDbLine
 10
189.9528831108
 20
106.0102878016
 30
0.0
 11
197.7096006139
 21
113.76700903
 31
0.0
  0
LINE
  5
192
330
1F
100
AcDbEntity
  8
0
  6
Continuous
 62
     7
370
    15
100
AcDbLine
 10
179.3570101126
 20
108.8494432968
 30
0.0
 11
189.9528831108
 21
106.0102878016
 31
0.0
  0
LINE
  5
193
330
1F
100
AcDbEntity
  8
0
  6
Continuous
 62
     7
370
    15
100
AcDbLine
 10
176.5178546174
 20
119.4453200203
 30
0.0
 11
179.3570101126
 21
108.8494432968
 31
0.0
  0
LINE
  5
194
330
1F
100
AcDbEntity
  8
0
  6
Continuous
 62
     7
370
    15
100
AcDbLine
 10
184.2745721205
 20
127.2020375234
 30
0.0
 11
176.5178546174
 21
119.4453200203
 31
0.0
  0
LINE
  5
195
330
1F
100
AcDbEntity
  8
0
  6
Continuous
 62
     7
370
    15
100
AcDbLine
 10
194.8704451187
 20
124.3628820282
 30
0.0
 11
184.2745721205
 21
127.2020375234
 31
0.0
  0
LINE
  5
196
330
1F
100
AcDbEntity
  8
0
  6
Continuous
 62
     7
370
    15
100
AcDbLine
 10
184.2604309185
 20
-28.0005896586
 30
0.0
 11
194.8563039168
 21
-25.1614341635
 31
0.0
  0
LINE
  5
197
330
1F
100
AcDbEntity
  8
0
  6
Continuous
 62
     7
370
    15
100
AcDbLine
 10
176.5037096902
 20
-20.2438721556
 30
0.0
 11
184.2604309185
 21
-28.0005896586
 31
0.0
  0
LINE
  5
198
330
1F
100
AcDbEntity
  8
0
  6
Continuous
 62
     7
370
    15
100
AcDbLine
 10
179.3428651853
 20
-9.6479991573
 30
0.0
 11
176.5037096902
 21
-20.2438721556
 31
0.0
  0
LINE
  5
199
330
1F
100
AcDbEntity
  8
0
  6
Continuous
 62
     7
370
    15
100
AcDbLine
 10
189.9387419089
 20
-6.8088436622
 30
0.0
 11
179.3428651853
 21
-9.6479991573
 31
0.0
  0
LINE
  5
19A
330
1F
100
AcDbEntity
  8
0
  6
Continuous
 62
     7
370
    15
100
AcDbLine
 10
197.6954594119
 20
-14.5655611652
 30
0.0
 11
189.9387419089
 21
-6.8088436622
 31
0.0
  0
LINE
  5
19B
330
1F
100
AcDbEntity
  8
0
  6
Continuous
 62
     7
370
    15
100
AcDbLine
 10
194.8563039168
 20
-25.1614341635
 30
0.0
 11
197.6954594119
 21
-14.5655611652
 31
0.0
  0
LINE
  5
19C
330
1F
100
AcDbEntity
  8
0
  6
Continuous
 62
     7
370
    15
100
AcDbLine
 10
42.4928322299
 20
-14.5514199633
 30
0.0
 11
45.3319877251
 21
-25.1472929615
 31
0.0
  0
LINE
  5
19D
330
1F
100
AcDbEntity
  8
0
  6
Continuous
 62
     7
370
    15
100
AcDbLine
 10
50.249549733
 20
-6.7946987349
 30
0.0
 11
42.4928322299
 21
-14.5514199633
 31
0.0
  0
LINE
  5
19E
330
1F
100
AcDbEntity
  8
0
  6
Continuous
 62
     7
370
    15
100
AcDbLine
 10
60.8454227312
 20
-9.6338542301
 30
0.0
 11
50.249549733
 21
-6.7946987349
 31
0.0
  0
LINE
  5
19F
330
1F
100
AcDbEntity
  8
0
  6
Continuous
 62
     7
370
    15
100
AcDbLine
 10
63.6845782264
 20
-20.2297309536
 30
0.0
 11
60.8454227312
 21
-9.6338542301
 31
0.0
  0
LINE
  5
1A0
330
1F
100
AcDbEntity
  8
0
  6
Continuous
 62
     7
370
    15
100
AcDbLine
 10
55.9278607233
 20
-27.9864484567
 30
0.0
 11
63.6845782264
 21
-20.2297309536
 31
0.0
  0
LINE
  5
1A1
330
1F
100
AcDbEntity
  8
0
  6
Continuous
 62
     7
370
    15
100
AcDbLine
 10
45.3319877251
 20
-25.1472929615
 30
0.0
 11
55.9278607233
 21
-27.9864484567
 31
0.0
  0
CIRCLE
  5
1A2
330
1F
100
AcDbEntity
  8
0
  6
Continuous
 62
     7
370
    15
100
AcDbCircle
 10
120.1012164219
 20
49.6077945334
 30
0.0
 40
66.00000000000001
  0
CIRCLE
  5
1A3
330
1F
100
AcDbEntity
  8
0
  6
Continuous
 62
     7
370
    15
100
AcDbCircle
 10
120.1012164219
 20
49.6077945334
 30
0.0
 40
59.5
  0
CIRCLE
  5
1A4
330
1F
100
AcDbEntity
  8
0
  6
Continuous
 62
     7
370
    15
100
AcDbCircle
 10
187.113726075
 20
116.6061620508
 30
0.0
 40
12.00000000000001
  0
CIRCLE
  5
1A5
330
1F
100
AcDbEntity
  8
0
  6
Continuous
 62
     7
370
    15
100
AcDbCircle
 10
53.1028489045
 20
116.6203041864
 30
0.0
 40
12.0
  0
CIRCLE
  5
1A6
330
1F
100
AcDbEntity
  8
0
  6
Continuous
 62
     7
370
    15
100
AcDbCircle
 10
187.0995839393
 20
-17.4047151197
 30
0.0
 40
11.99999999999999
  0
CIRCLE
  5
1A7
330
1F
100
AcDbEntity
  8
0
  6
Continuous
 62
     7
370
    15
100
AcDbCircle
 10
53.0887067689
 20
-17.3905729841
 30
0.0
 40
12.00000000000001
  0
LINE
  5
1A8
330
1F
100
AcDbEntity
  8
0
  6
Continuous
 62
     7
370
    15
100
AcDbLine
 10
188.098917888
 20
128.5656502348
 30
0.0
 11
188.513796018
 21
128.9805283648
 31
0.0
  0
LINE
  5
1A9
330
1F
100
AcDbEntity
  8
0
  6
Continuous
 62
     7
370
    15
100
AcDbLine
 10
174.7252151235
 20
115.1919474703
 30
0.0
 11
175.1542344554
 21
115.6209668022
 31
0.0
  0
LINE
  5
1AA
330
1F
100
AcDbEntity
  8
0
  6
Continuous
 62
     7
370
    15
100
AcDbLine
 10
175.2756453915
 20
114.6415209275
 30
0.0
 11
174.7252151235
 21
115.1919474703
 31
0.0
  0
LINE
  5
1AB
330
1F
100
AcDbEntity
  8
0
  6
Continuous
 62
     7
370
    15
100
AcDbLine
 10
185.6853693589
 20
104.2317932349
 30
0.0
 11
185.1490840181
 21
104.7680785757
 31
0.0
  0
LINE
  5
1AC
330
1F
100
AcDbEntity
  8
0
  6
Continuous
 62
     7
370
    15
100
AcDbLine
 10
186.1024305089
 20
104.6488506597
 30
0.0
 11
185.6853693589
 21
104.2317932349
 31
0.0
  0
LINE
  5
1AD
330
1F
100
AcDbEntity
  8
0
  6
Continuous
 62
     7
370
    15
100
AcDbLine
 10
199.4739502533
 20
118.0203741294
 30
0.0
 11
199.0710377558
 21
117.6174616319
 31
0.0
  0
LINE
  5
1AE
330
1F
100
AcDbEntity
  8
0
  6
Continuous
 62
     7
370
    15
100
AcDbLine
 10
198.9573791488
 20
118.5369526845
 30
0.0
 11
199.4739502533
 21
118.0203741294
 31
0.0
  0
LINE
  5
1AF
330
1F
100
AcDbEntity
  8
0
  6
Continuous
 62
     7
370
    15
100
AcDbLine
 10
188.513796018
 20
128.9805283648
 30
0.0
 11
189.044515775
 21
128.4498086077
 31
0.0
  0
LINE
  5
1B0
330
1F
100
AcDbEntity
  8
0
  6
Continuous
 62
     7
370
    15
100
AcDbLine
 10
184.4479322298
 20
98.3981637162
 30
0.0
 11
173.8956935569
 21
87.8459213179
 31
0.0
  0
LINE
  5
1B1
330
1F
100
AcDbEntity
  8
0
  6
Continuous
 62
     7
370
    15
100
AcDbLine
 10
168.8915856047
 20
113.9545103413
 30
0.0
 11
184.4479322298
 21
98.3981637162
 31
0.0
  0
LINE
  5
1B2
330
1F
100
AcDbEntity
  8
0
  6
Continuous
 62
     7
370
    15
100
AcDbLine
 10
158.3393432065
 20
103.4022716683
 30
0.0
 11
168.8915856047
 21
113.9545103413
 31
0.0
  0
LINE
  5
1B3
330
1F
100
AcDbEntity
  8
0
  6
Continuous
 62
     7
370
    15
100
AcDbLine
 10
154.0644347533
 20
106.1984298628
 30
0.0
 11
188.513796018
 21
140.6477948528
 31
0.0
  0
LINE
  5
1B4
330
1F
100
AcDbEntity
  8
0
  6
Continuous
 62
     7
370
    15
100
AcDbLine
 10
188.513796018
 20
140.6477948528
 30
0.0
 11
211.1412167414
 21
118.0203741294
 31
0.0
  0
LINE
  5
1B5
330
1F
100
AcDbEntity
  8
0
  6
Continuous
 62
     7
370
    15
100
AcDbLine
 10
211.1412167414
 20
118.0203741294
 30
0.0
 11
176.6918517514
 21
83.5710128647
 31
0.0
  0
LINE
  5
1B6
330
1F
100
AcDbEntity
  8
0
  6
Continuous
 62
     7
370
    15
100
AcDbLine
 10
65.4772177203
 20
115.1919474703
 30
0.0
 11
64.9409323796
 21
114.6556621295
 31
0.0
  0
LINE
  5
1B7
330
1F
100
AcDbEntity
  8
0
  6
Continuous
 62
     7
370
    15
100
AcDbLine
 10
65.0601602956
 20
115.6090086204
 30
0.0
 11
65.4772177203
 21
115.1919474703
 31
0.0
  0
LINE
  5
1B8
330
1F
100
AcDbEntity
  8
0
  6
Continuous
 62
     7
370
    15
100
AcDbLine
 10
51.6886368259
 20
128.9805283648
 30
0.0
 11
52.0915493234
 21
128.5776158672
 31
0.0
  0
LINE
  5
1B9
330
1F
100
AcDbEntity
  8
0
  6
Continuous
 62
     7
370
    15
100
AcDbLine
 10
51.1720582708
 20
128.4639572602
 30
0.0
 11
51.6886368259
 21
128.9805283648
 31
0.0
  0
LINE
  5
1BA
330
1F
100
AcDbEntity
  8
0
  6
Continuous
 62
     7
370
    15
100
AcDbLine
 10
40.7284825905
 20
118.0203741294
 30
0.0
 11
41.2592023476
 21
118.5510938865
 31
0.0
  0
LINE
  5
1BB
330
1F
100
AcDbEntity
  8
0
  6
Continuous
 62
     7
370
    15
100
AcDbLine
 10
41.1433607205
 20
117.6054959994
 30
0.0
 11
40.7284825905
 21
118.0203741294
 31
0.0
  0
LINE
  5
1BC
330
1F
100
AcDbEntity
  8
0
  6
Continuous
 62
     7
370
    15
100
AcDbLine
 10
54.517063485
 20
104.2317932349
 30
0.0
 11
54.0880441531
 21
104.6608125669
 31
0.0
  0
LINE
  5
1BD
330
1F
100
AcDbEntity
  8
0
  6
Continuous
 62
     7
370
    15
100
AcDbLine
 10
55.0674900277
 20
104.782223503
 30
0.0
 11
54.517063485
 21
104.2317932349
 31
0.0
  0
LINE
  5
1BE
330
1F
100
AcDbEntity
  8
0
  6
Continuous
 62
     7
370
    15
100
AcDbLine
 10
71.3108472391
 20
113.9545103413
 30
0.0
 11
81.8630896374
 21
103.4022716683
 31
0.0
  0
LINE
  5
1BF
330
1F
100
AcDbEntity
  8
0
  6
Continuous
 62
     7
370
    15
100
AcDbLine
 10
55.754500614
 20
98.3981637162
 30
0.0
 11
71.3108472391
 21
113.9545103413
 31
0.0
  0
LINE
  5
1C0
330
1F
100
AcDbEntity
  8
0
  6
Continuous
 62
     7
370
    15
100
AcDbLine
 10
66.306739287
 20
87.8459213179
 30
0.0
 11
55.754500614
 21
98.3981637162
 31
0.0
  0
LINE
  5
1C1
330
1F
100
AcDbEntity
  8
0
  6
Continuous
 62
     7
370
    15
100
AcDbLine
 10
63.5105810924
 20
83.5710128647
 30
0.0
 11
29.0612161024
 21
118.0203741294
 31
0.0
  0
LINE
  5
1C2
330
1F
100
AcDbEntity
  8
0
  6
Continuous
 62
     7
370
    15
100
AcDbLine
 10
29.0612161024
 20
118.0203741294
 30
0.0
 11
51.6886368259
 21
140.6477948528
 31
0.0
  0
LINE
  5
1C3
330
1F
100
AcDbEntity
  8
0
  6
Continuous
 62
     7
370
    15
100
AcDbLine
 10
51.6886368259
 20
140.6477948528
 30
0.0
 11
86.1379980906
 21
106.1984298628
 31
0.0
  0
LINE
  5
1C4
330
1F
100
AcDbEntity
  8
0
  6
Continuous
 62
     7
370
    15
100
AcDbLine
 10
54.1000023349
 20
-5.433261593
 30
0.0
 11
54.517063485
 21
-5.0162041682
 31
0.0
  0
LINE
  5
1C5
330
1F
100
AcDbEntity
  8
0
  6
Continuous
 62
     7
370
    15
100
AcDbLine
 10
40.7284825905
 20
-18.8047850627
 30
0.0
 11
41.131395088
 21
-18.4018725652
 31
0.0
  0
LINE
  5
1C6
330
1F
100
AcDbEntity
  8
0
  6
Continuous
 62
     7
370
    15
100
AcDbLine
 10
41.245053695
 20
-19.3213636178
 30
0.0
 11
40.7284825905
 21
-18.8047850627
 31
0.0
  0
LINE
  5
1C7
330
1F
100
AcDbEntity
  8
0
  6
Continuous
 62
     7
370
    15
100
AcDbLine
 10
51.6886368259
 20
-29.764939298
 30
0.0
 11
51.1579170688
 21
-29.234219541
 31
0.0
  0
LINE
  5
1C8
330
1F
100
AcDbEntity
  8
0
  6
Continuous
 62
     7
370
    15
100
AcDbLine
 10
52.1035149558
 20
-29.3500611681
 30
0.0
 11
51.6886368259
 21
-29.764939298
 31
0.0
  0
LINE
  5
1C9
330
1F
100
AcDbEntity
  8
0
  6
Continuous
 62
     7
370
    15
100
AcDbLine
 10
65.4772177203
 20
-15.9763584036
 30
0.0
 11
65.0481983884
 21
-16.4053777355
 31
0.0
  0
LINE
  5
1CA
330
1F
100
AcDbEntity
  8
0
  6
Continuous
 62
     7
370
    15
100
AcDbLine
 10
64.9267874523
 20
-15.4259318608
 30
0.0
 11
65.4772177203
 21
-15.9763584036
 31
0.0
  0
LINE
  5
1CB
330
1F
100
AcDbEntity
  8
0
  6
Continuous
 62
     7
370
    15
100
AcDbLine
 10
54.517063485
 20
-5.0162041682
 30
0.0
 11
55.0533488258
 21
-5.552489509
 31
0.0
  0
LINE
  5
1CC
330
1F
100
AcDbEntity
  8
0
  6
Continuous
 62
     7
370
    15
100
AcDbLine
 10
86.1379980906
 20
-6.9828407961
 30
0.0
 11
51.6886368259
 21
-41.4322057861
 31
0.0
  0
LINE
  5
1CD
330
1F
100
AcDbEntity
  8
0
  6
Continuous
 62
     7
370
    15
100
AcDbLine
 10
51.6886368259
 20
-41.4322057861
 30
0.0
 11
29.0612161024
 21
-18.8047850627
 31
0.0
  0
LINE
  5
1CE
330
1F
100
AcDbEntity
  8
0
  6
Continuous
 62
     7
370
    15
100
AcDbLine
 10
29.0612161024
 20
-18.8047850627
 30
0.0
 11
63.5105810924
 21
15.644576202
 31
0.0
  0
LINE
  5
1CF
330
1F
100
AcDbEntity
  8
0
  6
Continuous
 62
     7
370
    15
100
AcDbLine
 10
55.754500614
 20
0.8174253505
 30
0.0
 11
66.306739287
 21
11.3696677488
 31
0.0
  0
LINE
  5
1D0
330
1F
100
AcDbEntity
  8
0
  6
Continuous
 62
     7
370
    15
100
AcDbLine
 10
71.3108472391
 20
-14.7389212746
 30
0.0
 11
55.754500614
 21
0.8174253505
 31
0.0
  0
LINE
  5
1D1
330
1F
100
AcDbEntity
  8
0
  6
Continuous
 62
     7
370
    15
100
AcDbLine
 10
81.8630896374
 20
-4.1866826016
 30
0.0
 11
71.3108472391
 21
-14.7389212746
 31
0.0
  0
LINE
  5
1D2
330
1F
100
AcDbEntity
  8
0
  6
Continuous
 62
     7
370
    15
100
AcDbLine
 10
175.1422725483
 20
-16.3934195537
 30
0.0
 11
174.7252151235
 21
-15.9763584036
 31
0.0
  0
LINE
  5
1D3
330
1F
100
AcDbEntity
  8
0
  6
Continuous
 62
     7
370
    15
100
AcDbLine
 10
188.513796018
 20
-29.764939298
 30
0.0
 11
188.1108835204
 21
-29.3620268005
 31
0.0
  0
LINE
  5
1D4
330
1F
100
AcDbEntity
  8
0
  6
Continuous
 62
     7
370
    15
100
AcDbLine
 10
189.0303745731
 20
-29.2483681935
 30
0.0
 11
188.513796018
 21
-29.764939298
 31
0.0
  0
LINE
  5
1D5
330
1F
100
AcDbEntity
  8
0
  6
Continuous
 62
     7
370
    15
100
AcDbLine
 10
199.4739502533
 20
-18.8047850627
 30
0.0
 11
198.9432304962
 21
-19.3355048198
 31
0.0
  0
LINE
  5
1D6
330
1F
100
AcDbEntity
  8
0
  6
Continuous
 62
     7
370
    15
100
AcDbLine
 10
199.0590721234
 20
-18.3899069327
 30
0.0
 11
199.4739502533
 21
-18.8047850627
 31
0.0
  0
LINE
  5
1D7
330
1F
100
AcDbEntity
  8
0
  6
Continuous
 62
     7
370
    15
100
AcDbLine
 10
185.6853693589
 20
-5.0162041682
 30
0.0
 11
186.1143886908
 21
-5.4452235001
 31
0.0
  0
LINE
  5
1D8
330
1F
100
AcDbEntity
  8
0
  6
Continuous
 62
     7
370
    15
100
AcDbLine
 10
185.1349428161
 20
-5.5666344363
 30
0.0
 11
185.6853693589
 21
-5.0162041682
 31
0.0
  0
LINE
  5
1D9
330
1F
100
AcDbEntity
  8
0
  6
Continuous
 62
     7
370
    15
100
AcDbLine
 10
174.7252151235
 20
-15.9763584036
 30
0.0
 11
175.2615004643
 21
-15.4400730628
 31
0.0
  0
LINE
  5
1DA
330
1F
100
AcDbEntity
  8
0
  6
Continuous
 62
     7
370
    15
100
AcDbLine
 10
211.1412167414
 20
-18.8047850627
 30
0.0
 11
188.513796018
 21
-41.4322057861
 31
0.0
  0
LINE
  5
1DB
330
1F
100
AcDbEntity
  8
0
  6
Continuous
 62
     7
370
    15
100
AcDbLine
 10
188.513796018
 20
-41.4322057861
 30
0.0
 11
154.0644347533
 21
-6.9828407961
 31
0.0
  0
LINE
  5
1DC
330
1F
100
AcDbEntity
  8
0
  6
Continuous
 62
     7
370
    15
100
AcDbLine
 10
168.8915856047
 20
-14.7389212746
 30
0.0
 11
158.3393432065
 21
-4.1866826016
 31
0.0
  0
LINE
  5
1DD
330
1F
100
AcDbEntity
  8
0
  6
Continuous
 62
     7
370
    15
100
AcDbLine
 10
184.4479322298
 20
0.8174253505
 30
0.0
 11
168.8915856047
 21
-14.7389212746
 31
0.0
  0
LINE
  5
1DE
330
1F
100
AcDbEntity
  8
0
  6
Continuous
 62
     7
370
    15
100
AcDbLine
 10
173.8956935569
 20
11.3696677488
 30
0.0
 11
184.4479322298
 21
0.8174253505
 31
0.0
  0
LINE
  5
1DF
330
1F
100
AcDbEntity
  8
0
  6
Continuous
 62
     7
370
    15
100
AcDbLine
 10
176.6918517514
 20
15.644576202
 30
0.0
 11
211.1412167414
 21
-18.8047850627
 31
0.0
  0
ARC
  5
1E0
330
1F
100
AcDbEntity
  8
0
  6
Continuous
 62
     7
370
    15
100
AcDbCircle
 10
120.1012164219
 20
49.6077945334
 30
0.0
 40
84.4867192015897
100
AcDbArc
 50
55.9165383955
 51
124.0834616045
  0
ARC
  5
1E1
330
1F
100
AcDbEntity
  8
0
  6
Continuous
 62
     7
370
    15
100
AcDbCircle
 10
120.1012164219
 20
49.6077945334
 30
0.0
 40
84.48671920158971
100
AcDbArc
 50
325.9165383955
 51
34.0834616045
  0
ARC
  5
1E2
330
1F
100
AcDbEntity
  8
0
  6
Continuous
 62
     7
370
    15
100
AcDbCircle
 10
120.1012164219
 20
49.6077945334
 30
0.0
 40
84.48671920158971
100
AcDbArc
 50
145.9165383955
 51
214.0834616045
  0
ARC
  5
1E3
330
1F
100
AcDbEntity
  8
0
  6
Continuous
 62
     7
370
    15
100
AcDbCircle
 10
120.1012164219
 20
49.6077945334
 30
0.0
 40
84.48671920158971
100
AcDbArc
 50
235.9165383955
 51
304.0834616045
  0
CIRCLE
  5
1E4
330
1F
100
AcDbEntity
  8
0
  6
Continuous
 62
     7
370
    15
100
AcDbCircle
 10
120.1012164219
 20
49.6077945334
 30
0.0
 40
50.0
  0
CIRCLE
  5
1E5
330
1F
100
AcDbEntity
  8
0
  6
Continuous
 62
     7
370
    15
100
AcDbCircle
 10
120.1012164219
 20
49.6077945334
 30
0.0
 40
114.5
  0
SPLINE
  5
1E6
330
1F
100
AcDbEntity
  8
0
  6
Continuous
 62
     7
370
    15
100
AcDbSpline
210
0.0
220
0.0
230
1.0
 70
     8
 71
     3
 72
    15
 73
    11
 74
     0
 42
0.00000001
 43
0.00000001
 12
1.0
 22
0.0
 32
0.0
 13
1.0
 23
0.0
 33
0.0
 40
0.0
 40
0.0
 40
0.0
 40
0.0
 40
0.1173846664117271
 40
0.2350664266729861
 40
0.3527490583545713
 40
0.4701322221572281
 40
0.6092068789658996
 40
0.7487799236110442
 40
0.8883516021018099
 40
1.0
 40
1.0
 40
1.0
 40
1.0
 10
93.83560082455207
 20
-35.84553693713244
 30
0.0
 10
93.9077526065918
 20
-35.65897472976395
 30
0.0
 10
94.05223878268808
 20
-35.28537813679402
 30
0.0
 10
94.21772774294564
 20
-34.7069848688934
 30
0.0
 10
94.3450198249802
 20
-34.11937858737274
 30
0.0
 10
94.4346190481918
 20
-33.48785643029215
 30
0.0
 10
94.47677139103592
 20
-32.81363568825502
 30
0.0
 10
94.45945617267884
 20
-32.10083292909977
 30
0.0
 10
94.39420367092319
 20
-31.43694336179378
 30
0.0
 10
94.30660820519444
 20
-31.01772595819448
 30
0.0
 10
94.26767861981918
 20
-30.83141540469224
 30
0.0
  0
SPLINE
  5
1E7
330
1F
100
AcDbEntity
  8
0
  6
Continuous
 62
     7
370
    15
100
AcDbSpline
210
0.0
220
0.0
230
1.0
 70
     8
 71
     3
 72
    15
 73
    11
 74
     0
 42
0.00000001
 43
0.00000001
 12
1.0
 22
0.0
 32
0.0
 13
1.0
 23
0.0
 33
0.0
 40
0.0
 40
0.0
 40
0.0
 40
0.0
 40
0.0540759171350731
 40
0.1925687251969806
 40
0.3312549205982472
 40
0.4704351303809258
 40
0.6096162924961697
 40
0.7483020713141512
 40
0.8741514668563903
 40
1.0
 40
1.0
 40
1.0
 40
1.0
 10
81.49793668230106
 20
-25.53625052155549
 30
0.0
 10
81.4191346911907
 20
-25.58435371790778
 30
0.0
 10
81.13851441186748
 20
-25.75565310015077
 30
0.0
 10
80.68990438459323
 20
-26.10202027777174
 30
0.0
 10
80.15742529470877
 20
-26.57300521997599
 30
0.0
 10
79.66785990346048
 20
-27.09083199804003
 30
0.0
 10
79.2221241074738
 20
-27.64655629481079
 30
0.0
 10
78.83850495240364
 20
-28.21950662736954
 30
0.0
 10
78.51057840095041
 20
-28.8003532187375
 30
0.0
 10
78.33631379697323
 20
-29.19307154541495
 30
0.0
 10
78.2491817935281
 20
-29.3894300359636
 30
0.0
  0
LINE
  5
1E8
330
1F
100
AcDbEntity
  8
0
  6
Continuous
 62
     7
370
    15
100
AcDbLine
 10
78.2491817935
 20
-29.389430036
 30
0.0
 11
75.7453098758
 21
-35.3878403205
 31
0.0
  0
SPLINE
  5
1E9
330
1F
100
AcDbEntity
  8
0
  6
Continuous
 62
     7
370
    15
100
AcDbSpline
210
0.0
220
0.0
230
1.0
 70
     8
 71
     3
 72
    49
 73
    45
 74
     0
 42
0.00000001
 43
0.00000001
 12
1.0
 22
0.0
 32
0.0
 13
1.0
 23
0.0
 33
0.0
 40
0.0
 40
0.0
 40
0.0
 40
0.0
 40
0.0624999999999992
 40
0.0624999999999992
 40
0.1249999999999984
 40
0.1249999999999984
 40
0.1874999999999976
 40
0.1874999999999976
 40
0.2187499999999973
 40
0.2187499999999973
 40
0.2499999999999969
 40
0.2812499999999966
 40
0.2812499999999966
 40
0.3124999999999963
 40
0.3124999999999963
 40
0.3749999999999966
 40
0.3749999999999966
 40
0.4062499999999964
 40
0.4062499999999964
 40
0.4374999999999962
 40
0.4374999999999962
 40
0.4999999999999959
 40
0.4999999999999959
 40
0.5312499999999958
 40
0.5312499999999958
 40
0.5624999999999958
 40
0.5624999999999958
 40
0.6249999999999962
 40
0.6249999999999962
 40
0.6874999999999968
 40
0.6874999999999968
 40
0.7187499999999971
 40
0.7187499999999971
 40
0.7499999999999973
 40
0.7499999999999973
 40
0.8124999999999981
 40
0.8124999999999981
 40
0.8749999999999988
 40
0.8749999999999988
 40
0.9374999999999996
 40
0.9374999999999996
 40
0.9687499999999999
 40
0.9687499999999999
 40
1.0
 40
1.0
 40
1.0
 40
1.0
 10
75.74530922927617
 20
-35.38784226401134
 30
0.0
 10
75.53152492569662
 20
-35.89999461606447
 30
0.0
 10
75.37014349739447
 20
-36.42716399760555
 30
0.0
 10
75.15105620585668
 20
-37.51121023567214
 30
0.0
 10
75.09437481989565
 20
-38.07204520370038
 30
0.0
 10
75.09189450826392
 20
-39.17681471922935
 30
0.0
 10
75.14429277460363
 20
-39.72608117322626
 30
0.0
 10
75.3051565681894
 20
-40.54519405161622
 30
0.0
 10
75.37281497695952
 20
-40.81749947921374
 30
0.0
 10
75.53287630115507
 20
-41.34844396372946
 30
0.0
 10
75.71818812276527
 20
-41.86884041768166
 30
0.0
 10
75.95320362283393
 20
-42.36847265870868
 30
0.0
 10
76.21339565021704
 20
-42.85758655543994
 30
0.0
 10
76.356872428235
 20
-43.09803912937468
 30
0.0
 10
76.82077136859887
 20
-43.79428655559106
 30
0.0
 10
77.1710760837961
 20
-44.22145467410374
 30
0.0
 10
77.75637377105573
 20
-44.80825787889427
 30
0.0
 10
77.96151873103763
 20
-44.99480228374655
 30
0.0
 10
78.39250232654143
 20
-45.34923457615329
 30
0.0
 10
78.61736549209658
 20
-45.51612124205241
 30
0.0
 10
79.30842681718497
 20
-45.97819827595858
 30
0.0
 10
79.79507627514637
 20
-46.23866613542324
 30
0.0
 10
80.564143890469
 20
-46.55766129783308
 30
0.0
 10
80.8285836538974
 20
-46.65235549763582
 30
0.0
 10
81.36150267504676
 20
-46.81384682865142
 30
0.0
 10
81.63018531528576
 20
-46.8809298005707
 30
0.0
 10
82.4427393132957
 20
-47.04219387023434
 30
0.0
 10
82.9930530327361
 20
-47.09678180773716
 30
0.0
 10
84.11156449054376
 20
-47.09604226982801
 30
0.0
 10
84.66323916816629
 20
-47.04051263326902
 30
0.0
 10
85.47503096303842
 20
-46.87816847367642
 30
0.0
 10
85.74326426231904
 20
-46.81078013130088
 30
0.0
 10
86.27490333935347
 20
-46.64889925672642
 30
0.0
 10
86.53929830175319
 20
-46.55386485075394
 30
0.0
 10
87.30851764819292
 20
-46.23361699320491
 30
0.0
 10
87.7945061918109
 20
-45.97254378017595
 30
0.0
 10
88.71348363276242
 20
-45.35640958912862
 30
0.0
 10
89.1485541565103
 20
-44.99779869368525
 30
0.0
 10
89.9278847260085
 20
-44.21467529130292
 30
0.0
 10
90.27716426222158
 20
-43.78765702543976
 30
0.0
 10
90.73921373750919
 20
-43.09281575369704
 30
0.0
 10
90.88272539063011
 20
-42.85188783915837
 30
0.0
 10
91.14256826743505
 20
-42.36235976611284
 30
0.0
 10
91.25981388419686
 20
-42.1124774086697
 30
0.0
 10
91.3645880328284
 20
-41.85755937892947
 30
0.0
  0
LINE
  5
1EA
330
1F
100
AcDbEntity
  8
0
  6
Continuous
 62
     7
370
    15
100
AcDbLine
 10
91.3645878299
 20
-41.8575594324
 30
0.0
 11
93.8356008246
 21
-35.8455369371
 31
0.0
  0
SPLINE
  5
1EB
330
1F
100
AcDbEntity
  8
0
  6
Continuous
 62
     7
370
    15
100
AcDbSpline
210
0.0
220
0.0
230
1.0
 70
     8
 71
     3
 72
    15
 73
    11
 74
     0
 42
0.00000001
 43
0.00000001
 12
1.0
 22
0.0
 32
0.0
 13
1.0
 23
0.0
 33
0.0
 40
0.0
 40
0.0
 40
0.0
 40
0.0
 40
0.14345451114948
 40
0.2869093662629702
 40
0.425778799387751
 40
0.5651454023814224
 40
0.7045121607552602
 40
0.8433819875336143
 40
0.9822267936745203
 40
1.0
 40
1.0
 40
1.0
 40
1.0
 10
161.9532510503106
 20
-29.3894300359636
 30
0.0
 10
161.8532349807975
 20
-29.16591534175754
 30
0.0
 10
161.6532026019606
 20
-28.71888541741939
 30
0.0
 10
161.2849365370481
 20
-28.09121613577939
 30
0.0
 10
160.8716714612482
 20
-27.50153742987166
 30
0.0
 10
160.4134490057795
 20
-26.95498456627007
 30
0.0
 10
159.9124603626462
 20
-26.44686235693999
 30
0.0
 10
159.3681081342423
 20
-25.98824822380342
 30
0.0
 10
158.9637128397591
 20
-25.68434248694362
 30
0.0
 10
158.7333366477448
 20
-25.54876728959038
 30
0.0
 10
158.7071932717137
 20
-25.53338204802569
 30
0.0
  0
SPLINE
  5
1EC
330
1F
100
AcDbEntity
  8
0
  6
Continuous
 62
     7
370
    15
100
AcDbSpline
210
0.0
220
0.0
230
1.0
 70
     8
 71
     3
 72
    15
 73
    11
 74
     0
 42
0.00000001
 43
0.00000001
 12
1.0
 22
0.0
 32
0.0
 13
1.0
 23
0.0
 33
0.0
 40
0.0
 40
0.0
 40
0.0
 40
0.0
 40
0.0093203297696217
 40
0.148118650007748
 40
0.2874119107693225
 40
0.4267054151938751
 40
0.5655038522589806
 40
0.710242300157903
 40
0.855261323389181
 40
1.0
 40
1.0
 40
1.0
 40
1.0
 10
145.9323663129382
 20
-30.82859163464601
 30
0.0
 10
145.9283438184391
 20
-30.84396340629796
 30
0.0
 10
145.8644183491047
 20
-31.08825155077281
 30
0.0
 10
145.7957666178062
 20
-31.57507804119897
 30
0.0
 10
145.7310600048941
 20
-32.28352968563575
 30
0.0
 10
145.7320621206071
 20
-32.99598114844686
 30
0.0
 10
145.7915483343327
 20
-33.71490441397894
 30
0.0
 10
145.9171108350267
 20
-34.43511313612131
 30
0.0
 10
146.1029060756273
 20
-35.15326740275702
 30
0.0
 10
146.2789134683418
 20
-35.61492931485149
 30
0.0
 10
146.3668320192866
 20
-35.84553693713242
 30
0.0
  0
LINE
  5
1ED
330
1F
100
AcDbEntity
  8
0
  6
Continuous
 62
     7
370
    15
100
AcDbLine
 10
146.3668320193
 20
-35.8455369371
 30
0.0
 11
148.8378450139
 21
-41.8575594324
 31
0.0
  0
SPLINE
  5
1EE
330
1F
100
AcDbEntity
  8
0
  6
Continuous
 62
     7
370
    15
100
AcDbSpline
210
0.0
220
0.0
230
1.0
 70
     8
 71
     3
 72
    51
 73
    47
 74
     0
 42
0.00000001
 43
0.00000001
 12
1.0
 22
0.0
 32
0.0
 13
1.0
 23
0.0
 33
0.0
 40
0.0
 40
0.0
 40
0.0
 40
0.0
 40
0.0312499999999993
 40
0.0312499999999993
 40
0.0624999999999985
 40
0.0624999999999985
 40
0.1249999999999969
 40
0.1249999999999969
 40
0.1562499999999961
 40
0.1562499999999961
 40
0.1874999999999952
 40
0.1874999999999952
 40
0.2499999999999942
 40
0.2499999999999942
 40
0.2812499999999938
 40
0.2812499999999938
 40
0.3124999999999933
 40
0.3124999999999933
 40
0.3749999999999924
 40
0.3749999999999924
 40
0.4374999999999915
 40
0.4374999999999915
 40
0.468749999999991
 40
0.468749999999991
 40
0.4999999999999906
 40
0.4999999999999906
 40
0.5624999999999898
 40
0.5624999999999898
 40
0.6249999999999889
 40
0.6249999999999889
 40
0.6874999999999881
 40
0.6874999999999881
 40
0.7187499999999885
 40
0.7187499999999885
 40
0.7499999999999887
 40
0.7812499999999889
 40
0.7812499999999889
 40
0.8124999999999892
 40
0.8124999999999892
 40
0.8749999999999911
 40
0.8749999999999911
 40
0.906249999999993
 40
0.906249999999993
 40
0.9374999999999948
 40
0.9374999999999948
 40
1.0
 40
1.0
 40
1.0
 40
1.0
 10
148.8378448110084
 20
-41.85755937893006
 30
0.0
 10
148.942612925059
 20
-42.11246272638942
 30
0.0
 10
149.0597878564968
 20
-42.36217654226738
 30
0.0
 10
149.319265326691
 20
-42.85109351083269
 30
0.0
 10
149.4623466731592
 20
-43.09143513589178
 30
0.0
 10
149.9251027680076
 20
-43.78754450980303
 30
0.0
 10
150.2746018125496
 20
-44.21469282183028
 30
0.0
 10
150.8586030767028
 20
-44.80159091230993
 30
0.0
 10
151.0633010513761
 20
-44.98818791846125
 30
0.0
 10
151.4933539191391
 20
-45.34277348965225
 30
0.0
 10
151.7178549619071
 20
-45.50985174261861
 30
0.0
 10
152.4077651717874
 20
-45.97249368506063
 30
0.0
 10
152.8936567567789
 20
-46.23342312759648
 30
0.0
 10
153.6615846619211
 20
-46.55326258540053
 30
0.0
 10
153.925650573741
 20
-46.64827540122024
 30
0.0
 10
154.4581798647885
 20
-46.81053052772395
 30
0.0
 10
154.7266787544065
 20
-46.87800201068014
 30
0.0
 10
155.5387120546116
 20
-47.04045994049594
 30
0.0
 10
156.0887191761577
 20
-47.09588052865918
 30
0.0
 10
157.2066903765639
 20
-47.09693965734012
 30
0.0
 10
157.7590641845153
 20
-47.04225962083823
 30
0.0
 10
158.571255869153
 20
-46.88115611610091
 30
0.0
 10
158.8396271379341
 20
-46.81417690065109
 30
0.0
 10
159.3715538577553
 20
-46.65311540672129
 30
0.0
 10
159.636235426255
 20
-46.5584508534474
 30
0.0
 10
160.4066360784927
 20
-46.23908881827936
 30
0.0
 10
160.8933452993473
 20
-45.97852690269168
 30
0.0
 10
161.8136959566288
 20
-45.36336197079857
 30
0.0
 10
162.2496852087606
 20
-45.00501894493198
 30
0.0
 10
163.0308353447507
 20
-44.22209507557544
 30
0.0
 10
163.3809049915969
 20
-43.79515062038831
 30
0.0
 10
163.8440419687981
 20
-43.10045292952896
 30
0.0
 10
163.9879974274903
 20
-42.85942031601756
 30
0.0
 10
164.2486496502543
 20
-42.36968220986301
 30
0.0
 10
164.4838794507934
 20
-41.869727989162
 30
0.0
 10
164.6691236068294
 20
-41.34968800430978
 30
0.0
 10
164.8290765880907
 20
-40.81948587022075
 30
0.0
 10
164.8966522639624
 20
-40.54797248783169
 30
0.0
 10
165.0580449889461
 20
-39.72735837458299
 30
0.0
 10
165.1104507917425
 20
-39.17778875323645
 30
0.0
 10
165.10872632773
 20
-38.34980885568839
 30
0.0
 10
165.0946654043192
 20
-38.0732069114178
 30
0.0
 10
165.0387897736113
 20
-37.51875106076891
 30
0.0
 10
164.9969402665305
 20
-37.24210909052342
 30
0.0
 10
164.8325159724185
 20
-36.42778619648496
 30
0.0
 10
164.6709690799478
 20
-35.90014113834523
 30
0.0
 10
164.4571236145608
 20
-35.38784226401226
 30
0.0
  0
LINE
  5
1EF
330
1F
100
AcDbEntity
  8
0
  6
Continuous
 62
     7
370
    15
100
AcDbLine
 10
164.457122968
 20
-35.3878403205
 30
0.0
 11
161.9532510503
 21
-29.389430036
 31
0.0
  0
SPLINE
  5
1F0
330
1F
100
AcDbEntity
  8
0
  6
Continuous
 62
     7
370
    15
100
AcDbSpline
210
0.0
220
0.0
230
1.0
 70
     8
 71
     3
 72
    15
 73
    11
 74
     0
 42
0.00000001
 43
0.00000001
 12
1.0
 22
0.0
 32
0.0
 13
1.0
 23
0.0
 33
0.0
 40
0.0
 40
0.0
 40
0.0
 40
0.0
 40
0.1173846664117271
 40
0.2350664266729861
 40
0.3527490583545713
 40
0.4701322221572281
 40
0.6092068789658996
 40
0.7487799236110442
 40
0.8883516021018099
 40
1.0
 40
1.0
 40
1.0
 40
1.0
 10
205.5545478924089
 20
23.34217893598979
 30
0.0
 10
205.3679856850404
 20
23.41433071802952
 30
0.0
 10
204.9943890920705
 20
23.5588168941258
 30
0.0
 10
204.4159958241698
 20
23.72430585438336
 30
0.0
 10
203.8283895426492
 20
23.85159793641791
 30
0.0
 10
203.1968673855686
 20
23.94119715962952
 30
0.0
 10
202.5226466435315
 20
23.98334950247364
 30
0.0
 10
201.8098438843762
 20
23.96603428411656
 30
0.0
 10
201.1459543170702
 20
23.90078178236092
 30
0.0
 10
200.7267369134709
 20
23.81318631663216
 30
0.0
 10
200.5404263599686
 20
23.77425673125689
 30
0.0
  0
SPLINE
  5
1F1
330
1F
100
AcDbEntity
  8
0
  6
Continuous
 62
     7
370
    15
100
AcDbSpline
210
0.0
220
0.0
230
1.0
 70
     8
 71
     3
 72
    15
 73
    11
 74
     0
 42
0.00000001
 43
0.00000001
 12
1.0
 22
0.0
 32
0.0
 13
1.0
 23
0.0
 33
0.0
 40
0.0
 40
0.0
 40
0.0
 40
0.0
 40
0.0540759171350731
 40
0.1925687251969806
 40
0.3312549205982472
 40
0.4704351303809258
 40
0.6096162924961697
 40
0.7483020713141512
 40
0.8741514668563903
 40
1.0
 40
1.0
 40
1.0
 40
1.0
 10
195.2452614768319
 20
11.00451479373878
 30
0.0
 10
195.2933646731842
 20
10.92571280262843
 30
0.0
 10
195.4646640554272
 20
10.64509252330521
 30
0.0
 10
195.8110312330482
 20
10.19648249603096
 30
0.0
 10
196.2820161752524
 20
9.664003406146495
 30
0.0
 10
196.7998429533165
 20
9.174438014898207
 30
0.0
 10
197.3555672500872
 20
8.728702218911518
 30
0.0
 10
197.928517582646
 20
8.34508306384136
 30
0.0
 10
198.5093641740139
 20
8.01715651238813
 30
0.0
 10
198.9020825006914
 20
7.842891908410941
 30
0.0
 10
199.09844099124
 20
7.755759904965812
 30
0.0
  0
LINE
  5
1F2
330
1F
100
AcDbEntity
  8
0
  6
Continuous
 62
     7
370
    15
100
AcDbLine
 10
199.0984409912
 20
7.755759905
 30
0.0
 11
205.0968512758
 21
5.2518879872
 31
0.0
  0
SPLINE
  5
1F3
330
1F
100
AcDbEntity
  8
0
  6
Continuous
 62
     7
370
    15
100
AcDbSpline
210
0.0
220
0.0
230
1.0
 70
     8
 71
     3
 72
    49
 73
    45
 74
     0
 42
0.00000001
 43
0.00000001
 12
1.0
 22
0.0
 32
0.0
 13
1.0
 23
0.0
 33
0.0
 40
0.0
 40
0.0
 40
0.0
 40
0.0
 40
0.0624999999999998
 40
0.0624999999999998
 40
0.1249999999999995
 40
0.1249999999999995
 40
0.1874999999999993
 40
0.1874999999999993
 40
0.2187499999999993
 40
0.2187499999999993
 40
0.2499999999999992
 40
0.2812499999999992
 40
0.2812499999999992
 40
0.3124999999999992
 40
0.3124999999999992
 40
0.3750000000000008
 40
0.3750000000000008
 40
0.4062500000000013
 40
0.4062500000000013
 40
0.4375000000000019
 40
0.4375000000000019
 40
0.500000000000003
 40
0.500000000000003
 40
0.5312500000000032
 40
0.5312500000000032
 40
0.5625000000000034
 40
0.5625000000000034
 40
0.6250000000000032
 40
0.6250000000000032
 40
0.687500000000003
 40
0.687500000000003
 40
0.7187500000000029
 40
0.7187500000000029
 40
0.7500000000000027
 40
0.7500000000000027
 40
0.8125000000000019
 40
0.8125000000000019
 40
0.8750000000000011
 40
0.8750000000000011
 40
0.9375000000000006
 40
0.9375000000000006
 40
0.9687500000000003
 40
0.9687500000000003
 40
1.0
 40
1.0
 40
1.0
 40
1.0
 10
205.0968532192879
 20
5.251887340714189
 30
0.0
 10
205.6090055713411
 20
5.038103037134631
 30
0.0
 10
206.1361749528822
 20
4.876721608832464
 30
0.0
 10
207.2202211909487
 20
4.657634317294705
 30
0.0
 10
207.7810561589769
 20
4.600952931333654
 30
0.0
 10
208.885825674506
 20
4.59847261970197
 30
0.0
 10
209.4350921285029
 20
4.650870886041665
 30
0.0
 10
210.2542050068928
 20
4.811734679627443
 30
0.0
 10
210.5265104344903
 20
4.879393088397556
 30
0.0
 10
211.057454919006
 20
5.03945441259309
 30
0.0
 10
211.5778514456729
 20
5.224766057491462
 30
0.0
 10
212.0774836139853
 20
5.459781734271959
 30
0.0
 10
212.5665975107165
 20
5.719973761655075
 30
0.0
 10
212.8070500846513
 20
5.863450539673035
 30
0.0
 10
213.5032975108677
 20
6.327349480036895
 30
0.0
 10
213.9304656293803
 20
6.677654195234154
 30
0.0
 10
214.5172688341709
 20
7.262951882493776
 30
0.0
 10
214.7038132390232
 20
7.468096842475645
 30
0.0
 10
215.0582455314299
 20
7.899080437979489
 30
0.0
 10
215.225132197329
 20
8.123943603534613
 30
0.0
 10
215.6872092312351
 20
8.815004928622985
 30
0.0
 10
215.9476770906998
 20
9.30165438658441
 30
0.0
 10
216.2666722531097
 20
10.07072200190706
 30
0.0
 10
216.3613664529124
 20
10.33516176533546
 30
0.0
 10
216.522857783928
 20
10.86808078648481
 30
0.0
 10
216.5899407558473
 20
11.13676342672381
 30
0.0
 10
216.7512048255109
 20
11.94931742473376
 30
0.0
 10
216.8057927630137
 20
12.49963114417415
 30
0.0
 10
216.8050532251046
 20
13.6181426019818
 30
0.0
 10
216.7495235885457
 20
14.16981727960433
 30
0.0
 10
216.5871794289529
 20
14.98160907447648
 30
0.0
 10
216.5197910865775
 20
15.24984237375709
 30
0.0
 10
216.3579102120029
 20
15.78148145079154
 30
0.0
 10
216.2628758060304
 20
16.04587641319127
 30
0.0
 10
215.9426279484814
 20
16.81509575963101
 30
0.0
 10
215.6815547354525
 20
17.30108430324896
 30
0.0
 10
215.0654205444051
 20
18.22006174420047
 30
0.0
 10
214.7068096489618
 20
18.65513226794834
 30
0.0
 10
213.9236862465795
 20
19.43446283744656
 30
0.0
 10
213.4966679807163
 20
19.78374237365962
 30
0.0
 10
212.8018267089736
 20
20.24579184894724
 30
0.0
 10
212.5608987944349
 20
20.38930350206816
 30
0.0
 10
212.0713707213894
 20
20.64914637887307
 30
0.0
 10
211.8214883639463
 20
20.76639199563489
 30
0.0
 10
211.566570334206
 20
20.87116614426642
 30
0.0
  0
LINE
  5
1F4
330
1F
100
AcDbEntity
  8
0
  6
Continuous
 62
     7
370
    15
100
AcDbLine
 10
211.5665703877
 20
20.8711659413
 30
0.0
 11
205.5545478924
 21
23.342178936
 31
0.0
  0
SPLINE
  5
1F5
330
1F
100
AcDbEntity
  8
0
  6
Continuous
 62
     7
370
    15
100
AcDbSpline
210
0.0
220
0.0
230
1.0
 70
     8
 71
     3
 72
    15
 73
    11
 74
     0
 42
0.00000001
 43
0.00000001
 12
1.0
 22
0.0
 32
0.0
 13
1.0
 23
0.0
 33
0.0
 40
0.0
 40
0.0
 40
0.0
 40
0.0
 40
0.14345451114948
 40
0.2869093662629702
 40
0.425778799387751
 40
0.5651454023814224
 40
0.7045121607552602
 40
0.8433819875336143
 40
0.9822267936745203
 40
1.0
 40
1.0
 40
1.0
 40
1.0
 10
199.09844099124
 20
91.45982916174835
 30
0.0
 10
198.874926297034
 20
91.35981309223523
 30
0.0
 10
198.4278963726958
 20
91.15978071339828
 30
0.0
 10
197.8002270910558
 20
90.79151464848579
 30
0.0
 10
197.2105483851481
 20
90.37824957268586
 30
0.0
 10
196.6639955215465
 20
89.92002711721716
 30
0.0
 10
196.1558733122164
 20
89.41903847408398
 30
0.0
 10
195.6972591790799
 20
88.87468624568007
 30
0.0
 10
195.39335344222
 20
88.47029095119686
 30
0.0
 10
195.2577782448668
 20
88.23991475918255
 30
0.0
 10
195.2423930033021
 20
88.21377138315148
 30
0.0
  0
SPLINE
  5
1F6
330
1F
100
AcDbEntity
  8
0
  6
Continuous
 62
     7
370
    15
100
AcDbSpline
210
0.0
220
0.0
230
1.0
 70
     8
 71
     3
 72
    15
 73
    11
 74
     0
 42
0.00000001
 43
0.00000001
 12
1.0
 22
0.0
 32
0.0
 13
1.0
 23
0.0
 33
0.0
 40
0.0
 40
0.0
 40
0.0
 40
0.0
 40
0.0093203297696217
 40
0.148118650007748
 40
0.2874119107693225
 40
0.4267054151938751
 40
0.5655038522589806
 40
0.710242300157903
 40
0.855261323389181
 40
1.0
 40
1.0
 40
1.0
 40
1.0
 10
200.5376025899224
 20
75.43894442437595
 30
0.0
 10
200.5529743615744
 20
75.43492192987682
 30
0.0
 10
200.7972625060492
 20
75.37099646054243
 30
0.0
 10
201.2840889964754
 20
75.30234472924391
 30
0.0
 10
201.9925406409122
 20
75.23763811633178
 30
0.0
 10
202.7049921037233
 20
75.23864023204477
 30
0.0
 10
203.4239153692554
 20
75.29812644577041
 30
0.0
 10
204.1441240913978
 20
75.42368894646442
 30
0.0
 10
204.8622783580334
 20
75.60948418706502
 30
0.0
 10
205.3239402701279
 20
75.78549157977955
 30
0.0
 10
205.5545478924088
 20
75.87341013072437
 30
0.0
  0
LINE
  5
1F7
330
1F
100
AcDbEntity
  8
0
  6
Continuous
 62
     7
370
    15
100
AcDbLine
 10
205.5545478924
 20
75.8734101307
 30
0.0
 11
211.5665703877
 21
78.3444231254
 31
0.0
  0
SPLINE
  5
1F8
330
1F
100
AcDbEntity
  8
0
  6
Continuous
 62
     7
370
    15
100
AcDbSpline
210
0.0
220
0.0
230
1.0
 70
     8
 71
     3
 72
    51
 73
    47
 74
     0
 42
0.00000001
 43
0.00000001
 12
1.0
 22
0.0
 32
0.0
 13
1.0
 23
0.0
 33
0.0
 40
0.0
 40
0.0
 40
0.0
 40
0.0
 40
0.0312499999999995
 40
0.0312499999999995
 40
0.062499999999999
 40
0.062499999999999
 40
0.1249999999999995
 40
0.1249999999999995
 40
0.1562499999999996
 40
0.1562499999999996
 40
0.1875
 40
0.1875
 40
0.2500000000000009
 40
0.2500000000000009
 40
0.2812500000000013
 40
0.2812500000000013
 40
0.3125000000000018
 40
0.3125000000000018
 40
0.3750000000000026
 40
0.3750000000000026
 40
0.4375000000000034
 40
0.4375000000000034
 40
0.4687500000000037
 40
0.4687500000000037
 40
0.5000000000000039
 40
0.5000000000000039
 40
0.5625000000000038
 40
0.5625000000000038
 40
0.6250000000000037
 40
0.6250000000000037
 40
0.6875000000000036
 40
0.6875000000000036
 40
0.7187500000000039
 40
0.7187500000000039
 40
0.7500000000000042
 40
0.7812500000000047
 40
0.7812500000000047
 40
0.812500000000005
 40
0.812500000000005
 40
0.8750000000000043
 40
0.8750000000000043
 40
0.9062500000000033
 40
0.9062500000000033
 40
0.9375000000000022
 40
0.9375000000000022
 40
1.0
 40
1.0
 40
1.0
 40
1.0
 10
211.5665703342062
 20
78.34442292244711
 30
0.0
 10
211.8214736816656
 20
78.4491910364977
 30
0.0
 10
212.0711874975435
 20
78.5663659679355
 30
0.0
 10
212.5601044661088
 20
78.82584343812971
 30
0.0
 10
212.8004460911679
 20
78.96892478459793
 30
0.0
 10
213.4965554650792
 20
79.43168087944633
 30
0.0
 10
213.9237037771064
 20
79.78117992398833
 30
0.0
 10
214.5106018675861
 20
80.36518118814149
 30
0.0
 10
214.6971988737374
 20
80.56987916281487
 30
0.0
 10
215.0517844449284
 20
80.9999320305778
 30
0.0
 10
215.2188626978947
 20
81.22443307334576
 30
0.0
 10
215.6815046403368
 20
81.91434328322616
 30
0.0
 10
215.9424340828726
 20
82.40023486821761
 30
0.0
 10
216.2622735406766
 20
83.16816277335984
 30
0.0
 10
216.3572863564963
 20
83.4322286851797
 30
0.0
 10
216.519541483
 20
83.96475797622728
 30
0.0
 10
216.5870129659562
 20
84.23325686584526
 30
0.0
 10
216.749470895772
 20
85.0452901660503
 30
0.0
 10
216.8048914839352
 20
85.59529728759644
 30
0.0
 10
216.8059506126162
 20
86.71326848800268
 30
0.0
 10
216.7512705761143
 20
87.26564229595401
 30
0.0
 10
216.5901670713769
 20
88.07783398059175
 30
0.0
 10
216.5231878559271
 20
88.34620524937287
 30
0.0
 10
216.3621263619973
 20
88.87813196919409
 30
0.0
 10
216.2674618087234
 20
89.14281353769381
 30
0.0
 10
215.9480997735554
 20
89.91321418993137
 30
0.0
 10
215.6875378579677
 20
90.399923410786
 30
0.0
 10
215.0723729260746
 20
91.3202740680675
 30
0.0
 10
214.714029900208
 20
91.75626332019931
 30
0.0
 10
213.9311060308514
 20
92.53741345618938
 30
0.0
 10
213.5041615756643
 20
92.88748310303566
 30
0.0
 10
212.8094638848049
 20
93.35062008023678
 30
0.0
 10
212.5684312712935
 20
93.49457553892904
 30
0.0
 10
212.0786931651389
 20
93.755227761693
 30
0.0
 10
211.578738944438
 20
93.990457562232
 30
0.0
 10
211.0586989595857
 20
94.17570171826806
 30
0.0
 10
210.5284968254967
 20
94.33565469952933
 30
0.0
 10
210.2569834431077
 20
94.40323037540112
 30
0.0
 10
209.4363693298589
 20
94.5646231003848
 30
0.0
 10
208.8867997085124
 20
94.61702890318115
 30
0.0
 10
208.0588198109643
 20
94.61530443916861
 30
0.0
 10
207.7822178666937
 20
94.60124351575784
 30
0.0
 10
207.2277620160449
 20
94.54536788504997
 30
0.0
 10
206.9511200457994
 20
94.50351837796923
 30
0.0
 10
206.1367971517609
 20
94.33909408385718
 30
0.0
 10
205.6091520936212
 20
94.17754719138641
 30
0.0
 10
205.0968532192882
 20
93.96370172599937
 30
0.0
  0
LINE
  5
1F9
330
1F
100
AcDbEntity
  8
0
  6
Continuous
 62
     7
370
    15
100
AcDbLine
 10
205.0968512758
 20
93.9637010795
 30
0.0
 11
199.0984409912
 21
91.4598291617
 31
0.0
  0
SPLINE
  5
1FA
330
1F
100
AcDbEntity
  8
0
  6
Continuous
 62
     7
370
    15
100
AcDbSpline
210
0.0
220
0.0
230
1.0
 70
     8
 71
     3
 72
    15
 73
    11
 74
     0
 42
0.00000001
 43
0.00000001
 12
1.0
 22
0.0
 32
0.0
 13
1.0
 23
0.0
 33
0.0
 40
0.0
 40
0.0
 40
0.0
 40
0.0
 40
0.1173846664117271
 40
0.2350664266729861
 40
0.3527490583545713
 40
0.4701322221572281
 40
0.6092068789658996
 40
0.7487799236110442
 40
0.8883516021018099
 40
1.0
 40
1.0
 40
1.0
 40
1.0
 10
146.3668320192866
 20
135.0611260038466
 30
0.0
 10
146.2946802372469
 20
134.8745637964781
 30
0.0
 10
146.1501940611506
 20
134.5009672035082
 30
0.0
 10
145.9847051008931
 20
133.9225739356075
 30
0.0
 10
145.8574130188585
 20
133.3349676540869
 30
0.0
 10
145.7678137956469
 20
132.7034454970063
 30
0.0
 10
145.7256614528028
 20
132.0292247549692
 30
0.0
 10
145.7429766711599
 20
131.3164219958139
 30
0.0
 10
145.8082291729155
 20
130.6525324285079
 30
0.0
 10
145.8958246386443
 20
130.2333150249086
 30
0.0
 10
145.9347542240195
 20
130.0470044714064
 30
0.0
  0
SPLINE
  5
1FB
330
1F
100
AcDbEntity
  8
0
  6
Continuous
 62
     7
370
    15
100
AcDbSpline
210
0.0
220
0.0
230
1.0
 70
     8
 71
     3
 72
    15
 73
    11
 74
     0
 42
0.00000001
 43
0.00000001
 12
1.0
 22
0.0
 32
0.0
 13
1.0
 23
0.0
 33
0.0
 40
0.0
 40
0.0
 40
0.0
 40
0.0
 40
0.0540759171350731
 40
0.1925687251969806
 40
0.3312549205982472
 40
0.4704351303809258
 40
0.6096162924961697
 40
0.7483020713141512
 40
0.8741514668563903
 40
1.0
 40
1.0
 40
1.0
 40
1.0
 10
158.7044961615376
 20
124.7518395882696
 30
0.0
 10
158.783298152648
 20
124.7999427846219
 30
0.0
 10
159.0639184319712
 20
124.9712421668649
 30
0.0
 10
159.5125284592455
 20
125.3176093444859
 30
0.0
 10
160.0450075491299
 20
125.7885942866901
 30
0.0
 10
160.5345729403782
 20
126.3064210647542
 30
0.0
 10
160.9803087363649
 20
126.862145361525
 30
0.0
 10
161.3639278914351
 20
127.4350956940837
 30
0.0
 10
161.6918544428883
 20
128.0159422854516
 30
0.0
 10
161.8661190468655
 20
128.4086606121291
 30
0.0
 10
161.9532510503106
 20
128.6050191026777
 30
0.0
  0
LINE
  5
1FC
330
1F
100
AcDbEntity
  8
0
  6
Continuous
 62
     7
370
    15
100
AcDbLine
 10
161.9532510503
 20
128.6050191027
 30
0.0
 11
164.457122968
 21
134.6034293872
 31
0.0
  0
SPLINE
  5
1FD
330
1F
100
AcDbEntity
  8
0
  6
Continuous
 62
     7
370
    15
100
AcDbSpline
210
0.0
220
0.0
230
1.0
 70
     8
 71
     3
 72
    49
 73
    45
 74
     0
 42
0.00000001
 43
0.00000001
 12
1.0
 22
0.0
 32
0.0
 13
1.0
 23
0.0
 33
0.0
 40
0.0
 40
0.0
 40
0.0
 40
0.0
 40
0.0625000000000004
 40
0.0625000000000004
 40
0.1250000000000008
 40
0.1250000000000008
 40
0.1875000000000012
 40
0.1875000000000012
 40
0.2187500000000014
 40
0.2187500000000014
 40
0.2500000000000017
 40
0.2812500000000019
 40
0.2812500000000019
 40
0.3125000000000021
 40
0.3125000000000021
 40
0.3750000000000038
 40
0.3750000000000038
 40
0.4062500000000039
 40
0.4062500000000039
 40
0.4375000000000039
 40
0.4375000000000039
 40
0.500000000000004
 40
0.500000000000004
 40
0.5312500000000033
 40
0.5312500000000033
 40
0.5625000000000027
 40
0.5625000000000027
 40
0.6250000000000024
 40
0.6250000000000024
 40
0.6875000000000023
 40
0.6875000000000023
 40
0.7187500000000022
 40
0.7187500000000022
 40
0.7500000000000021
 40
0.7500000000000021
 40
0.812500000000002
 40
0.812500000000002
 40
0.8750000000000018
 40
0.8750000000000018
 40
0.9375000000000017
 40
0.9375000000000017
 40
0.9687500000000009
 40
0.9687500000000009
 40
1.0
 40
1.0
 40
1.0
 40
1.0
 10
164.4571236145619
 20
134.6034313307258
 30
0.0
 10
164.6709079181415
 20
135.1155836827789
 30
0.0
 10
164.8322893464437
 20
135.64275306432
 30
0.0
 10
165.0513766379814
 20
136.7267993023866
 30
0.0
 10
165.1080580239425
 20
137.2876342704149
 30
0.0
 10
165.1105383355741
 20
138.3924037859439
 30
0.0
 10
165.0581400692345
 20
138.9416702399407
 30
0.0
 10
164.8972762756487
 20
139.7607831183307
 30
0.0
 10
164.8296178668786
 20
140.0330885459282
 30
0.0
 10
164.669556542683
 20
140.564033030444
 30
0.0
 10
164.4842448977846
 20
141.0844295571108
 30
0.0
 10
164.2492292210042
 20
141.5840617254231
 30
0.0
 10
163.989037193621
 20
142.0731756221544
 30
0.0
 10
163.8455604156031
 20
142.3136281960892
 30
0.0
 10
163.3816614752392
 20
143.0098756223055
 30
0.0
 10
163.0313567600419
 20
143.4370437408182
 30
0.0
 10
162.4460590727823
 20
144.0238469456087
 30
0.0
 10
162.2409141128005
 20
144.210391350461
 30
0.0
 10
161.8099305172966
 20
144.5648236428678
 30
0.0
 10
161.5850673517415
 20
144.7317103087669
 30
0.0
 10
160.8940060266531
 20
145.193787342673
 30
0.0
 10
160.4073565686917
 20
145.4542552021377
 30
0.0
 10
159.638288953369
 20
145.7732503645475
 30
0.0
 10
159.3738491899406
 20
145.8679445643502
 30
0.0
 10
158.8409301687913
 20
146.0294358953659
 30
0.0
 10
158.5722475285523
 20
146.0965188672851
 30
0.0
 10
157.7596935305423
 20
146.2577829369487
 30
0.0
 10
157.2093798111019
 20
146.3123708744515
 30
0.0
 10
156.0908683532943
 20
146.3116313365424
 30
0.0
 10
155.5391936756718
 20
146.2561016999834
 30
0.0
 10
154.7274018807996
 20
146.0937575403908
 30
0.0
 10
154.459168581519
 20
146.0263691980153
 30
0.0
 10
153.9275295044846
 20
145.8644883234408
 30
0.0
 10
153.6631345420848
 20
145.7694539174683
 30
0.0
 10
152.8939151956451
 20
145.4492060599192
 30
0.0
 10
152.4079266520271
 20
145.1881328468903
 30
0.0
 10
151.4889492110756
 20
144.571998655843
 30
0.0
 10
151.0538786873277
 20
144.2133877603996
 30
0.0
 10
150.2745481178295
 20
143.4302643580173
 30
0.0
 10
149.9252685816165
 20
143.0032460921541
 30
0.0
 10
149.4632191063289
 20
142.3084048204114
 30
0.0
 10
149.319707453208
 20
142.0674769058727
 30
0.0
 10
149.059864576403
 20
141.5779488328272
 30
0.0
 10
148.9426189596412
 20
141.328066475384
 30
0.0
 10
148.8378448110097
 20
141.0731484456438
 30
0.0
  0
LINE
  5
1FE
330
1F
100
AcDbEntity
  8
0
  6
Continuous
 62
     7
370
    15
100
AcDbLine
 10
148.8378450139
 20
141.0731484991
 30
0.0
 11
146.3668320193
 21
135.0611260038
 31
0.0
  0
SPLINE
  5
1FF
330
1F
100
AcDbEntity
  8
0
  6
Continuous
 62
     7
370
    15
100
AcDbSpline
210
0.0
220
0.0
230
1.0
 70
     8
 71
     3
 72
    15
 73
    11
 74
     0
 42
0.00000001
 43
0.00000001
 12
1.0
 22
0.0
 32
0.0
 13
1.0
 23
0.0
 33
0.0
 40
0.0
 40
0.0
 40
0.0
 40
0.0
 40
0.14345451114948
 40
0.2869093662629702
 40
0.425778799387751
 40
0.5651454023814224
 40
0.7045121607552602
 40
0.8433819875336143
 40
0.9822267936745203
 40
1.0
 40
1.0
 40
1.0
 40
1.0
 10
78.2491817935281
 20
128.6050191026777
 30
0.0
 10
78.3491978630412
 20
128.3815044084717
 30
0.0
 10
78.54923024187815
 20
127.9344744841335
 30
0.0
 10
78.91749630679065
 20
127.3068052024935
 30
0.0
 10
79.33076138259057
 20
126.7171264965858
 30
0.0
 10
79.78898383805927
 20
126.1705736329842
 30
0.0
 10
80.28997248119246
 20
125.6624514236541
 30
0.0
 10
80.83432470959637
 20
125.2038372905176
 30
0.0
 10
81.23872000407957
 20
124.8999315536578
 30
0.0
 10
81.46909619609389
 20
124.7643563563045
 30
0.0
 10
81.49523957212496
 20
124.7489711147398
 30
0.0
  0
SPLINE
  5
200
330
1F
100
AcDbEntity
  8
0
  6
Continuous
 62
     7
370
    15
100
AcDbSpline
210
0.0
220
0.0
230
1.0
 70
     8
 71
     3
 72
    15
 73
    11
 74
     0
 42
0.00000001
 43
0.00000001
 12
1.0
 22
0.0
 32
0.0
 13
1.0
 23
0.0
 33
0.0
 40
0.0
 40
0.0
 40
0.0
 40
0.0
 40
0.0093203297696217
 40
0.148118650007748
 40
0.2874119107693225
 40
0.4267054151938751
 40
0.5655038522589806
 40
0.710242300157903
 40
0.855261323389181
 40
1.0
 40
1.0
 40
1.0
 40
1.0
 10
94.2700665309005
 20
130.0441807013601
 30
0.0
 10
94.27408902539962
 20
130.0595524730121
 30
0.0
 10
94.338014494734
 20
130.3038406174869
 30
0.0
 10
94.40666622603253
 20
130.7906671079131
 30
0.0
 10
94.47137283894465
 20
131.4991187523499
 30
0.0
 10
94.47037072323167
 20
132.211570215161
 30
0.0
 10
94.41088450950602
 20
132.9304934806931
 30
0.0
 10
94.28532200881202
 20
133.6507022028355
 30
0.0
 10
94.09952676821142
 20
134.3688564694712
 30
0.0
 10
93.9235193754969
 20
134.8305183815656
 30
0.0
 10
93.83560082455207
 20
135.0611260038466
 30
0.0
  0
LINE
  5
201
330
1F
100
AcDbEntity
  8
0
  6
Continuous
 62
     7
370
    15
100
AcDbLine
 10
93.8356008246
 20
135.0611260038
 30
0.0
 11
91.3645878299
 21
141.0731484991
 31
0.0
  0
SPLINE
  5
202
330
1F
100
AcDbEntity
  8
0
  6
Continuous
 62
     7
370
    15
100
AcDbSpline
210
0.0
220
0.0
230
1.0
 70
     8
 71
     3
 72
    51
 73
    47
 74
     0
 42
0.00000001
 43
0.00000001
 12
1.0
 22
0.0
 32
0.0
 13
1.0
 23
0.0
 33
0.0
 40
0.0
 40
0.0
 40
0.0
 40
0.0
 40
0.0312500000000012
 40
0.0312500000000012
 40
0.0625000000000024
 40
0.0625000000000024
 40
0.1250000000000035
 40
0.1250000000000035
 40
0.1562500000000039
 40
0.1562500000000039
 40
0.187500000000004
 40
0.187500000000004
 40
0.2500000000000043
 40
0.2500000000000043
 40
0.2812500000000044
 40
0.2812500000000044
 40
0.3125000000000045
 40
0.3125000000000045
 40
0.3750000000000047
 40
0.3750000000000047
 40
0.4375000000000049
 40
0.4375000000000049
 40
0.4687500000000052
 40
0.4687500000000052
 40
0.5000000000000054
 40
0.5000000000000054
 40
0.5625000000000053
 40
0.5625000000000053
 40
0.6250000000000053
 40
0.6250000000000053
 40
0.6875000000000052
 40
0.6875000000000052
 40
0.7187500000000046
 40
0.7187500000000046
 40
0.7500000000000039
 40
0.7812500000000032
 40
0.7812500000000032
 40
0.8125000000000024
 40
0.8125000000000024
 40
0.8750000000000028
 40
0.8750000000000028
 40
0.9062500000000022
 40
0.9062500000000022
 40
0.9375000000000016
 40
0.9375000000000016
 40
1.0
 40
1.0
 40
1.0
 40
1.0
 10
91.36458803282966
 20
141.073148445644
 30
0.0
 10
91.25981991877906
 20
141.3280517931034
 30
0.0
 10
91.14264498734124
 20
141.5777656089814
 30
0.0
 10
90.88316751714704
 20
142.0666825775466
 30
0.0
 10
90.74008617067885
 20
142.3070242026057
 30
0.0
 10
90.27733007583043
 20
143.0031335765169
 30
0.0
 10
89.92783103128842
 20
143.4302818885442
 30
0.0
 10
89.34382976713526
 20
144.0171799790239
 30
0.0
 10
89.13913179246188
 20
144.2037769851752
 30
0.0
 10
88.70907892469897
 20
144.5583625563662
 30
0.0
 10
88.48457788193102
 20
144.7254408093325
 30
0.0
 10
87.79466767205061
 20
145.1880827517746
 30
0.0
 10
87.30877608705917
 20
145.4490121943105
 30
0.0
 10
86.54084818191693
 20
145.7688516521144
 30
0.0
 10
86.27678227009709
 20
145.8638644679341
 30
0.0
 10
85.74425297904948
 20
146.0261195944378
 30
0.0
 10
85.4757540894315
 20
146.093591077394
 30
0.0
 10
84.66372078922649
 20
146.2560490072098
 30
0.0
 10
84.11371366768034
 20
146.3114695953731
 30
0.0
 10
82.9957424672741
 20
146.312528724054
 30
0.0
 10
82.44336865932276
 20
146.2578486875521
 30
0.0
 10
81.63117697468502
 20
146.0967451828148
 30
0.0
 10
81.36280570590388
 20
146.029765967365
 30
0.0
 10
80.83087898608268
 20
145.8687044734351
 30
0.0
 10
80.56619741758298
 20
145.7740399201612
 30
0.0
 10
79.7957967653454
 20
145.4546778849932
 30
0.0
 10
79.30908754449077
 20
145.1941159694056
 30
0.0
 10
78.38873688720926
 20
144.5789510375124
 30
0.0
 10
77.95274763507746
 20
144.2206080116459
 30
0.0
 10
77.17159749908737
 20
143.4376841422893
 30
0.0
 10
76.82152785224109
 20
143.0107396871022
 30
0.0
 10
76.35839087503997
 20
142.3160419962428
 30
0.0
 10
76.21443541634774
 20
142.0750093827314
 30
0.0
 10
75.95378319358375
 20
141.5852712765768
 30
0.0
 10
75.71855307738205
 20
141.0853171838287
 30
0.0
 10
75.5333092370087
 20
140.5652770710236
 30
0.0
 10
75.37335625574742
 20
140.0350749369346
 30
0.0
 10
75.3057805798756
 20
139.7635615545455
 30
0.0
 10
75.14438785489195
 20
138.9429474412968
 30
0.0
 10
75.0919820520956
 20
138.3933778199503
 30
0.0
 10
75.09370651610814
 20
137.5653979224022
 30
0.0
 10
75.1077674395189
 20
137.2887959781316
 30
0.0
 10
75.16364307022678
 20
136.7343401274827
 30
0.0
 10
75.20549257730752
 20
136.4576981572373
 30
0.0
 10
75.36991687141956
 20
135.6433752631988
 30
0.0
 10
75.53146376389033
 20
135.1157302050591
 30
0.0
 10
75.74530922927735
 20
134.6034313307261
 30
0.0
  0
LINE
  5
203
330
1F
100
AcDbEntity
  8
0
  6
Continuous
 62
     7
370
    15
100
AcDbLine
 10
75.7453098758
 20
134.6034293872
 30
0.0
 11
78.2491817935
 21
128.6050191027
 31
0.0
  0
SPLINE
  5
204
330
1F
100
AcDbEntity
  8
0
  6
Continuous
 62
     7
370
    15
100
AcDbSpline
210
0.0
220
0.0
230
1.0
 70
     8
 71
     3
 72
    15
 73
    11
 74
     0
 42
0.00000001
 43
0.00000001
 12
1.0
 22
0.0
 32
0.0
 13
1.0
 23
0.0
 33
0.0
 40
0.0
 40
0.0
 40
0.0
 40
0.0
 40
0.1173846664117271
 40
0.2350664266729861
 40
0.3527490583545713
 40
0.4701322221572281
 40
0.6092068789658996
 40
0.7487799236110442
 40
0.8883516021018099
 40
1.0
 40
1.0
 40
1.0
 40
1.0
 10
34.64788495142984
 20
75.87341013072437
 30
0.0
 10
34.83444715879833
 20
75.80125834868463
 30
0.0
 10
35.20804375176827
 20
75.65677217258836
 30
0.0
 10
35.78643701966888
 20
75.4912832123308
 30
0.0
 10
36.37404330118954
 20
75.36399113029624
 30
0.0
 10
37.00556545827013
 20
75.27439190708462
 30
0.0
 10
37.67978620030726
 20
75.2322395642405
 30
0.0
 10
38.39258895946251
 20
75.2495547825976
 30
0.0
 10
39.05647852676849
 20
75.31480728435325
 30
0.0
 10
39.4756959303678
 20
75.402402750082
 30
0.0
 10
39.66200648387004
 20
75.44133233545726
 30
0.0
  0
SPLINE
  5
205
330
1F
100
AcDbEntity
  8
0
  6
Continuous
 62
     7
370
    15
100
AcDbSpline
210
0.0
220
0.0
230
1.0
 70
     8
 71
     3
 72
    15
 73
    11
 74
     0
 42
0.00000001
 43
0.00000001
 12
1.0
 22
0.0
 32
0.0
 13
1.0
 23
0.0
 33
0.0
 40
0.0
 40
0.0
 40
0.0
 40
0.0
 40
0.0540759171350731
 40
0.1925687251969806
 40
0.3312549205982472
 40
0.4704351303809258
 40
0.6096162924961697
 40
0.7483020713141512
 40
0.8741514668563903
 40
1.0
 40
1.0
 40
1.0
 40
1.0
 10
44.95717136700679
 20
88.21107427297538
 30
0.0
 10
44.9090681706545
 20
88.28987626408573
 30
0.0
 10
44.73776878841151
 20
88.57049654340895
 30
0.0
 10
44.39140161079054
 20
89.01910657068319
 30
0.0
 10
43.92041666858628
 20
89.55158566056765
 30
0.0
 10
43.40258989052224
 20
90.04115105181596
 30
0.0
 10
42.84686559375149
 20
90.48688684780264
 30
0.0
 10
42.27391526119274
 20
90.8705060028728
 30
0.0
 10
41.69306866982478
 20
91.19843255432602
 30
0.0
 10
41.30035034314733
 20
91.37269715830321
 30
0.0
 10
41.10399185259868
 20
91.45982916174835
 30
0.0
  0
LINE
  5
206
330
1F
100
AcDbEntity
  8
0
  6
Continuous
 62
     7
370
    15
100
AcDbLine
 10
41.1039918526
 20
91.4598291617
 30
0.0
 11
35.1055815681
 21
93.9637010795
 31
0.0
  0
SPLINE
  5
207
330
1F
100
AcDbEntity
  8
0
  6
Continuous
 62
     7
370
    15
100
AcDbSpline
210
0.0
220
0.0
230
1.0
 70
     8
 71
     3
 72
    49
 73
    45
 74
     0
 42
0.00000001
 43
0.00000001
 12
1.0
 22
0.0
 32
0.0
 13
1.0
 23
0.0
 33
0.0
 40
0.0
 40
0.0
 40
0.0
 40
0.0
 40
0.0624999999999995
 40
0.0624999999999995
 40
0.1249999999999989
 40
0.1249999999999989
 40
0.1874999999999984
 40
0.1874999999999984
 40
0.2187499999999982
 40
0.2187499999999982
 40
0.2499999999999979
 40
0.2812499999999976
 40
0.2812499999999976
 40
0.3124999999999973
 40
0.3124999999999973
 40
0.3749999999999968
 40
0.3749999999999968
 40
0.4062499999999963
 40
0.4062499999999963
 40
0.4374999999999958
 40
0.4374999999999958
 40
0.4999999999999953
 40
0.4999999999999953
 40
0.5312499999999951
 40
0.5312499999999951
 40
0.5624999999999948
 40
0.5624999999999948
 40
0.6249999999999948
 40
0.6249999999999948
 40
0.6874999999999949
 40
0.6874999999999949
 40
0.7187499999999952
 40
0.7187499999999952
 40
0.7499999999999957
 40
0.7499999999999957
 40
0.8124999999999964
 40
0.8124999999999964
 40
0.8749999999999972
 40
0.8749999999999972
 40
0.9374999999999981
 40
0.9374999999999981
 40
0.968749999999999
 40
0.968749999999999
 40
1.0
 40
1.0
 40
1.0
 40
1.0
 10
35.10557962455048
 20
93.96370172599939
 30
0.0
 10
34.59342727249735
 20
94.17748602957893
 30
0.0
 10
34.06625789095627
 20
94.3388674578811
 30
0.0
 10
32.98221165288971
 20
94.55795474941883
 30
0.0
 10
32.42137668486148
 20
94.61463613537988
 30
0.0
 10
31.31660716933246
 20
94.61711644701157
 30
0.0
 10
30.76734071533556
 20
94.56471818067187
 30
0.0
 10
29.94822783694558
 20
94.4038543870861
 30
0.0
 10
29.6759224093481
 20
94.33619597831597
 30
0.0
 10
29.14497792483234
 20
94.17613465412045
 30
0.0
 10
28.62458139816548
 20
93.99082300922203
 30
0.0
 10
28.12494922985316
 20
93.75580733244158
 30
0.0
 10
27.63583533312186
 20
93.49561530505844
 30
0.0
 10
27.39538275918714
 20
93.35213852704047
 30
0.0
 10
26.69913533297079
 20
92.88823958667658
 30
0.0
 10
26.27196721445814
 20
92.53793487147935
 30
0.0
 10
25.68516400966757
 20
91.95263718421972
 30
0.0
 10
25.4986196048153
 20
91.74749222423783
 30
0.0
 10
25.1441873124086
 20
91.31650862873401
 30
0.0
 10
24.97730064650944
 20
91.09164546317888
 30
0.0
 10
24.51522361260332
 20
90.4005841380905
 30
0.0
 10
24.25475575313868
 20
89.91393468012909
 30
0.0
 10
23.93576059072879
 20
89.14486706480645
 30
0.0
 10
23.84106639092608
 20
88.88042730137805
 30
0.0
 10
23.67957505991047
 20
88.34750828022868
 30
0.0
 10
23.61249208799115
 20
88.07882563998969
 30
0.0
 10
23.45122801832758
 20
87.26627164197973
 30
0.0
 10
23.39664008082476
 20
86.71595792253933
 30
0.0
 10
23.39737961873389
 20
85.59744646473169
 30
0.0
 10
23.45290925529288
 20
85.04577178710915
 30
0.0
 10
23.6152534148855
 20
84.23397999223702
 30
0.0
 10
23.68264175726103
 20
83.9657466929564
 30
0.0
 10
23.84452263183555
 20
83.43410761592196
 30
0.0
 10
23.93955703780801
 20
83.16971265352223
 30
0.0
 10
24.25980489535705
 20
82.40049330708248
 30
0.0
 10
24.52087810838595
 20
81.91450476346455
 30
0.0
 10
25.13701229943334
 20
80.99552732251303
 30
0.0
 10
25.49562319487669
 20
80.56045679876517
 30
0.0
 10
26.27874659725911
 20
79.78112622926695
 30
0.0
 10
26.70576486312222
 20
79.4318466930539
 30
0.0
 10
27.40060613486495
 20
78.96979721776628
 30
0.0
 10
27.64153404940359
 20
78.82628556464536
 30
0.0
 10
28.13106212244915
 20
78.56644268784044
 30
0.0
 10
28.38094447989226
 20
78.44919707107863
 30
0.0
 10
28.6358625096325
 20
78.34442292244711
 30
0.0
  0
LINE
  5
208
330
1F
100
AcDbEntity
  8
0
  6
Continuous
 62
     7
370
    15
100
AcDbLine
 10
28.6358624562
 20
78.3444231254
 30
0.0
 11
34.6478849514
 21
75.8734101307
 31
0.0
  0
SPLINE
  5
209
330
1F
100
AcDbEntity
  8
0
  6
Continuous
 62
     7
370
    15
100
AcDbSpline
210
0.0
220
0.0
230
1.0
 70
     8
 71
     3
 72
    15
 73
    11
 74
     0
 42
0.00000001
 43
0.00000001
 12
1.0
 22
0.0
 32
0.0
 13
1.0
 23
0.0
 33
0.0
 40
0.0
 40
0.0
 40
0.0
 40
0.0
 40
0.14345451114948
 40
0.2869093662629702
 40
0.425778799387751
 40
0.5651454023814224
 40
0.7045121607552602
 40
0.8433819875336143
 40
0.9822267936745203
 40
1.0
 40
1.0
 40
1.0
 40
1.0
 10
41.10399185259868
 20
7.755759904965812
 30
0.0
 10
41.32750654680474
 20
7.855775974478931
 30
0.0
 10
41.77453647114289
 20
8.055808353315868
 30
0.0
 10
42.40220575278289
 20
8.424074418228365
 30
0.0
 10
42.99188445869062
 20
8.83733949402829
 30
0.0
 10
43.5384373222922
 20
9.295561949496996
 30
0.0
 10
44.04655953162229
 20
9.796550592630183
 30
0.0
 10
44.50517366475886
 20
10.34090282103409
 30
0.0
 10
44.80907940161865
 20
10.74529811551729
 30
0.0
 10
44.9446545989719
 20
10.97567430753161
 30
0.0
 10
44.9600398405366
 20
11.00181768356268
 30
0.0
  0
SPLINE
  5
20A
330
1F
100
AcDbEntity
  8
0
  6
Continuous
 62
     7
370
    15
100
AcDbSpline
210
0.0
220
0.0
230
1.0
 70
     8
 71
     3
 72
    15
 73
    11
 74
     0
 42
0.00000001
 43
0.00000001
 12
1.0
 22
0.0
 32
0.0
 13
1.0
 23
0.0
 33
0.0
 40
0.0
 40
0.0
 40
0.0
 40
0.0
 40
0.0093203297696217
 40
0.148118650007748
 40
0.2874119107693225
 40
0.4267054151938751
 40
0.5655038522589806
 40
0.710242300157903
 40
0.855261323389181
 40
1.0
 40
1.0
 40
1.0
 40
1.0
 10
39.66483025391628
 20
23.77664464233821
 30
0.0
 10
39.64945848226432
 20
23.78066713683734
 30
0.0
 10
39.40517033778946
 20
23.84459260617172
 30
0.0
 10
38.91834384736331
 20
23.91324433747025
 30
0.0
 10
38.20989220292653
 20
23.97795095038237
 30
0.0
 10
37.49744074011542
 20
23.97694883466939
 30
0.0
 10
36.77851747458334
 20
23.91746262094374
 30
0.0
 10
36.05830875244096
 20
23.79190012024974
 30
0.0
 10
35.34015448580526
 20
23.60610487964913
 30
0.0
 10
34.87849257371079
 20
23.43009748693461
 30
0.0
 10
34.64788495142986
 20
23.34217893598979
 30
0.0
  0
LINE
  5
20B
330
1F
100
AcDbEntity
  8
0
  6
Continuous
 62
     7
370
    15
100
AcDbLine
 10
34.6478849514
 20
23.342178936
 30
0.0
 11
28.6358624562
 21
20.8711659413
 31
0.0
  0
SPLINE
  5
20C
330
1F
100
AcDbEntity
  8
0
  6
Continuous
 62
     7
370
    15
100
AcDbSpline
210
0.0
220
0.0
230
1.0
 70
     8
 71
     3
 72
    51
 73
    47
 74
     0
 42
0.00000001
 43
0.00000001
 12
1.0
 22
0.0
 32
0.0
 13
1.0
 23
0.0
 33
0.0
 40
0.0
 40
0.0
 40
0.0
 40
0.0
 40
0.0312499999999995
 40
0.0312499999999995
 40
0.062499999999999
 40
0.062499999999999
 40
0.1249999999999995
 40
0.1249999999999995
 40
0.1562499999999996
 40
0.1562499999999996
 40
0.1875
 40
0.1875
 40
0.2500000000000009
 40
0.2500000000000009
 40
0.2812500000000013
 40
0.2812500000000013
 40
0.3125000000000018
 40
0.3125000000000018
 40
0.3750000000000026
 40
0.3750000000000026
 40
0.4375000000000034
 40
0.4375000000000034
 40
0.4687500000000037
 40
0.4687500000000037
 40
0.5000000000000039
 40
0.5000000000000039
 40
0.5625000000000038
 40
0.5625000000000038
 40
0.6250000000000037
 40
0.6250000000000037
 40
0.6875000000000036
 40
0.6875000000000036
 40
0.7187500000000039
 40
0.7187500000000039
 40
0.7500000000000042
 40
0.7812500000000047
 40
0.7812500000000047
 40
0.812500000000005
 40
0.812500000000005
 40
0.8750000000000043
 40
0.8750000000000043
 40
0.9062500000000033
 40
0.9062500000000033
 40
0.9375000000000022
 40
0.9375000000000022
 40
1.0
 40
1.0
 40
1.0
 40
1.0
 10
28.63586250963251
 20
20.87116614426706
 30
0.0
 10
28.38095916217315
 20
20.76639803021646
 30
0.0
 10
28.1312453462952
 20
20.64922309877866
 30
0.0
 10
27.64232837772991
 20
20.38974562858445
 30
0.0
 10
27.40198675267079
 20
20.24666428211624
 30
0.0
 10
26.70587737875955
 20
19.78390818726782
 30
0.0
 10
26.27872906673233
 20
19.43440914272582
 30
0.0
 10
25.69183097625265
 20
18.85040787857265
 30
0.0
 10
25.50523397010135
 20
18.64570990389928
 30
0.0
 10
25.15064839891032
 20
18.21565703613635
 30
0.0
 10
24.98357014594399
 20
17.9911559933684
 30
0.0
 10
24.52092820350196
 20
17.30124578348799
 30
0.0
 10
24.25999876096611
 20
16.81535419849654
 30
0.0
 10
23.94015930316211
 20
16.04742629335431
 30
0.0
 10
23.84514648734242
 20
15.78336038153446
 30
0.0
 10
23.68289136083869
 20
15.25083109048687
 30
0.0
 10
23.61541987788253
 20
14.9823322008689
 30
0.0
 10
23.45296194806669
 20
14.17029890066386
 30
0.0
 10
23.39754135990349
 20
13.62029177911773
 30
0.0
 10
23.39648223122256
 20
12.50232057871148
 30
0.0
 10
23.45116226772441
 20
11.94994677076014
 30
0.0
 10
23.61226577246178
 20
11.1377550861224
 30
0.0
 10
23.67924498791159
 20
10.8693838173413
 30
0.0
 10
23.84030648184139
 20
10.33745709752008
 30
0.0
 10
23.93497103511531
 20
10.07277552902035
 30
0.0
 10
24.25433307028335
 20
9.30237487678278
 30
0.0
 10
24.51489498587102
 20
8.815665655928159
 30
0.0
 10
25.13005991776417
 20
7.895314998646652
 30
0.0
 10
25.48840294363075
 20
7.459325746514846
 30
0.0
 10
26.27132681298731
 20
6.678175610524764
 30
0.0
 10
26.69827126817439
 20
6.328105963678484
 30
0.0
 10
27.3929689590338
 20
5.864968986477363
 30
0.0
 10
27.63400157254521
 20
5.721013527785125
 30
0.0
 10
28.12373967869976
 20
5.460361305021151
 30
0.0
 10
28.62369389940075
 20
5.225131504482158
 30
0.0
 10
29.143733884253
 20
5.039887348446098
 30
0.0
 10
29.67393601834203
 20
4.879934367184827
 30
0.0
 10
29.94544940073104
 20
4.812358691313038
 30
0.0
 10
30.76606351397981
 20
4.650965966329363
 30
0.0
 10
31.3156331353263
 20
4.598560163533008
 30
0.0
 10
32.14361303287441
 20
4.600284627545539
 30
0.0
 10
32.42021497714498
 20
4.614345550956314
 30
0.0
 10
32.97467082779382
 20
4.670221181664193
 30
0.0
 10
33.25131279803931
 20
4.712070688744921
 30
0.0
 10
34.0656356920778
 20
4.876494982856972
 30
0.0
 10
34.59328075021746
 20
5.038041875327741
 30
0.0
 10
35.10557962455049
 20
5.251887340714786
 30
0.0
  0
LINE
  5
20D
330
1F
100
AcDbEntity
  8
0
  6
Continuous
 62
     7
370
    15
100
AcDbLine
 10
35.1055815681
 20
5.2518879872
 30
0.0
 11
41.1039918526
 21
7.755759905
 31
0.0
  0
CIRCLE
  5
20E
330
1F
100
AcDbEntity
  8
0
  6
Continuous
 62
     8
370
     0
100
AcDbCircle
 10
120.1012164219
 20
49.6077945334
 30
0.0
 40
64.00000000000001
  0
INSERT
  5
21A
330
1F
100
AcDbEntity
  8
0
  6
Continuous
 62
     7
370
     0
100
AcDbBlockReference
  2
SW_CENTERMARKSYMBOL_0
 10
120.1012164219
 20
49.6077945334
 30
0.0
  0
LINE
  5
21B
330
1F
100
AcDbEntity
  8
0
  6
Continuous
 62
     7
370
    15
100
AcDbLine
 10
533.144574911
 20
239.0406199858
 30
0.0
 11
495.0121085352
 21
241.039059417
 31
0.0
  0
LINE
  5
21C
330
1F
100
AcDbEntity
  8
0
  6
Continuous
 62
     7
370
    15
100
AcDbLine
 10
342.2628979391
 20
241.0383180842
 30
0.0
 11
304.1445727653
 21
239.0406199858
 31
0.0
  0
LINE
  5
21D
330
1F
100
AcDbEntity
  8
0
  6
Continuous
 62
     7
370
    15
100
AcDbLine
 10
533.144574911
 20
227.0406208128
 30
0.0
 11
533.144574911
 21
239.0406199858
 31
0.0
  0
LINE
  5
21E
330
1F
100
AcDbEntity
  8
0
  6
Continuous
 62
     7
370
    15
100
AcDbLine
 10
304.1445727653
 20
239.0406199858
 30
0.0
 11
304.1445727653
 21
227.0406208128
 31
0.0
  0
LINE
  5
21F
330
1F
100
AcDbEntity
  8
0
  6
Continuous
 62
     7
370
    15
100
AcDbLine
 10
363.0983050174
 20
227.0406208128
 30
0.0
 11
363.0983050174
 21
223.0406206228
 31
0.0
  0
LINE
  5
220
330
1F
100
AcDbEntity
  8
0
  6
Continuous
 62
     7
370
    15
100
AcDbLine
 10
474.1908426589
 20
223.0406206228
 30
0.0
 11
474.1908426589
 21
227.0406208128
 31
0.0
  0
LINE
  5
221
330
1F
100
AcDbEntity
  8
0
  6
Continuous
 62
     7
370
    15
100
AcDbLine
 10
491.0069148249
 20
227.0406208128
 30
0.0
 11
491.0069148249
 21
234.0406210289
 31
0.0
  0
LINE
  5
222
330
1F
100
AcDbEntity
  8
0
  6
Continuous
 62
     7
370
    15
100
AcDbLine
 10
346.2822328514
 20
234.0406210289
 30
0.0
 11
346.2822328514
 21
227.0406208128
 31
0.0
  0
ARC
  5
223
330
1F
100
AcDbEntity
  8
0
  6
Continuous
 62
     7
370
    15
100
AcDbCircle
 10
485.6429413556
 20
249.9090242244
 30
0.0
 40
22.67267151925526
100
AcDbArc
 50
283.6849650677
 51
311.4212052824
  0
LINE
  5
224
330
1F
100
AcDbEntity
  8
0
  6
Continuous
 62
     7
370
    15
100
AcDbLine
 10
500.642944426
 20
232.9075525642
 30
0.0
 11
500.642944426
 21
234.0363527775
 31
0.0
  0
ARC
  5
225
330
1F
100
AcDbEntity
  8
0
  6
Continuous
 62
     7
370
    15
100
AcDbCircle
 10
351.6320641851
 20
249.9090242244
 30
0.0
 40
22.67267151925526
100
AcDbArc
 50
228.5787947176
 51
256.3518146589
  0
LINE
  5
226
330
1F
100
AcDbEntity
  8
0
  6
Continuous
 62
     7
370
    15
100
AcDbLine
 10
336.6320620483
 20
234.0363527775
 30
0.0
 11
336.6320620483
 21
232.9075525642
 31
0.0
  0
LINE
  5
227
330
1F
100
AcDbEntity
  8
0
  6
Continuous
 62
     7
370
    15
100
AcDbLine
 10
339.1445766396
 20
223.0406206228
 30
0.0
 11
342.1445752687
 21
220.0406205967
 31
0.0
  0
LINE
  5
228
330
1F
100
AcDbEntity
  8
0
  6
Continuous
 62
     7
370
    15
100
AcDbLine
 10
495.1445724076
 20
220.0406205967
 30
0.0
 11
498.1445710367
 21
223.0406206228
 31
0.0
  0
LINE
  5
229
330
1F
100
AcDbEntity
  8
0
  6
Continuous
 62
     7
370
    15
100
AcDbLine
 10
497.6429383463
 20
350.3163469151
 30
0.0
 11
497.6429383463
 21
352.8163594321
 31
0.0
  0
LINE
  5
22A
330
1F
100
AcDbEntity
  8
0
  6
Continuous
 62
     7
370
    15
100
AcDbLine
 10
473.642941863
 20
352.8163594321
 30
0.0
 11
473.642941863
 21
350.3163469151
 31
0.0
  0
LINE
  5
22B
330
1F
100
AcDbEntity
  8
0
  6
Continuous
 62
     7
370
    15
100
AcDbLine
 10
363.6320646113
 20
350.3163469151
 30
0.0
 11
363.6320646113
 21
352.8163594321
 31
0.0
  0
LINE
  5
22C
330
1F
100
AcDbEntity
  8
0
  6
Continuous
 62
     7
370
    15
100
AcDbLine
 10
339.6320606774
 20
352.8163594321
 30
0.0
 11
339.6320606774
 21
350.3163469151
 31
0.0
  0
LINE
  5
22D
330
1F
100
AcDbEntity
  8
0
  6
Continuous
 62
     7
370
    15
100
AcDbLine
 10
493.6429376906
 20
367.0363587454
 30
0.0
 11
493.6429376906
 21
367.5363523081
 31
0.0
  0
LINE
  5
22E
330
1F
100
AcDbEntity
  8
0
  6
Continuous
 62
     7
370
    15
100
AcDbLine
 10
477.6429425186
 20
367.5363523081
 30
0.0
 11
477.6429425186
 21
367.0363587454
 31
0.0
  0
LINE
  5
22F
330
1F
100
AcDbEntity
  8
0
  6
Continuous
 62
     7
370
    15
100
AcDbLine
 10
493.6445768184
 20
317.2015187457
 30
0.0
 11
493.6445768184
 21
318.0406180337
 31
0.0
  0
LINE
  5
230
330
1F
100
AcDbEntity
  8
0
  6
Continuous
 62
     7
370
    15
100
AcDbLine
 10
343.6445708579
 20
318.0406180337
 30
0.0
 11
343.6445708579
 21
317.2015187457
 31
0.0
  0
ARC
  5
231
330
1F
100
AcDbEntity
  8
0
  6
Continuous
 62
     7
370
    15
100
AcDbCircle
 10
491.6445738381
 20
318.0406205967
 30
0.0
 40
2.0
100
AcDbArc
 50
0.0
 51
90.0
  0
ARC
  5
232
330
1F
100
AcDbEntity
  8
0
  6
Continuous
 62
     7
370
    15
100
AcDbCircle
 10
345.6445738381
 20
318.0406205967
 30
0.0
 40
2.0
100
AcDbArc
 50
90.3583774982
 51
180.0
  0
ARC
  5
233
330
1F
100
AcDbEntity
  8
0
  6
Continuous
 62
     7
370
    15
100
AcDbCircle
 10
490.6445738381
 20
317.2015209655
 30
0.0
 40
3.0
100
AcDbArc
 50
310.0
 51
0.0
  0
ARC
  5
234
330
1F
100
AcDbEntity
  8
0
  6
Continuous
 62
     7
370
    15
100
AcDbCircle
 10
346.6445738381
 20
317.2015209655
 30
0.0
 40
3.0
100
AcDbArc
 50
180.0
 51
230.0
  0
LINE
  5
235
330
1F
100
AcDbEntity
  8
0
  6
Continuous
 62
     7
370
    15
100
AcDbLine
 10
359.6320639557
 20
367.0363587454
 30
0.0
 11
359.6320639557
 21
367.5363523081
 31
0.0
  0
LINE
  5
236
330
1F
100
AcDbEntity
  8
0
  6
Continuous
 62
     7
370
    15
100
AcDbLine
 10
343.6320613331
 20
367.5363523081
 30
0.0
 11
343.6320613331
 21
367.0363587454
 31
0.0
  0
LINE
  5
237
330
1F
100
AcDbEntity
  8
0
  6
Continuous
 62
     7
370
    15
100
AcDbLine
 10
344.7162102169
 20
314.9033871606
 30
0.0
 11
345.6320653862
 21
314.1348970249
 31
0.0
  0
LINE
  5
238
330
1F
100
AcDbEntity
  8
0
  6
Continuous
 62
     7
370
    15
100
AcDbLine
 10
491.6429410881
 20
314.1230282501
 30
0.0
 11
492.5729374594
 21
314.9033871606
 31
0.0
  0
LINE
  5
239
330
1F
100
AcDbEntity
  8
0
  6
Continuous
 62
     7
370
    15
100
AcDbLine
 10
492.1429421014
 20
367.5363523081
 30
0.0
 11
492.1429421014
 21
379.0363532618
 31
0.0
  0
LINE
  5
23A
330
1F
100
AcDbEntity
  8
0
  6
Continuous
 62
     7
370
    15
100
AcDbLine
 10
479.1429418332
 20
379.0363532618
 30
0.0
 11
479.1429418332
 21
367.5363523081
 31
0.0
  0
LINE
  5
23B
330
1F
100
AcDbEntity
  8
0
  6
Continuous
 62
     7
370
    15
100
AcDbLine
 10
358.1320646411
 20
367.5363523081
 30
0.0
 11
358.1320646411
 21
379.0363532618
 31
0.0
  0
LINE
  5
23C
330
1F
100
AcDbEntity
  8
0
  6
Continuous
 62
     7
370
    15
100
AcDbLine
 10
345.1320643729
 20
379.0363532618
 30
0.0
 11
345.1320643729
 21
367.5363523081
 31
0.0
  0
LINE
  5
23D
330
1F
100
AcDbEntity
  8
0
  6
Continuous
 62
     7
370
    15
100
AcDbLine
 10
491.6429410881
 20
242.8363517985
 30
0.0
 11
491.6429410881
 21
345.3163516835
 31
0.0
  0
LINE
  5
23E
330
1F
100
AcDbEntity
  8
0
  6
Continuous
 62
     7
370
    15
100
AcDbLine
 10
479.6429428464
 20
333.86434737
 30
0.0
 11
479.6429428464
 21
242.8363517985
 31
0.0
  0
LINE
  5
23F
330
1F
100
AcDbEntity
  8
0
  6
Continuous
 62
     7
370
    15
100
AcDbLine
 10
491.6429410881
 20
362.8163498953
 30
0.0
 11
491.6429410881
 21
367.0363587454
 31
0.0
  0
LINE
  5
240
330
1F
100
AcDbEntity
  8
0
  6
Continuous
 62
     7
370
    15
100
AcDbLine
 10
479.6429428464
 20
367.0363587454
 30
0.0
 11
479.6429428464
 21
362.8163498953
 31
0.0
  0
LINE
  5
241
330
1F
100
AcDbEntity
  8
0
  6
Continuous
 62
     7
370
    15
100
AcDbLine
 10
357.6320636279
 20
242.8363517985
 30
0.0
 11
357.6320636279
 21
333.8872877076
 31
0.0
  0
LINE
  5
242
330
1F
100
AcDbEntity
  8
0
  6
Continuous
 62
     7
370
    15
100
AcDbLine
 10
345.6320653862
 20
345.3163516835
 30
0.0
 11
345.6320653862
 21
242.8363517985
 31
0.0
  0
LINE
  5
243
330
1F
100
AcDbEntity
  8
0
  6
Continuous
 62
     7
370
    15
100
AcDbLine
 10
357.6320636279
 20
362.8163498953
 30
0.0
 11
357.6320636279
 21
367.0363587454
 31
0.0
  0
LINE
  5
244
330
1F
100
AcDbEntity
  8
0
  6
Continuous
 62
     7
370
    15
100
AcDbLine
 10
345.6320653862
 20
367.0363587454
 30
0.0
 11
345.6320653862
 21
362.8163498953
 31
0.0
  0
LINE
  5
245
330
1F
100
AcDbEntity
  8
0
  6
Continuous
 62
     7
370
    15
100
AcDbLine
 10
503.2750259346
 20
234.040609853
 30
0.0
 11
503.5360570258
 21
227.0406021863
 31
0.0
  0
LINE
  5
246
330
1F
100
AcDbEntity
  8
0
  6
Continuous
 62
     7
370
    15
100
AcDbLine
 10
333.7530757493
 20
227.0406119652
 30
0.0
 11
334.0141366428
 21
234.0406024024
 31
0.0
  0
LINE
  5
247
330
1F
100
AcDbEntity
  8
0
  6
Continuous
 62
     7
370
    15
100
AcDbLine
 10
525.8750657743
 20
223.0406206228
 30
0.0
 11
525.8750657743
 21
227.0406208128
 31
0.0
  0
LINE
  5
248
330
1F
100
AcDbEntity
  8
0
  6
Continuous
 62
     7
370
    15
100
AcDbLine
 10
311.4140819019
 20
227.0406208128
 30
0.0
 11
311.4140819019
 21
223.0406206228
 31
0.0
  0
ARC
  5
249
330
1F
100
AcDbEntity
  8
0
  6
Continuous
 62
     7
370
    15
100
AcDbCircle
 10
499.5651408406
 20
322.5406205967
 30
0.0
 40
2.499999999999961
100
AcDbArc
 50
270.0
 51
357.0
  0
ARC
  5
24A
330
1F
100
AcDbEntity
  8
0
  6
Continuous
 62
     7
370
    15
100
AcDbCircle
 10
337.7240068357
 20
322.5406205967
 30
0.0
 40
2.499999999999961
100
AcDbArc
 50
183.0
 51
270.0
  0
LINE
  5
24B
330
1F
100
AcDbEntity
  8
0
  6
Continuous
 62
     7
370
    15
100
AcDbLine
 10
334.1578583426
 20
342.8185519889
 30
0.0
 11
335.2274338907
 21
322.4097800568
 31
0.0
  0
LINE
  5
24C
330
1F
100
AcDbEntity
  8
0
  6
Continuous
 62
     7
370
    15
100
AcDbLine
 10
502.0617137856
 20
322.4097800568
 30
0.0
 11
503.1312893337
 21
342.8185519889
 31
0.0
  0
LINE
  5
24D
330
1F
100
AcDbEntity
  8
0
  6
Continuous
 62
     7
370
    15
100
AcDbLine
 10
334.9652852124
 20
343.11243269
 30
0.0
 11
334.1578583426
 21
342.8185519889
 31
0.0
  0
LINE
  5
24E
330
1F
100
AcDbEntity
  8
0
  6
Continuous
 62
     7
370
    15
100
AcDbLine
 10
503.1312893337
 20
342.8185519889
 30
0.0
 11
502.3238624639
 21
343.11243269
 31
0.0
  0
LINE
  5
24F
330
1F
100
AcDbEntity
  8
0
  6
Continuous
 62
     7
370
    15
100
AcDbLine
 10
497.6570869988
 20
350.3163469151
 30
0.0
 11
497.6570869988
 21
352.8163594321
 31
0.0
  0
LINE
  5
250
330
1F
100
AcDbEntity
  8
0
  6
Continuous
 62
     7
370
    15
100
AcDbLine
 10
493.6570863432
 20
367.0363587454
 30
0.0
 11
493.6570863432
 21
367.5363523081
 31
0.0
  0
LINE
  5
251
330
1F
100
AcDbEntity
  8
0
  6
Continuous
 62
     7
370
    15
100
AcDbLine
 10
359.6462051577
 20
367.0363587454
 30
0.0
 11
359.6462051577
 21
367.5363523081
 31
0.0
  0
LINE
  5
252
330
1F
100
AcDbEntity
  8
0
  6
Continuous
 62
     7
370
    15
100
AcDbLine
 10
492.1570833034
 20
367.5363523081
 30
0.0
 11
492.1570833034
 21
379.0363532618
 31
0.0
  0
LINE
  5
253
330
1F
100
AcDbEntity
  8
0
  6
Continuous
 62
     7
370
    15
100
AcDbLine
 10
358.1462058431
 20
367.5363523081
 30
0.0
 11
358.1462058431
 21
379.0363532618
 31
0.0
  0
LINE
  5
254
330
1F
100
AcDbEntity
  8
0
  6
Continuous
 62
     7
370
    15
100
AcDbLine
 10
491.6570822901
 20
242.8363517985
 30
0.0
 11
491.6570822901
 21
314.1348970249
 31
0.0
  0
LINE
  5
255
330
1F
100
AcDbEntity
  8
0
  6
Continuous
 62
     7
370
    15
100
AcDbLine
 10
491.6570822901
 20
320.0405848339
 30
0.0
 11
491.6570822901
 21
320.0406220868
 31
0.0
  0
LINE
  5
256
330
1F
100
AcDbEntity
  8
0
  6
Continuous
 62
     7
370
    15
100
AcDbLine
 10
491.6570822901
 20
362.8163498953
 30
0.0
 11
491.6570822901
 21
367.0363587454
 31
0.0
  0
LINE
  5
257
330
1F
100
AcDbEntity
  8
0
  6
Continuous
 62
     7
370
    15
100
AcDbLine
 10
357.6462048298
 20
362.8163498953
 30
0.0
 11
357.6462048298
 21
367.0363587454
 31
0.0
  0
SPLINE
  5
258
330
1F
100
AcDbEntity
  8
0
  6
Continuous
 62
     7
370
    15
100
AcDbSpline
210
0.0
220
0.0
230
1.0
 70
     8
 71
     3
 72
     8
 73
     4
 74
     0
 42
0.00000001
 43
0.00000001
 12
1.0
 22
0.0
 32
0.0
 13
1.0
 23
0.0
 33
0.0
 40
0.0
 40
0.0
 40
0.0
 40
0.0
 40
1.0
 40
1.0
 40
1.0
 40
1.0
 10
351.6320641850929
 20
239.7166509156695
 30
0.0
 10
348.5090091798018
 20
239.7317212913777
 30
0.0
 10
345.3859542295619
 20
239.7316983151379
 30
0.0
 10
342.2628993343711
 20
239.7165825697342
 30
0.0
  0
LINE
  5
259
330
1F
100
AcDbEntity
  8
0
  6
Continuous
 62
     7
370
    15
100
AcDbLine
 10
361.0012273497
 20
240.4093605593
 30
0.0
 11
351.6320626444
 21
239.7166502789
 31
0.0
  0
LINE
  5
25A
330
1F
100
AcDbEntity
  8
0
  6
Continuous
 62
     7
370
    15
100
AcDbLine
 10
476.2737753994
 20
241.3279612675
 30
0.0
 11
361.0012273497
 21
241.3279612675
 31
0.0
  0
LINE
  5
25B
330
1F
100
AcDbEntity
  8
0
  6
Continuous
 62
     7
370
    15
100
AcDbLine
 10
533.144574911
 20
239.0406199858
 30
0.0
 11
304.1445727653
 21
239.0406199858
 31
0.0
  0
LINE
  5
25C
330
1F
100
AcDbEntity
  8
0
  6
Continuous
 62
     7
370
    15
100
AcDbLine
 10
476.2737753994
 20
240.4092823282
 30
0.0
 11
485.6429438299
 21
239.7165832237
 31
0.0
  0
SPLINE
  5
25D
330
1F
100
AcDbEntity
  8
0
  6
Continuous
 62
     7
370
    15
100
AcDbSpline
210
0.0
220
0.0
230
1.0
 70
     8
 71
     3
 72
     8
 73
     4
 74
     0
 42
0.00000001
 43
0.00000001
 12
1.0
 22
0.0
 32
0.0
 13
1.0
 23
0.0
 33
0.0
 40
0.0
 40
0.0
 40
0.0
 40
0.0
 40
1.0
 40
1.0
 40
1.0
 40
1.0
 10
485.6429413555678
 20
239.7165825697342
 30
0.0
 10
488.7659962507585
 20
239.7316983151379
 30
0.0
 10
491.8890512009983
 20
239.7317212913777
 30
0.0
 10
495.0121062062894
 20
239.7166509156695
 30
0.0
  0
SPLINE
  5
25E
330
1F
100
AcDbEntity
  8
0
  6
Continuous
 62
     7
370
    15
100
AcDbSpline
210
0.0
220
0.0
230
1.0
 70
     8
 71
     3
 72
    22
 73
    18
 74
     0
 42
0.00000001
 43
0.00000001
 12
1.0
 22
0.0
 32
0.0
 13
1.0
 23
0.0
 33
0.0
 40
0.0
 40
0.0
 40
0.0
 40
0.0
 40
0.0612355444455397
 40
0.1226260725374416
 40
0.1840170552193657
 40
0.2452518158054174
 40
0.3178022824769722
 40
0.3906127409468118
 40
0.4634224867408844
 40
0.5359726660820837
 40
0.6084957209349074
 40
0.6812782271463833
 40
0.7540610514677123
 40
0.8265828349403421
 40
0.8990202982855331
 40
0.9717168531222257
 40
1.0
 40
1.0
 40
1.0
 40
1.0
 10
504.0979053086306
 20
240.3561168477079
 30
0.0
 10
503.9113431788269
 20
240.3665737930247
 30
0.0
 10
503.5377467411829
 20
240.3875141495862
 30
0.0
 10
502.9593523060746
 20
240.4190378742877
 30
0.0
 10
502.371750458529
 20
240.4504338639705
 30
0.0
 10
501.7402107562834
 20
240.4834456230222
 30
0.0
 10
501.0660674756244
 20
240.5178453101101
 30
0.0
 10
500.3529650187235
 20
240.5532737709217
 30
0.0
 10
499.6436002406148
 20
240.5875426361912
 30
0.0
 10
498.9438489489976
 20
240.6203345901061
 30
0.0
 10
498.2583412031947
 20
240.6513663725098
 30
0.0
 10
497.5907512016196
 20
240.6804668855729
 30
0.0
 10
496.9464863412693
 20
240.7073561717928
 30
0.0
 10
496.3303279606117
 20
240.7318171296924
 30
0.0
 10
495.7502424678786
 20
240.753333668843
 30
0.0
 10
495.3092041225788
 20
240.7687757975652
 30
0.0
 10
495.0771140509052
 20
240.7759281766134
 30
0.0
 10
495.0121085351969
 20
240.7779314682028
 30
0.0
  0
SPLINE
  5
25F
330
1F
100
AcDbEntity
  8
0
  6
Continuous
 62
     7
370
    15
100
AcDbSpline
210
0.0
220
0.0
230
1.0
 70
     8
 71
     3
 72
    12
 73
     8
 74
     0
 42
0.00000001
 43
0.00000001
 12
1.0
 22
0.0
 32
0.0
 13
1.0
 23
0.0
 33
0.0
 40
0.0
 40
0.0
 40
0.0
 40
0.0
 40
0.1463984494807319
 40
0.3707434968969333
 40
0.5942900397768565
 40
0.7971457149352955
 40
1.0
 40
1.0
 40
1.0
 40
1.0
 10
495.0121085351969
 20
240.5207020357391
 30
0.0
 10
495.1231167692364
 20
240.512914375916
 30
0.0
 10
495.40423710226
 20
240.493192690026
 30
0.0
 10
495.8999912163773
 20
240.4606776501595
 30
0.0
 10
496.4716202106517
 20
240.4247587485081
 30
0.0
 10
497.0527826900867
 20
240.389809034609
 30
0.0
 10
497.4454602834836
 20
240.3673475510215
 30
0.0
 10
497.6417984074618
 20
240.3561168477079
 30
0.0
  0
LINE
  5
260
330
1F
100
AcDbEntity
  8
0
  6
Continuous
 62
     7
370
    15
100
AcDbLine
 10
497.6417984075
 20
240.3561168477
 30
0.0
 11
503.640208692
 21
240.0168006435
 31
0.0
  0
SPLINE
  5
261
330
1F
100
AcDbEntity
  8
0
  6
Continuous
 62
     7
370
    15
100
AcDbSpline
210
0.0
220
0.0
230
1.0
 70
     8
 71
     3
 72
    49
 73
    45
 74
     0
 42
0.00000001
 43
0.00000001
 12
1.0
 22
0.0
 32
0.0
 13
1.0
 23
0.0
 33
0.0
 40
0.0
 40
0.0
 40
0.0
 40
0.0
 40
0.0624999999999992
 40
0.0624999999999992
 40
0.1249999999999984
 40
0.1249999999999984
 40
0.1874999999999976
 40
0.1874999999999976
 40
0.2187499999999973
 40
0.2187499999999973
 40
0.2499999999999969
 40
0.2812499999999966
 40
0.2812499999999966
 40
0.3124999999999963
 40
0.3124999999999963
 40
0.3749999999999966
 40
0.3749999999999966
 40
0.4062499999999964
 40
0.4062499999999964
 40
0.4374999999999962
 40
0.4374999999999962
 40
0.4999999999999959
 40
0.4999999999999959
 40
0.5312499999999958
 40
0.5312499999999958
 40
0.5624999999999958
 40
0.5624999999999958
 40
0.6249999999999962
 40
0.6249999999999962
 40
0.6874999999999968
 40
0.6874999999999968
 40
0.7187499999999971
 40
0.7187499999999971
 40
0.7499999999999973
 40
0.7499999999999973
 40
0.8124999999999981
 40
0.8124999999999981
 40
0.8749999999999988
 40
0.8749999999999988
 40
0.9374999999999996
 40
0.9374999999999996
 40
0.9687499999999999
 40
0.9687499999999999
 40
1.0
 40
1.0
 40
1.0
 40
1.0
 10
503.6402106355096
 20
240.0168004452747
 30
0.0
 10
504.1523629875627
 20
239.9878214942001
 30
0.0
 10
504.6795323691038
 20
239.9594157196637
 30
0.0
 10
505.7635786071704
 20
239.9036874720889
 30
0.0
 10
506.3244135751985
 20
239.8762042471123
 30
0.0
 10
507.4291830907276
 20
239.8245694111142
 30
0.0
 10
507.9784495447245
 20
239.8001270203974
 30
0.0
 10
508.7975624231145
 20
239.7654799048304
 30
0.0
 10
509.0698678507119
 20
239.7542707660719
 30
0.0
 10
509.6008123352277
 20
239.7330115897819
 30
0.0
 10
510.1212087891799
 20
239.7127773555644
 30
0.0
 10
510.6208410302069
 20
239.6945282256261
 30
0.0
 10
511.1099549269381
 20
239.6772687660376
 30
0.0
 10
511.3504075008729
 20
239.6690966652821
 30
0.0
 10
512.0466549270892
 20
239.6463846624451
 30
0.0
 10
512.473823045602
 20
239.6337380798546
 30
0.0
 10
513.0606262503925
 20
239.6183317047449
 30
0.0
 10
513.2471706552448
 20
239.6137948020314
 30
0.0
 10
513.6016029476516
 20
239.6059444217495
 30
0.0
 10
513.7684896135506
 20
239.6026575902887
 30
0.0
 10
514.2305666474568
 20
239.5948250814783
 30
0.0
 10
514.4910345069214
 20
239.5922073747234
 30
0.0
 10
514.8100296693314
 20
239.592187939524
 30
0.0
 10
514.904723869134
 20
239.5928479425864
 30
0.0
 10
515.0662152001496
 20
239.5954844798793
 30
0.0
 10
515.1332981720689
 20
239.5974520533384
 30
0.0
 10
515.2945622417325
 20
239.6052612657809
 30
0.0
 10
515.3491501792354
 20
239.6129892044553
 30
0.0
 10
515.3484106413262
 20
239.6337493834634
 30
0.0
 10
515.2928810047672
 20
239.6464853355553
 30
0.0
 10
515.1305368451747
 20
239.6689494973132
 30
0.0
 10
515.0631485027991
 20
239.6770069866684
 30
0.0
 10
514.9012676282247
 20
239.694299788046
 30
0.0
 10
514.8062332222522
 20
239.7035785889037
 30
0.0
 10
514.4859853647031
 20
239.7326424640956
 30
0.0
 10
514.2249121516742
 20
239.7537818627277
 30
0.0
 10
513.6087779606269
 20
239.7996751555738
 30
0.0
 10
513.2501670651834
 20
239.8246379321625
 30
0.0
 10
512.4670436628012
 20
239.8762798262326
 30
0.0
 10
512.040025396938
 20
239.9031672919891
 30
0.0
 10
511.3451841251953
 20
239.9452039636877
 30
0.0
 10
511.1042562106566
 20
239.9595101158228
 30
0.0
 10
510.614728137611
 20
239.9880734399703
 30
0.0
 10
510.364845780168
 20
240.0024091631769
 30
0.0
 10
510.1099277504277
 20
240.0168004452747
 30
0.0
  0
LINE
  5
262
330
1F
100
AcDbEntity
  8
0
  6
Continuous
 62
     7
370
    15
100
AcDbLine
 10
510.1099278039
 20
240.0168006435
 30
0.0
 11
504.0979053086
 21
240.3561168477
 31
0.0
  0
SPLINE
  5
263
330
1F
100
AcDbEntity
  8
0
  6
Continuous
 62
     7
370
    15
100
AcDbSpline
210
0.0
220
0.0
230
1.0
 70
     8
 71
     3
 72
    12
 73
     8
 74
     0
 42
0.00000001
 43
0.00000001
 12
1.0
 22
0.0
 32
0.0
 13
1.0
 23
0.0
 33
0.0
 40
0.0
 40
0.0
 40
0.0
 40
0.0
 40
0.232618247853197
 40
0.4652370534602403
 40
0.6904203812971239
 40
0.9164098934976781
 40
1.0
 40
1.0
 40
1.0
 40
1.0
 10
339.6473492688204
 20
240.3561168477079
 30
0.0
 10
339.8708230749804
 20
240.3689204467822
 30
0.0
 10
340.3177712231281
 20
240.3945276756303
 30
0.0
 10
340.9460472925262
 20
240.4326438279003
 30
0.0
 10
341.5334884458582
 20
240.470043919432
 30
0.0
 10
341.9716879215727
 20
240.4990495139601
 30
0.0
 10
342.2009850429249
 20
240.5153271365163
 30
0.0
 10
342.2628979391123
 20
240.5197222843906
 30
0.0
  0
SPLINE
  5
264
330
1F
100
AcDbEntity
  8
0
  6
Continuous
 62
     7
370
    15
100
AcDbSpline
210
0.0
220
0.0
230
1.0
 70
     8
 71
     3
 72
    21
 73
    17
 74
     0
 42
0.00000001
 43
0.00000001
 12
1.0
 22
0.0
 32
0.0
 13
1.0
 23
0.0
 33
0.0
 40
0.0
 40
0.0
 40
0.0
 40
0.0
 40
0.0463276612643969
 40
0.1190112192147899
 40
0.1914368977821994
 40
0.2639236720627567
 40
0.3366693038060847
 40
0.4094147067477106
 40
0.4819025066619692
 40
0.5544901088464169
 40
0.6273365509488072
 40
0.7001831204800547
 40
0.7727707837617137
 40
0.8484649049791507
 40
0.9243057591726992
 40
1.0
 40
1.0
 40
1.0
 40
1.0
 10
342.2628979391123
 20
240.7774937465927
 30
0.0
 10
342.154536830268
 20
240.7740658652196
 30
0.0
 10
341.8761677667955
 20
240.7652599740868
 30
0.0
 10
341.3836245437292
 20
240.7477138366452
 30
0.0
 10
340.7949267936011
 20
240.7254506481272
 30
0.0
 10
340.1725307206023
 20
240.7003818419096
 30
0.0
 10
339.5231838140137
 20
240.6729434232376
 30
0.0
 10
338.8519236796619
 20
240.6433732905941
 30
0.0
 10
338.1638550062322
 20
240.6119331489766
 30
0.0
 10
337.4626872365199
 20
240.5788078330605
 30
0.0
 10
336.7529850263112
 20
240.5442651806552
 30
0.0
 10
336.0408686724655
 20
240.5086355225244
 30
0.0
 10
335.3218551312274
 20
240.4717040091641
 30
0.0
 10
334.6016715427355
 20
240.4336976181471
 30
0.0
 10
333.8835105604568
 20
240.3948597437452
 30
0.0
 10
333.421849543031
 20
240.3690228137974
 30
0.0
 10
333.1912423676516
 20
240.3561168477079
 30
0.0
  0
LINE
  5
265
330
1F
100
AcDbEntity
  8
0
  6
Continuous
 62
     7
370
    15
100
AcDbLine
 10
333.1912423677
 20
240.3561168477
 30
0.0
 11
327.1792198724
 21
240.0168006435
 31
0.0
  0
SPLINE
  5
266
330
1F
100
AcDbEntity
  8
0
  6
Continuous
 62
     7
370
    15
100
AcDbSpline
210
0.0
220
0.0
230
1.0
 70
     8
 71
     3
 72
    51
 73
    47
 74
     0
 42
0.00000001
 43
0.00000001
 12
1.0
 22
0.0
 32
0.0
 13
1.0
 23
0.0
 33
0.0
 40
0.0
 40
0.0
 40
0.0
 40
0.0
 40
0.0312500000000012
 40
0.0312500000000012
 40
0.0625000000000024
 40
0.0625000000000024
 40
0.1250000000000035
 40
0.1250000000000035
 40
0.1562500000000039
 40
0.1562500000000039
 40
0.187500000000004
 40
0.187500000000004
 40
0.2500000000000043
 40
0.2500000000000043
 40
0.2812500000000044
 40
0.2812500000000044
 40
0.3125000000000045
 40
0.3125000000000045
 40
0.3750000000000047
 40
0.3750000000000047
 40
0.4375000000000049
 40
0.4375000000000049
 40
0.4687500000000052
 40
0.4687500000000052
 40
0.5000000000000054
 40
0.5000000000000054
 40
0.5625000000000053
 40
0.5625000000000053
 40
0.6250000000000053
 40
0.6250000000000053
 40
0.6875000000000052
 40
0.6875000000000052
 40
0.7187500000000046
 40
0.7187500000000046
 40
0.7500000000000039
 40
0.7812500000000032
 40
0.7812500000000032
 40
0.8125000000000024
 40
0.8125000000000024
 40
0.8750000000000028
 40
0.8750000000000028
 40
0.9062500000000022
 40
0.9062500000000022
 40
0.9375000000000016
 40
0.9375000000000016
 40
1.0
 40
1.0
 40
1.0
 40
1.0
 10
327.1792199258542
 20
240.0168004452747
 30
0.0
 10
326.9243165783948
 20
240.0024099920584
 30
0.0
 10
326.6746027625169
 20
239.9880838043442
 30
0.0
 10
326.1856857939516
 20
239.9595567896902
 30
0.0
 10
325.9453441688925
 20
239.9452867515099
 30
0.0
 10
325.2492347949812
 20
239.9031755686724
 30
0.0
 10
324.822086482954
 20
239.8762780605105
 30
0.0
 10
324.2351883924744
 20
239.837576863511
 30
0.0
 10
324.048591386323
 20
239.8249524553598
 30
0.0
 10
323.694005815132
 20
239.8002570818846
 30
0.0
 10
323.5269275621657
 20
239.7882451207954
 30
0.0
 10
323.0642856197236
 20
239.7537871152342
 30
0.0
 10
322.8033561771878
 20
239.7326563073109
 30
0.0
 10
322.4835167193838
 20
239.7036351164022
 30
0.0
 10
322.3885039035641
 20
239.6943633216388
 30
0.0
 10
322.2262487770603
 20
239.6770367429803
 30
0.0
 10
322.1587772941042
 20
239.6689705171545
 30
0.0
 10
321.9963193642884
 20
239.6464966482032
 30
0.0
 10
321.9408987761252
 20
239.6337965319954
 30
0.0
 10
321.9398396474442
 20
239.6130318945267
 30
0.0
 10
321.9945196839461
 20
239.6052699572822
 30
0.0
 10
322.1556231886835
 20
239.597460265542
 30
0.0
 10
322.2226024041332
 20
239.5954938115004
 30
0.0
 10
322.383663898063
 20
239.5928564327809
 30
0.0
 10
322.4783284513369
 20
239.5921906548277
 30
0.0
 10
322.797690486505
 20
239.5922018480485
 30
0.0
 10
323.0582524020926
 20
239.594822646886
 30
0.0
 10
323.6734173339858
 20
239.6052438324072
 30
0.0
 10
324.0317603598524
 20
239.6131680153248
 30
0.0
 10
324.8146842292089
 20
239.6337190469706
 30
0.0
 10
325.241628684396
 20
239.6463600238871
 30
0.0
 10
325.9363263752554
 20
239.669016162697
 30
0.0
 10
326.1773589887668
 20
239.6772053495151
 30
0.0
 10
326.6670970949214
 20
239.6944842602027
 30
0.0
 10
327.1670511876695
 20
239.7127438527412
 30
0.0
 10
327.6870913004745
 20
239.732963005332
 30
0.0
 10
328.2172934345636
 20
239.7541900105278
 30
0.0
 10
328.4888068169527
 20
239.7653640887441
 30
0.0
 10
329.3094209302014
 20
239.800069603826
 30
0.0
 10
329.8589905515479
 20
239.8245259413139
 30
0.0
 10
330.686970449096
 20
239.8632210762555
 30
0.0
 10
330.9635723933666
 20
239.8764567232382
 30
0.0
 10
331.5180282440155
 20
239.9036352802016
 30
0.0
 10
331.7946702142609
 20
239.91752252775
 30
0.0
 10
332.6089931082994
 20
239.959381336435
 30
0.0
 10
333.1366381664391
 20
239.9878132035772
 30
0.0
 10
333.6489370407721
 20
240.0168004452747
 30
0.0
  0
LINE
  5
267
330
1F
100
AcDbEntity
  8
0
  6
Continuous
 62
     7
370
    15
100
AcDbLine
 10
333.6489389843
 20
240.0168006435
 30
0.0
 11
339.6473492688
 21
240.3561168477
 31
0.0
  0
SPLINE
  5
268
330
1F
100
AcDbEntity
  8
0
  6
Continuous
 62
     7
370
    15
100
AcDbSpline
210
0.0
220
0.0
230
1.0
 70
     8
 71
     3
 72
    49
 73
    45
 74
     0
 42
0.00000001
 43
0.00000001
 12
1.0
 22
0.0
 32
0.0
 13
1.0
 23
0.0
 33
0.0
 40
0.0
 40
0.0
 40
0.0
 40
0.0
 40
0.0625000000000002
 40
0.0625000000000002
 40
0.1250000000000004
 40
0.1250000000000004
 40
0.1875000000000007
 40
0.1875000000000007
 40
0.2187500000000008
 40
0.2187500000000008
 40
0.250000000000001
 40
0.2812500000000012
 40
0.2812500000000012
 40
0.3125000000000013
 40
0.3125000000000013
 40
0.3750000000000014
 40
0.3750000000000014
 40
0.4062500000000013
 40
0.4062500000000013
 40
0.4375000000000012
 40
0.4375000000000012
 40
0.500000000000001
 40
0.500000000000001
 40
0.531250000000001
 40
0.531250000000001
 40
0.5625000000000009
 40
0.5625000000000009
 40
0.625000000000001
 40
0.625000000000001
 40
0.6875000000000011
 40
0.6875000000000011
 40
0.7187500000000012
 40
0.7187500000000012
 40
0.7500000000000013
 40
0.7500000000000013
 40
0.8125000000000013
 40
0.8125000000000013
 40
0.8750000000000013
 40
0.8750000000000013
 40
0.9375000000000013
 40
0.9375000000000013
 40
0.9687500000000007
 40
0.9687500000000007
 40
1.0
 40
1.0
 40
1.0
 40
1.0
 10
392.378958612805
 20
240.356116104158
 30
0.0
 10
392.588756553126
 20
240.3849169396682
 30
0.0
 10
392.7465501818405
 20
240.4136495408945
 30
0.0
 10
392.9592420334548
 20
240.4709778778091
 30
0.0
 10
393.0131158275829
 20
240.4997547252307
 30
0.0
 10
393.0110616579403
 20
240.5546875831096
 30
0.0
 10
392.9568921518446
 20
240.5811356620945
 30
0.0
 10
392.7941894921545
 20
240.6191541372172
 30
0.0
 10
392.7260307968987
 20
240.6315541061492
 30
0.0
 10
392.5652312822692
 20
240.65522931809
 30
0.0
 10
392.3794496503574
 20
240.6779254329365
 30
0.0
 10
392.1445128090514
 20
240.6986527550433
 30
0.0
 10
391.8846929095655
 20
240.7183609777337
 30
0.0
 10
391.7416119334409
 20
240.7277456325689
 30
0.0
 10
391.2787404910931
 20
240.7539816592206
 30
0.0
 10
390.9296118309684
 20
240.768759209546
 30
0.0
 10
390.3468865583747
 20
240.7868545662308
 30
0.0
 10
390.1427349906292
 20
240.7922033793092
 30
0.0
 10
389.7140404543148
 20
240.8014791193667
 30
0.0
 10
389.4900735896391
 20
240.8053817524712
 30
0.0
 10
388.8022576728985
 20
240.8146868393448
 30
0.0
 10
388.3181963656311
 20
240.8178101506608
 30
0.0
 10
387.5537511873362
 20
240.8178348918486
 30
0.0
 10
387.2909886982998
 20
240.8170502178746
 30
0.0
 10
386.7606892230677
 20
240.8139104894918
 30
0.0
 10
386.4933985599561
 20
240.8115679249312
 30
0.0
 10
385.6852705141505
 20
240.8022936997881
 30
0.0
 10
385.1382375122501
 20
240.7931347828968
 30
0.0
 10
384.0270336896441
 20
240.7687749104801
 30
0.0
 10
383.4770929098233
 20
240.7538662142313
 30
0.0
 10
382.6696289724095
 20
240.7279307752227
 30
0.0
 10
382.4028795902641
 20
240.7186744436739
 30
0.0
 10
381.8742810564615
 20
240.6989391127187
 30
0.0
 10
381.6111706427853
 20
240.6884014760526
 30
0.0
 10
380.8447489517673
 20
240.6555796771927
 30
0.0
 10
380.3606666315284
 20
240.6319983404292
 30
0.0
 10
379.4453373986657
 20
240.5816548453081
 30
0.0
 10
379.0112963646548
 20
240.5546380006855
 30
0.0
 10
378.2327176892409
 20
240.499670785696
 30
0.0
 10
377.8836628403175
 20
240.471519375137
 30
0.0
 10
377.4213960682768
 20
240.4283233734938
 30
0.0
 10
377.2773172140235
 20
240.4137166113538
 30
0.0
 10
377.0161123134033
 20
240.3848021682278
 30
0.0
 10
376.8981326291014
 20
240.3704218315042
 30
0.0
 10
376.7925381024911
 20
240.356116104158
 30
0.0
  0
LINE
  5
269
330
1F
100
AcDbEntity
  8
0
  6
Continuous
 62
     7
370
    15
100
AcDbLine
 10
376.7925392097
 20
240.3561168477
 30
0.0
 11
374.288667292
 21
240.0168006435
 31
0.0
  0
SPLINE
  5
26A
330
1F
100
AcDbEntity
  8
0
  6
Continuous
 62
     7
370
    15
100
AcDbSpline
210
0.0
220
0.0
230
1.0
 70
     8
 71
     3
 72
    49
 73
    45
 74
     0
 42
0.00000001
 43
0.00000001
 12
1.0
 22
0.0
 32
0.0
 13
1.0
 23
0.0
 33
0.0
 40
0.0
 40
0.0
 40
0.0
 40
0.0
 40
0.0624999999999995
 40
0.0624999999999995
 40
0.1249999999999989
 40
0.1249999999999989
 40
0.1874999999999984
 40
0.1874999999999984
 40
0.2187499999999982
 40
0.2187499999999982
 40
0.2499999999999979
 40
0.2812499999999976
 40
0.2812499999999976
 40
0.3124999999999973
 40
0.3124999999999973
 40
0.3749999999999968
 40
0.3749999999999968
 40
0.4062499999999963
 40
0.4062499999999963
 40
0.4374999999999958
 40
0.4374999999999958
 40
0.4999999999999953
 40
0.4999999999999953
 40
0.5312499999999951
 40
0.5312499999999951
 40
0.5624999999999948
 40
0.5624999999999948
 40
0.6249999999999948
 40
0.6249999999999948
 40
0.6874999999999949
 40
0.6874999999999949
 40
0.7187499999999952
 40
0.7187499999999952
 40
0.7499999999999957
 40
0.7499999999999957
 40
0.8124999999999964
 40
0.8124999999999964
 40
0.8749999999999972
 40
0.8749999999999972
 40
0.9374999999999981
 40
0.9374999999999981
 40
0.968749999999999
 40
0.968749999999999
 40
1.0
 40
1.0
 40
1.0
 40
1.0
 10
374.2886666454988
 20
240.0168004452747
 30
0.0
 10
374.0748823419192
 20
239.9878214942001
 30
0.0
 10
373.9135009136172
 20
239.9594157196637
 30
0.0
 10
373.6944136220794
 20
239.9036874720889
 30
0.0
 10
373.6377322361183
 20
239.8762042471123
 30
0.0
 10
373.6352519244867
 20
239.8245694111142
 30
0.0
 10
373.6876501908263
 20
239.8001270203974
 30
0.0
 10
373.8485139844121
 20
239.7654799048304
 30
0.0
 10
373.9161723931823
 20
239.7542707660719
 30
0.0
 10
374.0762337173778
 20
239.7330115897819
 30
0.0
 10
374.2615453622762
 20
239.7127773190347
 30
0.0
 10
374.4965610390566
 20
239.6945282256261
 30
0.0
 10
374.7567530664397
 20
239.6772687660376
 30
0.0
 10
374.9002298444578
 20
239.6690966652821
 30
0.0
 10
375.3641287848216
 20
239.6463846624451
 30
0.0
 10
375.7144335000189
 20
239.6337380798546
 30
0.0
 10
376.2997311872785
 20
239.6183317047449
 30
0.0
 10
376.5048761472603
 20
239.6137948020314
 30
0.0
 10
376.9358597427643
 20
239.6059444217495
 30
0.0
 10
377.1607229083193
 20
239.6026575902887
 30
0.0
 10
377.8517842334077
 20
239.5948250814783
 30
0.0
 10
378.3384336913691
 20
239.5922073747234
 30
0.0
 10
379.1075013066917
 20
239.592187939524
 30
0.0
 10
379.3719410701202
 20
239.5928479425864
 30
0.0
 10
379.9048600912695
 20
239.5954844798793
 30
0.0
 10
380.1735427315085
 20
239.5974520533384
 30
0.0
 10
380.9860967295185
 20
239.6052612657809
 30
0.0
 10
381.5364104489589
 20
239.6129892044553
 30
0.0
 10
382.6549219067665
 20
239.6337493834634
 30
0.0
 10
383.206596584389
 20
239.6464853355553
 30
0.0
 10
384.0183883792612
 20
239.6689494973132
 30
0.0
 10
384.2866216785418
 20
239.6770069866684
 30
0.0
 10
384.8182607555763
 20
239.694299788046
 30
0.0
 10
385.082655717976
 20
239.7035785889037
 30
0.0
 10
385.8518750644157
 20
239.7326424640956
 30
0.0
 10
386.3378636080337
 20
239.7537818627277
 30
0.0
 10
387.2568410489852
 20
239.7996751555738
 30
0.0
 10
387.691911572733
 20
239.8246379321625
 30
0.0
 10
388.4712421422313
 20
239.8762798262326
 30
0.0
 10
388.8205216784443
 20
239.9031672919891
 30
0.0
 10
389.282571153732
 20
239.9452039636877
 30
0.0
 10
389.4260828068529
 20
239.9595101158228
 30
0.0
 10
389.6859256836578
 20
239.9880734399703
 30
0.0
 10
389.8031713004196
 20
240.0024091631769
 30
0.0
 10
389.9079454490511
 20
240.0168004452747
 30
0.0
  0
LINE
  5
26B
330
1F
100
AcDbEntity
  8
0
  6
Continuous
 62
     7
370
    15
100
AcDbLine
 10
389.9079452461
 20
240.0168006435
 30
0.0
 11
392.3789582408
 21
240.3561168477
 31
0.0
  0
SPLINE
  5
26C
330
1F
100
AcDbEntity
  8
0
  6
Continuous
 62
     7
370
    15
100
AcDbSpline
210
0.0
220
0.0
230
1.0
 70
     8
 71
     3
 72
    50
 73
    46
 74
     0
 42
0.00000001
 43
0.00000001
 12
1.0
 22
0.0
 32
0.0
 13
1.0
 23
0.0
 33
0.0
 40
0.0
 40
0.0
 40
0.0
 40
0.0
 40
0.0312499999999989
 40
0.0312499999999989
 40
0.0624999999999977
 40
0.0624999999999977
 40
0.1249999999999955
 40
0.1249999999999955
 40
0.1562499999999949
 40
0.1562499999999949
 40
0.1874999999999943
 40
0.1874999999999943
 40
0.2499999999999941
 40
0.2499999999999941
 40
0.2812499999999939
 40
0.2812499999999939
 40
0.3124999999999938
 40
0.3124999999999938
 40
0.3749999999999943
 40
0.3749999999999943
 40
0.4374999999999948
 40
0.4374999999999948
 40
0.4687499999999949
 40
0.4687499999999949
 40
0.499999999999995
 40
0.499999999999995
 40
0.5624999999999952
 40
0.5624999999999952
 40
0.6249999999999953
 40
0.6249999999999953
 40
0.6874999999999956
 40
0.6874999999999956
 40
0.7187499999999957
 40
0.7187499999999957
 40
0.7499999999999957
 40
0.7499999999999957
 40
0.8124999999999976
 40
0.8124999999999976
 40
0.8749999999999994
 40
0.8749999999999994
 40
0.9062499999999996
 40
0.9062499999999996
 40
0.9374999999999996
 40
0.9374999999999996
 40
1.0
 40
1.0
 40
1.0
 40
1.0
 10
460.4966095737912
 20
240.356116104158
 30
0.0
 10
460.3910345798161
 20
240.3704191852634
 30
0.0
 10
460.2731883290182
 20
240.3847819839607
 30
0.0
 10
460.0126401680768
 20
240.4136302193072
 30
0.0
 10
459.869150357274
 20
240.4281877254762
 30
0.0
 10
459.405707647293
 20
240.4715083935328
 30
0.0
 10
459.0562978788341
 20
240.4996774398107
 30
0.0
 10
458.4732230016788
 20
240.5408462037062
 30
0.0
 10
458.2689672944235
 20
240.5543866242276
 30
0.0
 10
457.8400786220186
 20
240.5810777900923
 30
0.0
 10
457.6162354201944
 20
240.5941695496274
 30
0.0
 10
456.9286479822622
 20
240.6319931653351
 30
0.0
 10
456.4447400002496
 20
240.6555584152147
 30
0.0
 10
455.6804627713146
 20
240.6882983311848
 30
0.0
 10
455.4177421010457
 20
240.698827886114
 30
0.0
 10
454.8877184643529
 20
240.7186241319995
 30
0.0
 10
454.6205473599125
 20
240.7278961816144
 30
0.0
 10
453.8127184042436
 20
240.7538479977225
 30
0.0
 10
453.2658060479271
 20
240.7686811865227
 30
0.0
 10
452.1546504348224
 20
240.7930654896126
 30
0.0
 10
451.6047546805543
 20
240.8022790226694
 30
0.0
 10
450.7972310433223
 20
240.8115532131368
 30
0.0
 10
450.5304498107926
 20
240.8138933265596
 30
0.0
 10
450.0017666110412
 20
240.8170341744257
 30
0.0
 10
449.738593043021
 20
240.8178298739317
 30
0.0
 10
448.9719975036318
 20
240.8178203530724
 30
0.0
 10
448.4878417786259
 20
240.8146905994106
 30
0.0
 10
447.5724805131597
 20
240.8023253713435
 30
0.0
 10
447.1384873901371
 20
240.7929385996209
 30
0.0
 10
446.3602942512825
 20
240.7687921045824
 30
0.0
 10
446.0115449613992
 20
240.7540246990023
 30
0.0
 10
445.5499120923518
 20
240.7278909494113
 30
0.0
 10
445.4061134646474
 20
240.7184771498854
 30
0.0
 10
445.1455388138435
 20
240.6987308737671
 30
0.0
 10
445.0278949221224
 20
240.6883567749474
 30
0.0
 10
444.7121780240386
 20
240.6557932681523
 30
0.0
 10
444.550527104319
 20
240.6320748189645
 30
0.0
 10
444.3324085971381
 20
240.5812350152863
 30
0.0
 10
444.2782284662969
 20
240.554760713143
 30
0.0
 10
444.2764805834115
 20
240.5136120402478
 30
0.0
 10
444.2892482757641
 20
240.4996539956003
 30
0.0
 10
444.3421876028447
 20
240.471251718861
 30
0.0
 10
444.3825275645376
 20
240.4568160361087
 30
0.0
 10
444.542219228094
 20
240.4137083650338
 30
0.0
 10
444.7002872623239
 20
240.3849311975716
 30
0.0
 10
444.9101890634772
 20
240.356116104158
 30
0.0
  0
LINE
  5
26D
330
1F
100
AcDbEntity
  8
0
  6
Continuous
 62
     7
370
    15
100
AcDbLine
 10
444.9101894355
 20
240.3561168477
 30
0.0
 11
447.3812024302
 21
240.0168006435
 31
0.0
  0
SPLINE
  5
26E
330
1F
100
AcDbEntity
  8
0
  6
Continuous
 62
     7
370
    15
100
AcDbSpline
210
0.0
220
0.0
230
1.0
 70
     8
 71
     3
 72
    51
 73
    47
 74
     0
 42
0.00000001
 43
0.00000001
 12
1.0
 22
0.0
 32
0.0
 13
1.0
 23
0.0
 33
0.0
 40
0.0
 40
0.0
 40
0.0
 40
0.0
 40
0.0312499999999995
 40
0.0312499999999995
 40
0.062499999999999
 40
0.062499999999999
 40
0.1249999999999995
 40
0.1249999999999995
 40
0.1562499999999996
 40
0.1562499999999996
 40
0.1875
 40
0.1875
 40
0.2500000000000009
 40
0.2500000000000009
 40
0.2812500000000013
 40
0.2812500000000013
 40
0.3125000000000018
 40
0.3125000000000018
 40
0.3750000000000026
 40
0.3750000000000026
 40
0.4375000000000034
 40
0.4375000000000034
 40
0.4687500000000037
 40
0.4687500000000037
 40
0.5000000000000039
 40
0.5000000000000039
 40
0.5625000000000038
 40
0.5625000000000038
 40
0.6250000000000037
 40
0.6250000000000037
 40
0.6875000000000036
 40
0.6875000000000036
 40
0.7187500000000039
 40
0.7187500000000039
 40
0.7500000000000042
 40
0.7812500000000047
 40
0.7812500000000047
 40
0.812500000000005
 40
0.812500000000005
 40
0.8750000000000043
 40
0.8750000000000043
 40
0.9062500000000033
 40
0.9062500000000033
 40
0.9375000000000022
 40
0.9375000000000022
 40
1.0
 40
1.0
 40
1.0
 40
1.0
 10
447.3812022272311
 20
240.0168004452747
 30
0.0
 10
447.4859703412818
 20
240.0024099920584
 30
0.0
 10
447.6031452727195
 20
239.9880838043441
 30
0.0
 10
447.8626227429138
 20
239.9595567896902
 30
0.0
 10
448.0057040893819
 20
239.9452867515099
 30
0.0
 10
448.4684601842304
 20
239.9031755686724
 30
0.0
 10
448.8179592287724
 20
239.8762780605105
 30
0.0
 10
449.4019604929256
 20
239.837576863511
 30
0.0
 10
449.6066584675989
 20
239.8249524553598
 30
0.0
 10
450.0367113353618
 20
239.8002570818846
 30
0.0
 10
450.2612123781298
 20
239.7882451207955
 30
0.0
 10
450.9511225880102
 20
239.7537871152342
 30
0.0
 10
451.4370141730016
 20
239.7326563073109
 30
0.0
 10
452.2049420781439
 20
239.7036351164022
 30
0.0
 10
452.4690079899638
 20
239.6943633216388
 30
0.0
 10
453.0015372810113
 20
239.6770367429803
 30
0.0
 10
453.2700361706293
 20
239.6689705171545
 30
0.0
 10
454.0820694708344
 20
239.6464966482032
 30
0.0
 10
454.6320765923805
 20
239.6337965319954
 30
0.0
 10
455.7500477927867
 20
239.6130318945267
 30
0.0
 10
456.3024216007381
 20
239.6052699572822
 30
0.0
 10
457.1146132853758
 20
239.597460265542
 30
0.0
 10
457.382984554157
 20
239.5954938115004
 30
0.0
 10
457.9149112739781
 20
239.5928564327809
 30
0.0
 10
458.1795928424779
 20
239.5921906548277
 30
0.0
 10
458.9499934947154
 20
239.5922018480485
 30
0.0
 10
459.43670271557
 20
239.594822646886
 30
0.0
 10
460.3570533728516
 20
239.6052438324072
 30
0.0
 10
460.7930426249834
 20
239.6131680153248
 30
0.0
 10
461.5741927609735
 20
239.6337190469706
 30
0.0
 10
461.9242624078197
 20
239.6463600238871
 30
0.0
 10
462.3873993850208
 20
239.669016162697
 30
0.0
 10
462.5313548437131
 20
239.6772053495151
 30
0.0
 10
462.792007066477
 20
239.6944842602027
 30
0.0
 10
463.0272368670161
 20
239.7127438358615
 30
0.0
 10
463.2124810230521
 20
239.732963005332
 30
0.0
 10
463.3724340043134
 20
239.7541900105278
 30
0.0
 10
463.4400096801852
 20
239.7653640887441
 30
0.0
 10
463.6014024051688
 20
239.800069603826
 30
0.0
 10
463.6538082079652
 20
239.8245259413139
 30
0.0
 10
463.6520837439527
 20
239.8632210762555
 30
0.0
 10
463.6380228205419
 20
239.8764567232382
 30
0.0
 10
463.582147189834
 20
239.9036352802016
 30
0.0
 10
463.5402976827533
 20
239.91752252775
 30
0.0
 10
463.3758733886412
 20
239.959381336435
 30
0.0
 10
463.2143264961704
 20
239.9878132035772
 30
0.0
 10
463.0004810307834
 20
240.0168004452747
 30
0.0
  0
LINE
  5
26F
330
1F
100
AcDbEntity
  8
0
  6
Continuous
 62
     7
370
    15
100
AcDbLine
 10
463.0004803843
 20
240.0168006435
 30
0.0
 11
460.4966084665
 21
240.3561168477
 31
0.0
  0
LINE
  5
270
330
1F
100
AcDbEntity
  8
0
  6
Continuous
 62
     7
370
    15
100
AcDbLine
 10
533.144574911
 20
227.0406208128
 30
0.0
 11
524.4287814206
 21
227.0406208128
 31
0.0
  0
LINE
  5
271
330
1F
100
AcDbEntity
  8
0
  6
Continuous
 62
     7
370
    15
100
AcDbLine
 10
524.4287814206
 20
227.0406208128
 30
0.0
 11
508.1386010355
 21
227.0406208128
 31
0.0
  0
LINE
  5
272
330
1F
100
AcDbEntity
  8
0
  6
Continuous
 62
     7
370
    15
100
AcDbLine
 10
508.1386010355
 20
234.0406210289
 30
0.0
 11
490.0663386292
 21
234.0406210289
 31
0.0
  0
LINE
  5
273
330
1F
100
AcDbEntity
  8
0
  6
Continuous
 62
     7
370
    15
100
AcDbLine
 10
490.0663386292
 20
227.0406208128
 30
0.0
 11
462.4618257588
 21
227.0406208128
 31
0.0
  0
LINE
  5
274
330
1F
100
AcDbEntity
  8
0
  6
Continuous
 62
     7
370
    15
100
AcDbLine
 10
374.8273219174
 20
227.0406208128
 30
0.0
 11
347.2228090471
 21
227.0406208128
 31
0.0
  0
LINE
  5
275
330
1F
100
AcDbEntity
  8
0
  6
Continuous
 62
     7
370
    15
100
AcDbLine
 10
347.2228090471
 20
234.0406210289
 30
0.0
 11
329.1505466408
 21
234.0406210289
 31
0.0
  0
LINE
  5
276
330
1F
100
AcDbEntity
  8
0
  6
Continuous
 62
     7
370
    15
100
AcDbLine
 10
329.1505466408
 20
227.0406208128
 30
0.0
 11
312.8603662557
 21
227.0406208128
 31
0.0
  0
LINE
  5
277
330
1F
100
AcDbEntity
  8
0
  6
Continuous
 62
     7
370
    15
100
AcDbLine
 10
312.8603662557
 20
227.0406208128
 30
0.0
 11
304.1445727653
 21
227.0406208128
 31
0.0
  0
LINE
  5
278
330
1F
100
AcDbEntity
  8
0
  6
Continuous
 62
     7
370
    15
100
AcDbLine
 10
462.4618257588
 20
227.0406208128
 30
0.0
 11
374.8273219174
 21
227.0406208128
 31
0.0
  0
SPLINE
  5
279
330
1F
100
AcDbEntity
  8
0
  6
Continuous
 62
     7
370
    15
100
AcDbSpline
210
0.0
220
0.0
230
1.0
 70
     8
 71
     3
 72
     8
 73
     4
 74
     0
 42
0.00000001
 43
0.00000001
 12
1.0
 22
0.0
 32
0.0
 13
1.0
 23
0.0
 33
0.0
 40
0.0000002003097672
 40
0.0000002003097672
 40
0.0000002003097672
 40
0.0000002003097672
 40
0.0040063543049768
 40
0.0040063543049768
 40
0.0040063543049768
 40
0.0040063543049768
 10
396.2812301743354
 20
227.0406205967209
 30
0.0
 10
396.2450859548629
 20
225.7073010471209
 30
0.0
 10
396.2090695357521
 20
224.373966864562
 30
0.0
 10
396.173159712729
 20
223.0406205967209
 30
0.0
  0
SPLINE
  5
27A
330
1F
100
AcDbEntity
  8
0
  6
Continuous
 62
     7
370
    15
100
AcDbSpline
210
0.0
220
0.0
230
1.0
 70
     8
 71
     3
 72
     8
 73
     4
 74
     0
 42
0.00000001
 43
0.00000001
 12
1.0
 22
0.0
 32
0.0
 13
1.0
 23
0.0
 33
0.0
 40
0.0000002003057535
 40
0.0000002003057535
 40
0.0000002003057535
 40
0.0000002003057535
 40
0.0040063543009631
 40
0.0040063543009631
 40
0.0040063543009631
 40
0.0040063543009631
 10
441.1159879635532
 20
223.0406205967209
 30
0.0
 10
441.0800781405301
 20
224.373966864562
 30
0.0
 10
441.0440617214194
 20
225.7073010471209
 30
0.0
 10
441.0079175019468
 20
227.0406205967209
 30
0.0
  0
LINE
  5
27B
330
1F
100
AcDbEntity
  8
0
  6
Continuous
 62
     7
370
    15
100
AcDbLine
 10
396.1731589592
 20
227.0406208128
 30
0.0
 11
396.1731589592
 21
223.0406206228
 31
0.0
  0
LINE
  5
27C
330
1F
100
AcDbEntity
  8
0
  6
Continuous
 62
     7
370
    15
100
AcDbLine
 10
396.1731589592
 20
223.0406206228
 30
0.0
 11
363.0983050174
 21
223.0406206228
 31
0.0
  0
LINE
  5
27D
330
1F
100
AcDbEntity
  8
0
  6
Continuous
 62
     7
370
    15
100
AcDbLine
 10
441.1159887171
 20
227.0406208128
 30
0.0
 11
441.1159887171
 21
223.0406206228
 31
0.0
  0
LINE
  5
27E
330
1F
100
AcDbEntity
  8
0
  6
Continuous
 62
     7
370
    15
100
AcDbLine
 10
441.1159887171
 20
223.0406206228
 30
0.0
 11
474.1908426589
 21
223.0406206228
 31
0.0
  0
LINE
  5
27F
330
1F
100
AcDbEntity
  8
0
  6
Continuous
 62
     7
370
    15
100
AcDbLine
 10
437.6371300972
 20
223.0406206228
 30
0.0
 11
441.1159887171
 21
223.0406206228
 31
0.0
  0
LINE
  5
280
330
1F
100
AcDbEntity
  8
0
  6
Continuous
 62
     7
370
    15
100
AcDbLine
 10
399.6520175791
 20
223.0406206228
 30
0.0
 11
396.1731589592
 21
223.0406206228
 31
0.0
  0
LINE
  5
281
330
1F
100
AcDbEntity
  8
0
  6
Continuous
 62
     7
370
    15
100
AcDbLine
 10
403.7959336496
 20
223.0406206228
 30
0.0
 11
399.6520175791
 21
223.0406206228
 31
0.0
  0
LINE
  5
282
330
1F
100
AcDbEntity
  8
0
  6
Continuous
 62
     7
370
    15
100
AcDbLine
 10
433.4932140267
 20
223.0406206228
 30
0.0
 11
437.6371300972
 21
223.0406206228
 31
0.0
  0
LINE
  5
283
330
1F
100
AcDbEntity
  8
0
  6
Continuous
 62
     7
370
    15
100
AcDbLine
 10
376.2484344846
 20
345.3163516835
 30
0.0
 11
356.233887673
 21
345.3163516835
 31
0.0
  0
LINE
  5
284
330
1F
100
AcDbEntity
  8
0
  6
Continuous
 62
     7
370
    15
100
AcDbLine
 10
350.2319942421
 20
345.3163516835
 30
0.0
 11
356.233887673
 21
345.3163516835
 31
0.0
  0
LINE
  5
285
330
1F
100
AcDbEntity
  8
0
  6
Continuous
 62
     7
370
    15
100
AcDbLine
 10
350.2319942421
 20
350.3163469151
 30
0.0
 11
350.2319942421
 21
345.3163516835
 31
0.0
  0
LINE
  5
286
330
1F
100
AcDbEntity
  8
0
  6
Continuous
 62
     7
370
    15
100
AcDbLine
 10
384.6813555068
 20
350.3163469151
 30
0.0
 11
384.6813555068
 21
349.5471638754
 31
0.0
  0
SPLINE
  5
287
330
1F
100
AcDbEntity
  8
0
  6
Continuous
 62
     7
370
    15
100
AcDbSpline
210
0.0
220
0.0
230
1.0
 70
     8
 71
     3
 72
     8
 73
     4
 74
     0
 42
0.00000001
 43
0.00000001
 12
1.0
 22
0.0
 32
0.0
 13
1.0
 23
0.0
 33
0.0
 40
0.0
 40
0.0
 40
0.0
 40
0.0
 40
1.0
 40
1.0
 40
1.0
 40
1.0
 10
384.6813566464389
 20
349.5471671531619
 30
0.0
 10
381.8689308379568
 20
348.1427053461509
 30
0.0
 10
379.0581700963131
 20
346.731556770231
 30
0.0
 10
376.2484331344141
 20
345.3163527051167
 30
0.0
  0
LINE
  5
288
330
1F
100
AcDbEntity
  8
0
  6
Continuous
 62
     7
370
    15
100
AcDbLine
 10
384.6813555068
 20
350.3163469151
 30
0.0
 11
350.2319942421
 21
350.3163469151
 31
0.0
  0
LINE
  5
289
330
1F
100
AcDbEntity
  8
0
  6
Continuous
 62
     7
370
    15
100
AcDbLine
 10
327.6045735187
 20
350.3163469151
 30
0.0
 11
327.6045735187
 21
345.3163516835
 31
0.0
  0
LINE
  5
28A
330
1F
100
AcDbEntity
  8
0
  6
Continuous
 62
     7
370
    15
100
AcDbLine
 10
350.2319942421
 20
345.3163516835
 30
0.0
 11
327.6045735187
 21
345.3163516835
 31
0.0
  0
LINE
  5
28B
330
1F
100
AcDbEntity
  8
0
  6
Continuous
 62
     7
370
    15
100
AcDbLine
 10
350.2319942421
 20
350.3163469151
 30
0.0
 11
327.6045735187
 21
350.3163469151
 31
0.0
  0
LINE
  5
28C
330
1F
100
AcDbEntity
  8
0
  6
Continuous
 62
     7
370
    15
100
AcDbLine
 10
487.0571534342
 20
350.3163469151
 30
0.0
 11
487.0571534342
 21
345.3163516835
 31
0.0
  0
LINE
  5
28D
330
1F
100
AcDbEntity
  8
0
  6
Continuous
 62
     7
370
    15
100
AcDbLine
 10
509.6845741576
 20
350.3163469151
 30
0.0
 11
487.0571534342
 21
350.3163469151
 31
0.0
  0
LINE
  5
28E
330
1F
100
AcDbEntity
  8
0
  6
Continuous
 62
     7
370
    15
100
AcDbLine
 10
509.6845741576
 20
350.3163469151
 30
0.0
 11
509.6845741576
 21
345.3163516835
 31
0.0
  0
LINE
  5
28F
330
1F
100
AcDbEntity
  8
0
  6
Continuous
 62
     7
370
    15
100
AcDbLine
 10
509.6845741576
 20
345.3163516835
 30
0.0
 11
487.0571534342
 21
345.3163516835
 31
0.0
  0
LINE
  5
290
330
1F
100
AcDbEntity
  8
0
  6
Continuous
 62
     7
370
    15
100
AcDbLine
 10
452.6077921695
 20
349.5471638754
 30
0.0
 11
452.6077921695
 21
350.3163469151
 31
0.0
  0
LINE
  5
291
330
1F
100
AcDbEntity
  8
0
  6
Continuous
 62
     7
370
    15
100
AcDbLine
 10
481.0552600032
 20
345.3163516835
 30
0.0
 11
461.0407131917
 21
345.3163516835
 31
0.0
  0
SPLINE
  5
292
330
1F
100
AcDbEntity
  8
0
  6
Continuous
 62
     7
370
    15
100
AcDbSpline
210
0.0
220
0.0
230
1.0
 70
     8
 71
     3
 72
     8
 73
     4
 74
     0
 42
0.00000001
 43
0.00000001
 12
1.0
 22
0.0
 32
0.0
 13
1.0
 23
0.0
 33
0.0
 40
0.0
 40
0.0
 40
0.0
 40
0.0
 40
1.0
 40
1.0
 40
1.0
 40
1.0
 10
461.040714541869
 20
345.3163527051167
 30
0.0
 10
458.2309851990019
 20
346.7315529326885
 30
0.0
 10
455.4202314085716
 20
348.1426980701001
 30
0.0
 10
452.6077910298442
 20
349.5471671531619
 30
0.0
  0
LINE
  5
293
330
1F
100
AcDbEntity
  8
0
  6
Continuous
 62
     7
370
    15
100
AcDbLine
 10
487.0571534342
 20
350.3163469151
 30
0.0
 11
452.6077921695
 21
350.3163469151
 31
0.0
  0
LINE
  5
294
330
1F
100
AcDbEntity
  8
0
  6
Continuous
 62
     7
370
    15
100
AcDbLine
 10
487.0571534342
 20
345.3163516835
 30
0.0
 11
481.0552600032
 21
345.3163516835
 31
0.0
  0
LINE
  5
295
330
1F
100
AcDbEntity
  8
0
  6
Continuous
 62
     7
370
    15
100
AcDbLine
 10
491.0069148249
 20
227.0406208128
 30
0.0
 11
490.0663386292
 21
227.0406208128
 31
0.0
  0
LINE
  5
296
330
1F
100
AcDbEntity
  8
0
  6
Continuous
 62
     7
370
    15
100
AcDbLine
 10
347.2228090471
 20
227.0406208128
 30
0.0
 11
346.2822328514
 21
227.0406208128
 31
0.0
  0
LINE
  5
297
330
1F
100
AcDbEntity
  8
0
  6
Continuous
 62
     7
370
    15
100
AcDbLine
 10
474.3817041821
 20
227.0406208128
 30
0.0
 11
474.1908426589
 21
223.4649849717
 31
0.0
  0
LINE
  5
298
330
1F
100
AcDbEntity
  8
0
  6
Continuous
 62
     7
370
    15
100
AcDbLine
 10
363.0983050174
 20
223.4649849717
 30
0.0
 11
362.9074434942
 21
227.0406208128
 31
0.0
  0
LINE
  5
299
330
1F
100
AcDbEntity
  8
0
  6
Continuous
 62
     7
370
    15
100
AcDbLine
 10
413.6615272804
 20
223.0406206228
 30
0.0
 11
403.7959336496
 21
223.0406206228
 31
0.0
  0
LINE
  5
29A
330
1F
100
AcDbEntity
  8
0
  6
Continuous
 62
     7
370
    15
100
AcDbLine
 10
423.6276203959
 20
223.0406206228
 30
0.0
 11
433.4932140267
 21
223.0406206228
 31
0.0
  0
LINE
  5
29B
330
1F
100
AcDbEntity
  8
0
  6
Continuous
 62
     7
370
    15
100
AcDbLine
 10
356.233887673
 20
345.3163516835
 30
0.0
 11
369.9441480643
 21
320.0406220868
 31
0.0
  0
SPLINE
  5
29C
330
1F
100
AcDbEntity
  8
0
  6
Continuous
 62
     7
370
    15
100
AcDbSpline
210
0.0
220
0.0
230
1.0
 70
     8
 71
     3
 72
     8
 73
     4
 74
     0
 42
0.00000001
 43
0.00000001
 12
1.0
 22
0.0
 32
0.0
 13
1.0
 23
0.0
 33
0.0
 40
0.0000005961072614
 40
0.0000005961072614
 40
0.0000005961072614
 40
0.0000005961072614
 40
0.0074583428403484
 40
0.0074583428403484
 40
0.0074583428403484
 40
0.0074583428403484
 10
371.1878803369785
 20
342.8185516345456
 30
0.0
 10
372.8744193158168
 20
343.6526011233175
 30
0.0
 10
374.561243366785
 20
344.4853301380704
 30
0.0
 10
376.2484331344141
 20
345.3163527051167
 30
0.0
  0
SPLINE
  5
29D
330
1F
100
AcDbEntity
  8
0
  6
Continuous
 62
     7
370
    15
100
AcDbSpline
210
0.0
220
0.0
230
1.0
 70
     8
 71
     3
 72
     8
 73
     4
 74
     0
 42
0.00000001
 43
0.00000001
 12
1.0
 22
0.0
 32
0.0
 13
1.0
 23
0.0
 33
0.0
 40
0.0000002004659946
 40
0.0000002004659946
 40
0.0000002004659946
 40
0.0000002004659946
 40
0.0204563139527376
 40
0.0204563139527376
 40
0.0204563139527376
 40
0.0204563139527376
 10
371.0603231008719
 20
322.4097807061135
 30
0.0
 10
371.1017067238172
 20
329.2126345492617
 30
0.0
 10
371.1442379486822
 20
336.0155593088505
 30
0.0
 10
371.1878803369785
 20
342.8185516345456
 30
0.0
  0
SPLINE
  5
29E
330
1F
100
AcDbEntity
  8
0
  6
Continuous
 62
     7
370
    15
100
AcDbSpline
210
0.0
220
0.0
230
1.0
 70
     8
 71
     3
 72
    20
 73
    16
 74
     0
 42
0.00000001
 43
0.00000001
 12
1.0
 22
0.0
 32
0.0
 13
1.0
 23
0.0
 33
0.0
 40
0.0
 40
0.0
 40
0.0
 40
0.0
 40
0.2500000000000027
 40
0.2500000000000027
 40
0.3750000000000022
 40
0.3750000000000022
 40
0.5000000000000018
 40
0.5000000000000018
 40
0.6250000000000013
 40
0.6250000000000013
 40
0.7500000000000009
 40
0.7500000000000009
 40
0.8750000000000004
 40
0.8750000000000004
 40
1.0
 40
1.0
 40
1.0
 40
1.0
 10
372.7509668091741
 20
320.0406205967209
 30
0.0
 10
372.5270599247229
 20
320.0406205967209
 30
0.0
 10
372.3025828136696
 20
320.1004130171555
 30
0.0
 10
371.9960357444952
 20
320.2730778737993
 30
0.0
 10
371.8968744858323
 20
320.3454171529694
 30
0.0
 10
371.7122792662014
 20
320.5151155943603
 30
0.0
 10
371.6271851600006
 20
320.6117024650086
 30
0.0
 10
371.4713211933487
 20
320.8282166516553
 30
0.0
 10
371.4000659853117
 20
320.9495373959443
 30
0.0
 10
371.2780119037506
 20
321.2067555183568
 30
0.0
 10
371.2264929378776
 20
321.3432433765142
 30
0.0
 10
371.1427276409764
 20
321.6321892211809
 30
0.0
 10
371.1108440346305
 20
321.7845444009654
 30
0.0
 10
371.0694167001581
 20
322.0923891577394
 30
0.0
 10
371.0593477925669
 20
322.249454485785
 30
0.0
 10
371.0603231008719
 20
322.4097807061135
 30
0.0
  0
LINE
  5
29F
330
1F
100
AcDbEntity
  8
0
  6
Continuous
 62
     7
370
    15
100
AcDbLine
 10
372.7509680397
 20
320.0406220868
 30
0.0
 11
369.9441480643
 21
320.0406220868
 31
0.0
  0
LINE
  5
2A0
330
1F
100
AcDbEntity
  8
0
  6
Continuous
 62
     7
370
    15
100
AcDbLine
 10
369.9441480643
 20
320.0406220868
 30
0.0
 11
366.1691400415
 21
320.0406220868
 31
0.0
  0
LINE
  5
2A1
330
1F
100
AcDbEntity
  8
0
  6
Continuous
 62
     7
370
    15
100
AcDbLine
 10
350.5855466432
 20
345.3163516835
 30
0.0
 11
366.1691400415
 21
320.0406220868
 31
0.0
  0
LINE
  5
2A2
330
1F
100
AcDbEntity
  8
0
  6
Continuous
 62
     7
370
    15
100
AcDbLine
 10
467.344999612
 20
320.0406220868
 30
0.0
 11
481.0552600032
 21
345.3163516835
 31
0.0
  0
LINE
  5
2A3
330
1F
100
AcDbEntity
  8
0
  6
Continuous
 62
     7
370
    15
100
AcDbLine
 10
471.1200076348
 20
320.0406220868
 30
0.0
 11
486.7036010331
 21
345.3163516835
 31
0.0
  0
LINE
  5
2A4
330
1F
100
AcDbEntity
  8
0
  6
Continuous
 62
     7
370
    15
100
AcDbLine
 10
471.1200076348
 20
320.0406220868
 30
0.0
 11
467.344999612
 21
320.0406220868
 31
0.0
  0
SPLINE
  5
2A5
330
1F
100
AcDbEntity
  8
0
  6
Continuous
 62
     7
370
    15
100
AcDbSpline
210
0.0
220
0.0
230
1.0
 70
     8
 71
     3
 72
     8
 73
     4
 74
     0
 42
0.00000001
 43
0.00000001
 12
1.0
 22
0.0
 32
0.0
 13
1.0
 23
0.0
 33
0.0
 40
0.0000005982786805
 40
0.0000005982786805
 40
0.0000005982786805
 40
0.0000005982786805
 40
0.0074583450117675
 40
0.0074583450117675
 40
0.0074583450117675
 40
0.0074583450117675
 10
461.040714541869
 20
345.3163527051167
 30
0.0
 10
462.7279043094982
 20
344.4853301380704
 30
0.0
 10
464.4147283604664
 20
343.6526011233175
 30
0.0
 10
466.1012673393047
 20
342.8185516345456
 30
0.0
  0
LINE
  5
2A6
330
1F
100
AcDbEntity
  8
0
  6
Continuous
 62
     7
370
    15
100
AcDbLine
 10
467.344999612
 20
320.0406220868
 30
0.0
 11
464.5381796366
 21
320.0406220868
 31
0.0
  0
SPLINE
  5
2A7
330
1F
100
AcDbEntity
  8
0
  6
Continuous
 62
     7
370
    15
100
AcDbSpline
210
0.0
220
0.0
230
1.0
 70
     8
 71
     3
 72
    20
 73
    16
 74
     0
 42
0.00000001
 43
0.00000001
 12
1.0
 22
0.0
 32
0.0
 13
1.0
 23
0.0
 33
0.0
 40
0.0
 40
0.0
 40
0.0
 40
0.0
 40
0.1250000000000009
 40
0.1250000000000009
 40
0.2500000000000017
 40
0.2500000000000017
 40
0.3750000000000026
 40
0.3750000000000026
 40
0.5000000000000034
 40
0.5000000000000034
 40
0.6250000000000043
 40
0.6250000000000043
 40
0.7500000000000051
 40
0.7500000000000051
 40
1.0
 40
1.0
 40
1.0
 40
1.0
 10
466.2288245754113
 20
322.4097807061135
 30
0.0
 10
466.2297996502502
 20
322.249492864138
 30
0.0
 10
466.219735549708
 20
322.092528546469
 30
0.0
 10
466.1783779483892
 20
321.7849913693018
 30
0.0
 10
466.1465924994438
 20
321.6328919473424
 30
0.0
 10
466.0628068959056
 20
321.343660839607
 30
0.0
 10
466.0112824901482
 20
321.2071190470221
 30
0.0
 10
465.8892875983334
 20
320.9499171498631
 30
0.0
 10
465.8180794919768
 20
320.8286109261282
 30
0.0
 10
465.6621674294205
 20
320.6119444262177
 30
0.0
 10
465.5770211749737
 20
320.5152642224565
 30
0.0
 10
465.3922426936092
 20
320.3453809313471
 30
0.0
 10
465.2932752804243
 20
320.2731833626589
 30
0.0
 10
464.9866199242634
 20
320.100417093073
 30
0.0
 10
464.7622270792972
 20
320.0406205967208
 30
0.0
 10
464.5381808671091
 20
320.0406205967209
 30
0.0
  0
SPLINE
  5
2A8
330
1F
100
AcDbEntity
  8
0
  6
Continuous
 62
     7
370
    15
100
AcDbSpline
210
0.0
220
0.0
230
1.0
 70
     8
 71
     3
 72
     8
 73
     4
 74
     0
 42
0.00000001
 43
0.00000001
 12
1.0
 22
0.0
 32
0.0
 13
1.0
 23
0.0
 33
0.0
 40
0.0000002004619139
 40
0.0000002004619139
 40
0.0000002004619139
 40
0.0000002004619139
 40
0.020456313948657
 40
0.020456313948657
 40
0.020456313948657
 40
0.020456313948657
 10
466.1012673393047
 20
342.8185516345456
 30
0.0
 10
466.1449097276011
 20
336.0155593088505
 30
0.0
 10
466.187440952466
 20
329.2126345492617
 30
0.0
 10
466.2288245754113
 20
322.4097807061135
 30
0.0
  0
LINE
  5
2A9
330
1F
100
AcDbEntity
  8
0
  6
Continuous
 62
     7
370
    15
100
AcDbLine
 10
371.1878809339
 20
342.8185519889
 30
0.0
 11
466.1012667424
 21
342.8185519889
 31
0.0
  0
LINE
  5
2AA
330
1F
100
AcDbEntity
  8
0
  6
Continuous
 62
     7
370
    15
100
AcDbLine
 10
384.6813555068
 20
349.5471638754
 30
0.0
 11
452.6077921695
 21
349.5471638754
 31
0.0
  0
LINE
  5
2AB
330
1F
100
AcDbEntity
  8
0
  6
Continuous
 62
     7
370
    15
100
AcDbLine
 10
372.7509680397
 20
320.0406220868
 30
0.0
 11
464.5381796366
 21
320.0406220868
 31
0.0
  0
LINE
  5
2AC
330
1F
100
AcDbEntity
  8
0
  6
Continuous
 62
     7
370
    15
100
AcDbLine
 10
500.642944426
 20
232.9075525642
 30
0.0
 11
491.0069148249
 21
232.9075525642
 31
0.0
  0
LINE
  5
2AD
330
1F
100
AcDbEntity
  8
0
  6
Continuous
 62
     7
370
    15
100
AcDbLine
 10
500.642944426
 20
234.0363527775
 30
0.0
 11
491.0069148249
 21
234.0363527775
 31
0.0
  0
LINE
  5
2AE
330
1F
100
AcDbEntity
  8
0
  6
Continuous
 62
     7
370
    15
100
AcDbLine
 10
346.2822328514
 20
232.9075525642
 30
0.0
 11
336.6320620483
 21
232.9075525642
 31
0.0
  0
LINE
  5
2AF
330
1F
100
AcDbEntity
  8
0
  6
Continuous
 62
     7
370
    15
100
AcDbLine
 10
346.2822328514
 20
234.0363527775
 30
0.0
 11
336.6320620483
 21
234.0363527775
 31
0.0
  0
LINE
  5
2B0
330
1F
100
AcDbEntity
  8
0
  6
Continuous
 62
     7
370
    15
100
AcDbLine
 10
423.6276203959
 20
223.0406206228
 30
0.0
 11
413.6615272804
 21
223.0406206228
 31
0.0
  0
LINE
  5
2B1
330
1F
100
AcDbEntity
  8
0
  6
Continuous
 62
     7
370
    15
100
AcDbLine
 10
478.2725724584
 20
223.0406206228
 30
0.0
 11
474.1908426589
 21
223.0406206228
 31
0.0
  0
LINE
  5
2B2
330
1F
100
AcDbEntity
  8
0
  6
Continuous
 62
     7
370
    15
100
AcDbLine
 10
363.0983050174
 20
223.0406206228
 30
0.0
 11
359.0165752179
 21
223.0406206228
 31
0.0
  0
LINE
  5
2B3
330
1F
100
AcDbEntity
  8
0
  6
Continuous
 62
     7
370
    15
100
AcDbLine
 10
495.1445724076
 20
220.0406205967
 30
0.0
 11
342.1445752687
 21
220.0406205967
 31
0.0
  0
LINE
  5
2B4
330
1F
100
AcDbEntity
  8
0
  6
Continuous
 62
     7
370
    15
100
AcDbLine
 10
497.6429383463
 20
352.8163594321
 30
0.0
 11
473.642941863
 21
352.8163594321
 31
0.0
  0
LINE
  5
2B5
330
1F
100
AcDbEntity
  8
0
  6
Continuous
 62
     7
370
    15
100
AcDbLine
 10
363.6320646113
 20
352.8163594321
 30
0.0
 11
339.6320606774
 21
352.8163594321
 31
0.0
  0
LINE
  5
2B6
330
1F
100
AcDbEntity
  8
0
  6
Continuous
 62
     7
370
    15
100
AcDbLine
 10
482.8037883348
 20
362.8163498953
 30
0.0
 11
482.8037883348
 21
352.8163594321
 31
0.0
  0
LINE
  5
2B7
330
1F
100
AcDbEntity
  8
0
  6
Continuous
 62
     7
370
    15
100
AcDbLine
 10
482.8037883348
 20
362.8163498953
 30
0.0
 11
493.399661333
 21
362.8163498953
 31
0.0
  0
LINE
  5
2B8
330
1F
100
AcDbEntity
  8
0
  6
Continuous
 62
     7
370
    15
100
AcDbLine
 10
493.399661333
 20
362.8163498953
 30
0.0
 11
493.399661333
 21
352.8163594321
 31
0.0
  0
LINE
  5
2B9
330
1F
100
AcDbEntity
  8
0
  6
Continuous
 62
     7
370
    15
100
AcDbLine
 10
475.0470671064
 20
362.8163498953
 30
0.0
 11
475.0470671064
 21
352.8163594321
 31
0.0
  0
LINE
  5
2BA
330
1F
100
AcDbEntity
  8
0
  6
Continuous
 62
     7
370
    15
100
AcDbLine
 10
475.0470671064
 20
362.8163498953
 30
0.0
 11
482.8037883348
 21
362.8163498953
 31
0.0
  0
LINE
  5
2BB
330
1F
100
AcDbEntity
  8
0
  6
Continuous
 62
     7
370
    15
100
AcDbLine
 10
343.8753451413
 20
362.8163498953
 30
0.0
 11
343.8753451413
 21
352.8163594321
 31
0.0
  0
LINE
  5
2BC
330
1F
100
AcDbEntity
  8
0
  6
Continuous
 62
     7
370
    15
100
AcDbLine
 10
354.4712181396
 20
362.8163498953
 30
0.0
 11
354.4712181396
 21
352.8163594321
 31
0.0
  0
LINE
  5
2BD
330
1F
100
AcDbEntity
  8
0
  6
Continuous
 62
     7
370
    15
100
AcDbLine
 10
343.8753451413
 20
362.8163498953
 30
0.0
 11
354.4712181396
 21
362.8163498953
 31
0.0
  0
LINE
  5
2BE
330
1F
100
AcDbEntity
  8
0
  6
Continuous
 62
     7
370
    15
100
AcDbLine
 10
362.2279356426
 20
362.8163498953
 30
0.0
 11
362.2279356426
 21
352.8163594321
 31
0.0
  0
LINE
  5
2BF
330
1F
100
AcDbEntity
  8
0
  6
Continuous
 62
     7
370
    15
100
AcDbLine
 10
354.4712181396
 20
362.8163498953
 30
0.0
 11
362.2279356426
 21
362.8163498953
 31
0.0
  0
LINE
  5
2C0
330
1F
100
AcDbEntity
  8
0
  6
Continuous
 62
     7
370
    15
100
AcDbLine
 10
485.6429438299
 20
242.8363517985
 30
0.0
 11
495.0121085352
 21
242.8363517985
 31
0.0
  0
LINE
  5
2C1
330
1F
100
AcDbEntity
  8
0
  6
Continuous
 62
     7
370
    15
100
AcDbLine
 10
495.0121085352
 20
242.8363517985
 30
0.0
 11
495.0121085352
 21
239.7166502789
 31
0.0
  0
LINE
  5
2C2
330
1F
100
AcDbEntity
  8
0
  6
Continuous
 62
     7
370
    15
100
AcDbLine
 10
485.6429438299
 20
242.8363517985
 30
0.0
 11
485.6429438299
 21
239.7165832237
 31
0.0
  0
LINE
  5
2C3
330
1F
100
AcDbEntity
  8
0
  6
Continuous
 62
     7
370
    15
100
AcDbLine
 10
476.2737753994
 20
242.8363517985
 30
0.0
 11
485.6429438299
 21
242.8363517985
 31
0.0
  0
LINE
  5
2C4
330
1F
100
AcDbEntity
  8
0
  6
Continuous
 62
     7
370
    15
100
AcDbLine
 10
476.2737753994
 20
242.8363517985
 30
0.0
 11
476.2737753994
 21
240.4092823282
 31
0.0
  0
LINE
  5
2C5
330
1F
100
AcDbEntity
  8
0
  6
Continuous
 62
     7
370
    15
100
AcDbLine
 10
495.0121085352
 20
234.0406210289
 30
0.0
 11
495.0121085352
 21
234.0363527775
 31
0.0
  0
LINE
  5
2C6
330
1F
100
AcDbEntity
  8
0
  6
Continuous
 62
     7
370
    15
100
AcDbLine
 10
342.2628979391
 20
242.8363517985
 30
0.0
 11
342.2628979391
 21
239.7165832237
 31
0.0
  0
LINE
  5
2C7
330
1F
100
AcDbEntity
  8
0
  6
Continuous
 62
     7
370
    15
100
AcDbLine
 10
342.2628979391
 20
242.8363517985
 30
0.0
 11
351.6320626444
 21
242.8363517985
 31
0.0
  0
LINE
  5
2C8
330
1F
100
AcDbEntity
  8
0
  6
Continuous
 62
     7
370
    15
100
AcDbLine
 10
351.6320626444
 20
242.8363517985
 30
0.0
 11
351.6320626444
 21
239.7166502789
 31
0.0
  0
LINE
  5
2C9
330
1F
100
AcDbEntity
  8
0
  6
Continuous
 62
     7
370
    15
100
AcDbLine
 10
351.6320626444
 20
242.8363517985
 30
0.0
 11
361.0012273497
 21
242.8363517985
 31
0.0
  0
LINE
  5
2CA
330
1F
100
AcDbEntity
  8
0
  6
Continuous
 62
     7
370
    15
100
AcDbLine
 10
361.0012273497
 20
242.8363517985
 30
0.0
 11
361.0012273497
 21
240.4093605593
 31
0.0
  0
LINE
  5
2CB
330
1F
100
AcDbEntity
  8
0
  6
Continuous
 62
     7
370
    15
100
AcDbLine
 10
342.2628979391
 20
234.0406210289
 30
0.0
 11
342.2628979391
 21
234.0363527775
 31
0.0
  0
LINE
  5
2CC
330
1F
100
AcDbEntity
  8
0
  6
Continuous
 62
     7
370
    15
100
AcDbLine
 10
493.6429376906
 20
367.0363587454
 30
0.0
 11
477.6429425186
 21
367.0363587454
 31
0.0
  0
LINE
  5
2CD
330
1F
100
AcDbEntity
  8
0
  6
Continuous
 62
     7
370
    15
100
AcDbLine
 10
493.6429376906
 20
367.5363523081
 30
0.0
 11
477.6429425186
 21
367.5363523081
 31
0.0
  0
LINE
  5
2CE
330
1F
100
AcDbEntity
  8
0
  6
Continuous
 62
     7
370
    15
100
AcDbLine
 10
359.6320639557
 20
367.0363587454
 30
0.0
 11
343.6320613331
 21
367.0363587454
 31
0.0
  0
LINE
  5
2CF
330
1F
100
AcDbEntity
  8
0
  6
Continuous
 62
     7
370
    15
100
AcDbLine
 10
359.6320639557
 20
367.5363523081
 30
0.0
 11
343.6320613331
 21
367.5363523081
 31
0.0
  0
LINE
  5
2D0
330
1F
100
AcDbEntity
  8
0
  6
Continuous
 62
     7
370
    15
100
AcDbLine
 10
496.2388168282
 20
362.8163498953
 30
0.0
 11
496.2388168282
 21
352.8163594321
 31
0.0
  0
LINE
  5
2D1
330
1F
100
AcDbEntity
  8
0
  6
Continuous
 62
     7
370
    15
100
AcDbLine
 10
493.399661333
 20
362.8163498953
 30
0.0
 11
496.2388168282
 21
362.8163498953
 31
0.0
  0
LINE
  5
2D2
330
1F
100
AcDbEntity
  8
0
  6
Continuous
 62
     7
370
    15
100
AcDbLine
 10
341.0361896462
 20
362.8163498953
 30
0.0
 11
341.0361896462
 21
352.8163594321
 31
0.0
  0
LINE
  5
2D3
330
1F
100
AcDbEntity
  8
0
  6
Continuous
 62
     7
370
    15
100
AcDbLine
 10
341.0361896462
 20
362.8163498953
 30
0.0
 11
343.8753451413
 21
362.8163498953
 31
0.0
  0
LINE
  5
2D4
330
1F
100
AcDbEntity
  8
0
  6
Continuous
 62
     7
370
    15
100
AcDbLine
 10
492.1429421014
 20
379.0363532618
 30
0.0
 11
479.1429418332
 21
379.0363532618
 31
0.0
  0
LINE
  5
2D5
330
1F
100
AcDbEntity
  8
0
  6
Continuous
 62
     7
370
    15
100
AcDbLine
 10
358.1320646411
 20
379.0363532618
 30
0.0
 11
345.1320643729
 21
379.0363532618
 31
0.0
  0
LINE
  5
2D6
330
1F
100
AcDbEntity
  8
0
  6
Continuous
 62
     7
370
    15
100
AcDbLine
 10
508.1386010355
 20
227.0406208128
 30
0.0
 11
504.4168199605
 21
227.0406208128
 31
0.0
  0
LINE
  5
2D7
330
1F
100
AcDbEntity
  8
0
  6
Continuous
 62
     7
370
    15
100
AcDbLine
 10
332.8723277158
 20
227.0406208128
 30
0.0
 11
329.1505466408
 21
227.0406208128
 31
0.0
  0
LINE
  5
2D8
330
1F
100
AcDbEntity
  8
0
  6
Continuous
 62
     7
370
    15
100
AcDbLine
 10
504.2700956768
 20
227.0406208128
 30
0.0
 11
504.4168199605
 21
227.0406208128
 31
0.0
  0
LINE
  5
2D9
330
1F
100
AcDbEntity
  8
0
  6
Continuous
 62
     7
370
    15
100
AcDbLine
 10
332.8723277158
 20
227.0406208128
 30
0.0
 11
333.0190519995
 21
227.0406208128
 31
0.0
  0
SPLINE
  5
2DA
330
1F
100
AcDbEntity
  8
0
  6
Continuous
 62
     7
370
    15
100
AcDbSpline
210
0.0
220
0.0
230
1.0
 70
    24
 71
     3
 72
    14
 73
    10
 74
     0
 42
0.00000001
 43
0.00000001
 12
1.0
 22
0.0
 32
0.0
 13
1.0
 23
0.0
 33
0.0
 40
0.0
 40
0.0
 40
0.0
 40
0.0
 40
0.1430845551908601
 40
0.2866238530773285
 40
0.4297056532810736
 40
0.5727914196220708
 40
0.7163369104879385
 40
0.8594224867518327
 40
1.0
 40
1.0
 40
1.0
 40
1.0
 10
504.2700956768061
 20
227.0406208127877
 30
0.0
 10
504.2059519793642
 20
227.0406208127877
 30
0.0
 10
504.0774607268536
 20
227.0406208127877
 30
0.0
 10
503.9155147937232
 20
227.0406208127877
 30
0.0
 10
503.7784731655805
 20
227.0406208127877
 30
0.0
 10
503.670979247022
 20
227.0406208127877
 30
0.0
 10
503.593632973126
 20
227.0406208127877
 30
0.0
 10
503.5448271503628
 20
227.0406208127877
 30
0.0
 10
503.5393118395246
 20
227.0406208127877
 30
0.0
 10
503.5365785664584
 20
227.0406208127877
 30
0.0
  0
SPLINE
  5
2DB
330
1F
100
AcDbEntity
  8
0
  6
Continuous
 62
     7
370
    15
100
AcDbSpline
210
0.0
220
0.0
230
1.0
 70
    24
 71
     3
 72
    15
 73
    11
 74
     0
 42
0.00000001
 43
0.00000001
 12
1.0
 22
0.0
 32
0.0
 13
1.0
 23
0.0
 33
0.0
 40
0.0
 40
0.0
 40
0.0
 40
0.0
 40
0.0015559140493917
 40
0.1442912368908324
 40
0.2874788280129179
 40
0.43021268701953
 40
0.5731431540851998
 40
0.7165228854826294
 40
0.8594528061443155
 40
1.0
 40
1.0
 40
1.0
 40
1.0
 10
333.7528522318865
 20
227.0406208127877
 30
0.0
 10
333.7529099265948
 20
227.0406208127877
 30
0.0
 10
333.7582603769107
 20
227.0406208127878
 30
0.0
 10
333.739435585323
 20
227.0406208127877
 30
0.0
 10
333.6949963013749
 20
227.0406208127877
 30
0.0
 10
333.6161197953585
 20
227.0406208127877
 30
0.0
 10
333.5078073772655
 20
227.0406208127877
 30
0.0
 10
333.3706321435725
 20
227.0406208127877
 30
0.0
 10
333.2094591360345
 20
227.0406208127877
 30
0.0
 10
333.0821643923388
 20
227.0406208127877
 30
0.0
 10
333.0190519994761
 20
227.0406208127877
 30
0.0
  0
LINE
  5
2DC
330
1F
100
AcDbEntity
  8
0
  6
Continuous
 62
     7
370
    15
100
AcDbLine
 10
345.6320653862
 20
333.5594845131
 30
0.0
 11
339.2548154301
 21
345.3163516835
 31
0.0
  0
LINE
  5
2DD
330
1F
100
AcDbEntity
  8
0
  6
Continuous
 62
     7
370
    15
100
AcDbLine
 10
498.0343322462
 20
345.3163516835
 30
0.0
 11
491.6429410881
 21
333.5334149316
 31
0.0
  0
LINE
  5
2DE
330
1F
100
AcDbEntity
  8
0
  6
Continuous
 62
     7
370
    15
100
AcDbLine
 10
345.6320653862
 20
325.8114990905
 30
0.0
 11
333.6064706749
 21
345.3163516835
 31
0.0
  0
LINE
  5
2DF
330
1F
100
AcDbEntity
  8
0
  6
Continuous
 62
     7
370
    15
100
AcDbLine
 10
503.6826770014
 20
345.3163516835
 30
0.0
 11
491.6429410881
 21
325.7885587528
 31
0.0
  0
LINE
  5
2E0
330
1F
100
AcDbEntity
  8
0
  6
Continuous
 62
     7
370
    15
100
AcDbLine
 10
463.8994078344
 20
353.3163529948
 30
0.0
 11
475.0470671064
 21
353.3163529948
 31
0.0
  0
LINE
  5
2E1
330
1F
100
AcDbEntity
  8
0
  6
Continuous
 62
     7
370
    15
100
AcDbLine
 10
362.2279356426
 20
353.3163529948
 30
0.0
 11
463.8994078344
 21
353.3163529948
 31
0.0
  0
LINE
  5
2E2
330
1F
100
AcDbEntity
  8
0
  6
Continuous
 62
     7
370
    15
100
AcDbLine
 10
357.6320636279
 20
320.0406220868
 30
0.0
 11
366.1691400415
 21
320.0406220868
 31
0.0
  0
LINE
  5
2E3
330
1F
100
AcDbEntity
  8
0
  6
Continuous
 62
     7
370
    15
100
AcDbLine
 10
471.1200076348
 20
320.0406220868
 30
0.0
 11
479.6429428464
 21
320.0406220868
 31
0.0
  0
SPLINE
  5
2E4
330
1F
100
AcDbEntity
  8
0
  6
Continuous
 62
     7
370
    15
100
AcDbSpline
210
0.0
220
0.0
230
1.0
 70
     8
 71
     3
 72
     8
 73
     4
 74
     0
 42
0.00000001
 43
0.00000001
 12
1.0
 22
0.0
 32
0.0
 13
1.0
 23
0.0
 33
0.0
 40
0.0000002003057535
 40
0.0000002003057535
 40
0.0000002003057535
 40
0.0000002003057535
 40
0.0040063543009631
 40
0.0040063543009631
 40
0.0040063543009631
 40
0.0040063543009631
 10
505.9475683863053
 20
223.0406205967209
 30
0.0
 10
505.9677307707571
 20
224.373966864562
 30
0.0
 10
505.9879530059995
 20
225.7073010471209
 30
0.0
 10
506.0082469976533
 20
227.0406205967209
 30
0.0
  0
SPLINE
  5
2E5
330
1F
100
AcDbEntity
  8
0
  6
Continuous
 62
     7
370
    15
100
AcDbSpline
210
0.0
220
0.0
230
1.0
 70
     8
 71
     3
 72
     8
 73
     4
 74
     0
 42
0.00000001
 43
0.00000001
 12
1.0
 22
0.0
 32
0.0
 13
1.0
 23
0.0
 33
0.0
 40
0.0000002003097672
 40
0.0000002003097672
 40
0.0000002003097672
 40
0.0000002003097672
 40
0.0040063543049768
 40
0.0040063543049768
 40
0.0040063543049768
 40
0.0040063543049768
 10
331.2809006786283
 20
227.0406205967209
 30
0.0
 10
331.301194670282
 20
225.7073010471209
 30
0.0
 10
331.3214169055244
 20
224.373966864562
 30
0.0
 10
331.3415792899762
 20
223.0406205967209
 30
0.0
  0
LINE
  5
2E6
330
1F
100
AcDbEntity
  8
0
  6
Continuous
 62
     7
370
    15
100
AcDbLine
 10
499.6040876216
 20
223.0406206228
 30
0.0
 11
505.9475715465
 21
223.0406206228
 31
0.0
  0
LINE
  5
2E7
330
1F
100
AcDbEntity
  8
0
  6
Continuous
 62
     7
370
    15
100
AcDbLine
 10
337.6850600547
 20
223.0406206228
 30
0.0
 11
331.3415761298
 21
223.0406206228
 31
0.0
  0
LINE
  5
2E8
330
1F
100
AcDbEntity
  8
0
  6
Continuous
 62
     7
370
    15
100
AcDbLine
 10
525.8750657743
 20
223.0406206228
 30
0.0
 11
505.9475715465
 21
223.0406206228
 31
0.0
  0
LINE
  5
2E9
330
1F
100
AcDbEntity
  8
0
  6
Continuous
 62
     7
370
    15
100
AcDbLine
 10
331.3415761298
 20
223.0406206228
 30
0.0
 11
311.4140819019
 21
223.0406206228
 31
0.0
  0
LINE
  5
2EA
330
1F
100
AcDbEntity
  8
0
  6
Continuous
 62
     7
370
    15
100
AcDbLine
 10
489.5997832722
 20
223.0406206228
 30
0.0
 11
499.6040876216
 21
223.0406206228
 31
0.0
  0
LINE
  5
2EB
330
1F
100
AcDbEntity
  8
0
  6
Continuous
 62
     7
370
    15
100
AcDbLine
 10
347.6893644041
 20
223.0406206228
 30
0.0
 11
337.6850600547
 21
223.0406206228
 31
0.0
  0
LINE
  5
2EC
330
1F
100
AcDbEntity
  8
0
  6
Continuous
 62
     7
370
    15
100
AcDbLine
 10
478.2725724584
 20
223.0406206228
 30
0.0
 11
489.5997832722
 21
223.0406206228
 31
0.0
  0
LINE
  5
2ED
330
1F
100
AcDbEntity
  8
0
  6
Continuous
 62
     7
370
    15
100
AcDbLine
 10
359.0165752179
 20
223.0406206228
 30
0.0
 11
347.6893644041
 21
223.0406206228
 31
0.0
  0
LINE
  5
2EE
330
1F
100
AcDbEntity
  8
0
  6
Continuous
 62
     7
370
    15
100
AcDbLine
 10
491.6429410881
 20
320.0406220868
 30
0.0
 11
499.5651434368
 21
320.0406220868
 31
0.0
  0
LINE
  5
2EF
330
1F
100
AcDbEntity
  8
0
  6
Continuous
 62
     7
370
    15
100
AcDbLine
 10
337.7240042395
 20
320.0406220868
 30
0.0
 11
345.6320653862
 21
320.0406220868
 31
0.0
  0
LINE
  5
2F0
330
1F
100
AcDbEntity
  8
0
  6
Continuous
 62
     7
370
    15
100
AcDbLine
 10
334.1578583426
 20
342.8185519889
 30
0.0
 11
335.146475882
 21
342.8185519889
 31
0.0
  0
LINE
  5
2F1
330
1F
100
AcDbEntity
  8
0
  6
Continuous
 62
     7
370
    15
100
AcDbLine
 10
502.1426717943
 20
342.8185519889
 30
0.0
 11
503.1312893337
 21
342.8185519889
 31
0.0
  0
LINE
  5
2F2
330
1F
100
AcDbEntity
  8
0
  6
Continuous
 62
     7
370
    15
100
AcDbLine
 10
497.6570869988
 20
352.8163594321
 30
0.0
 11
497.6429383463
 21
352.8163594321
 31
0.0
  0
LINE
  5
2F3
330
1F
100
AcDbEntity
  8
0
  6
Continuous
 62
     7
370
    15
100
AcDbLine
 10
496.2388168282
 20
362.8163498953
 30
0.0
 11
496.2529580301
 21
362.8163498953
 31
0.0
  0
LINE
  5
2F4
330
1F
100
AcDbEntity
  8
0
  6
Continuous
 62
     7
370
    15
100
AcDbLine
 10
496.2529580301
 20
362.8163498953
 30
0.0
 11
496.2529580301
 21
352.8163594321
 31
0.0
  0
LINE
  5
2F5
330
1F
100
AcDbEntity
  8
0
  6
Continuous
 62
     7
370
    15
100
AcDbLine
 10
495.0262497372
 20
242.8363517985
 30
0.0
 11
495.0262497372
 21
241.0383180842
 31
0.0
  0
LINE
  5
2F6
330
1F
100
AcDbEntity
  8
0
  6
Continuous
 62
     7
370
    15
100
AcDbLine
 10
495.0121085352
 20
242.8363517985
 30
0.0
 11
495.0262497372
 21
242.8363517985
 31
0.0
  0
LINE
  5
2F7
330
1F
100
AcDbEntity
  8
0
  6
Continuous
 62
     7
370
    15
100
AcDbLine
 10
493.6570863432
 20
367.0363587454
 30
0.0
 11
493.6429376906
 21
367.0363587454
 31
0.0
  0
LINE
  5
2F8
330
1F
100
AcDbEntity
  8
0
  6
Continuous
 62
     7
370
    15
100
AcDbLine
 10
493.6570863432
 20
367.5363523081
 30
0.0
 11
493.6429376906
 21
367.5363523081
 31
0.0
  0
LINE
  5
2F9
330
1F
100
AcDbEntity
  8
0
  6
Continuous
 62
     7
370
    15
100
AcDbLine
 10
359.6462051577
 20
367.0363587454
 30
0.0
 11
359.6320639557
 21
367.0363587454
 31
0.0
  0
LINE
  5
2FA
330
1F
100
AcDbEntity
  8
0
  6
Continuous
 62
     7
370
    15
100
AcDbLine
 10
359.6462051577
 20
367.5363523081
 30
0.0
 11
359.6320639557
 21
367.5363523081
 31
0.0
  0
LINE
  5
2FB
330
1F
100
AcDbEntity
  8
0
  6
Continuous
 62
     7
370
    15
100
AcDbLine
 10
362.2420805699
 20
362.8163498953
 30
0.0
 11
362.2420805699
 21
353.3163529948
 31
0.0
  0
LINE
  5
2FC
330
1F
100
AcDbEntity
  8
0
  6
Continuous
 62
     7
370
    15
100
AcDbLine
 10
362.2279356426
 20
362.8163498953
 30
0.0
 11
362.2420805699
 21
362.8163498953
 31
0.0
  0
LINE
  5
2FD
330
1F
100
AcDbEntity
  8
0
  6
Continuous
 62
     7
370
    15
100
AcDbLine
 10
492.1570833034
 20
379.0363532618
 30
0.0
 11
492.1429421014
 21
379.0363532618
 31
0.0
  0
LINE
  5
2FE
330
1F
100
AcDbEntity
  8
0
  6
Continuous
 62
     7
370
    15
100
AcDbLine
 10
358.1462058431
 20
379.0363532618
 30
0.0
 11
358.1320646411
 21
379.0363532618
 31
0.0
  0
LINE
  5
2FF
330
1F
100
AcDbEntity
  8
0
  6
Continuous
 62
     8
370
     0
100
AcDbLine
 10
508.1386010355
 20
234.0406210289
 30
0.0
 11
508.1386010355
 21
227.0406208128
 31
0.0
  0
LINE
  5
300
330
1F
100
AcDbEntity
  8
0
  6
Continuous
 62
     8
370
     0
100
AcDbLine
 10
490.0663386292
 20
227.0406208128
 30
0.0
 11
490.0663386292
 21
234.0406210289
 31
0.0
  0
LINE
  5
301
330
1F
100
AcDbEntity
  8
0
  6
Continuous
 62
     8
370
     0
100
AcDbLine
 10
347.2228090471
 20
234.0406210289
 30
0.0
 11
347.2228090471
 21
227.0406208128
 31
0.0
  0
LINE
  5
302
330
1F
100
AcDbEntity
  8
0
  6
Continuous
 62
     8
370
     0
100
AcDbLine
 10
329.1505466408
 20
227.0406208128
 30
0.0
 11
329.1505466408
 21
234.0406210289
 31
0.0
  0
LINE
  5
303
330
1F
100
AcDbEntity
  8
0
  6
Continuous
 62
     8
370
     0
100
AcDbLine
 10
396.3284514106
 20
227.0406208128
 30
0.0
 11
396.1731589592
 21
223.0406206228
 31
0.0
  0
LINE
  5
304
330
1F
100
AcDbEntity
  8
0
  6
Continuous
 62
     8
370
     0
100
AcDbLine
 10
440.9606962657
 20
227.0406208128
 30
0.0
 11
441.1159887171
 21
223.0406206228
 31
0.0
  0
LINE
  5
305
330
1F
100
AcDbEntity
  8
0
  6
Continuous
 62
     8
370
     0
100
AcDbLine
 10
437.4434559799
 20
227.0406208128
 30
0.0
 11
437.6371300972
 21
223.0406206228
 31
0.0
  0
LINE
  5
306
330
1F
100
AcDbEntity
  8
0
  6
Continuous
 62
     8
370
     0
100
AcDbLine
 10
399.8456916964
 20
227.0406208128
 30
0.0
 11
399.6520175791
 21
223.0406206228
 31
0.0
  0
LINE
  5
307
330
1F
100
AcDbEntity
  8
0
  6
Continuous
 62
     8
370
     0
100
AcDbLine
 10
374.288667292
 20
240.0168006435
 30
0.0
 11
374.2739896482
 21
239.7136514202
 31
0.0
  0
LINE
  5
308
330
1F
100
AcDbEntity
  8
0
  6
Continuous
 62
     8
370
     0
100
AcDbLine
 10
463.0004803843
 20
240.0168006435
 30
0.0
 11
463.015158028
 21
239.713636519
 31
0.0
  0
LINE
  5
309
330
1F
100
AcDbEntity
  8
0
  6
Continuous
 62
     8
370
     0
100
AcDbLine
 10
403.9896077669
 20
227.0406208128
 30
0.0
 11
403.7959336496
 21
223.0406206228
 31
0.0
  0
LINE
  5
30A
330
1F
100
AcDbEntity
  8
0
  6
Continuous
 62
     8
370
     0
100
AcDbLine
 10
433.2995399094
 20
227.0406208128
 30
0.0
 11
433.4932140267
 21
223.0406206228
 31
0.0
  0
LINE
  5
30B
330
1F
100
AcDbEntity
  8
0
  6
Continuous
 62
     8
370
     0
100
AcDbLine
 10
460.4966084665
 20
240.3561168477
 30
0.0
 11
460.5327735847
 21
239.6092371211
 31
0.0
  0
LINE
  5
30C
330
1F
100
AcDbEntity
  8
0
  6
Continuous
 62
     8
370
     0
100
AcDbLine
 10
376.7925392097
 20
240.3561168477
 30
0.0
 11
376.7563889927
 21
239.6094885782
 31
0.0
  0
LINE
  5
30D
330
1F
100
AcDbEntity
  8
0
  6
Continuous
 62
     8
370
     0
100
AcDbLine
 10
413.6483877158
 20
227.0406208128
 30
0.0
 11
413.6615272804
 21
223.0406206228
 31
0.0
  0
LINE
  5
30E
330
1F
100
AcDbEntity
  8
0
  6
Continuous
 62
     8
370
     0
100
AcDbLine
 10
423.6407599604
 20
227.0406208128
 30
0.0
 11
423.6276203959
 21
223.0406206228
 31
0.0
  0
LINE
  5
30F
330
1F
100
AcDbEntity
  8
0
  6
Continuous
 62
     8
370
     0
100
AcDbLine
 10
371.0603232688
 20
322.4097800568
 30
0.0
 11
466.2288244075
 21
322.4097800568
 31
0.0
  0
LINE
  5
310
330
1F
100
AcDbEntity
  8
0
  6
Continuous
 62
     8
370
     0
100
AcDbLine
 10
493.6445768184
 20
318.0406180337
 30
0.0
 11
491.6429410881
 21
318.0406180337
 31
0.0
  0
LINE
  5
311
330
1F
100
AcDbEntity
  8
0
  6
Continuous
 62
     8
370
     0
100
AcDbLine
 10
479.6429428464
 20
318.0406180337
 30
0.0
 11
357.6320636279
 21
318.0406180337
 31
0.0
  0
LINE
  5
312
330
1F
100
AcDbEntity
  8
0
  6
Continuous
 62
     8
370
     0
100
AcDbLine
 10
345.6320653862
 20
318.0406180337
 30
0.0
 11
343.6445708579
 21
318.0406180337
 31
0.0
  0
LINE
  5
313
330
1F
100
AcDbEntity
  8
0
  6
Continuous
 62
     8
370
     0
100
AcDbLine
 10
493.6445768184
 20
317.2015187457
 30
0.0
 11
491.6429410881
 21
317.2015187457
 31
0.0
  0
LINE
  5
314
330
1F
100
AcDbEntity
  8
0
  6
Continuous
 62
     8
370
     0
100
AcDbLine
 10
479.6429428464
 20
317.2015187457
 30
0.0
 11
357.6320636279
 21
317.2015187457
 31
0.0
  0
LINE
  5
315
330
1F
100
AcDbEntity
  8
0
  6
Continuous
 62
     8
370
     0
100
AcDbLine
 10
345.6320653862
 20
317.2015187457
 30
0.0
 11
343.6445708579
 21
317.2015187457
 31
0.0
  0
LINE
  5
316
330
1F
100
AcDbEntity
  8
0
  6
Continuous
 62
     8
370
     0
100
AcDbLine
 10
492.5729374594
 20
314.9033871606
 30
0.0
 11
491.6429410881
 21
314.9033871606
 31
0.0
  0
LINE
  5
317
330
1F
100
AcDbEntity
  8
0
  6
Continuous
 62
     8
370
     0
100
AcDbLine
 10
479.6429428464
 20
314.9033871606
 30
0.0
 11
357.6320636279
 21
314.9033871606
 31
0.0
  0
LINE
  5
318
330
1F
100
AcDbEntity
  8
0
  6
Continuous
 62
     8
370
     0
100
AcDbLine
 10
345.6320653862
 20
314.9033871606
 30
0.0
 11
344.7162102169
 21
314.9033871606
 31
0.0
  0
LINE
  5
319
330
1F
100
AcDbEntity
  8
0
  6
Continuous
 62
     8
370
     0
100
AcDbLine
 10
479.6429428464
 20
310.0271833256
 30
0.0
 11
357.6320636279
 21
310.0271833256
 31
0.0
  0
LINE
  5
31A
330
1F
100
AcDbEntity
  8
0
  6
Continuous
 62
     8
370
     0
100
AcDbLine
 10
504.4168199605
 20
227.0406208128
 30
0.0
 11
504.4168199605
 21
234.0406210289
 31
0.0
  0
LINE
  5
31B
330
1F
100
AcDbEntity
  8
0
  6
Continuous
 62
     8
370
     0
100
AcDbLine
 10
332.8723277158
 20
234.0406210289
 30
0.0
 11
332.8723277158
 21
227.0406208128
 31
0.0
  0
LWPOLYLINE
  5
31C
330
1F
100
AcDbEntity
  8
0
  6
Continuous
 62
     8
370
     0
100
AcDbPolyline
 90
        3
 70
   128
 43
0.0
 10
504.0090422339
 20
234.0406210289
 10
504.1351433105
 20
230.659282127
 10
504.2700956768
 20
227.0406208128
  0
LWPOLYLINE
  5
31D
330
1F
100
AcDbEntity
  8
0
  6
Continuous
 62
     8
370
     0
100
AcDbPolyline
 90
        3
 70
   128
 43
0.0
 10
333.0190519995
 20
227.0406208128
 10
333.1540043658
 20
230.659282127
 10
333.2801054424
 20
234.0406210289
  0
LINE
  5
31E
330
1F
100
AcDbEntity
  8
0
  6
Continuous
 62
     8
370
     0
100
AcDbLine
 10
479.6429428464
 20
305.8481824711
 30
0.0
 11
357.6320636279
 21
305.8481824711
 31
0.0
  0
LINE
  5
31F
330
1F
100
AcDbEntity
  8
0
  6
Continuous
 62
     8
370
     0
100
AcDbLine
 10
465.313621164
 20
351.3163489416
 30
0.0
 11
473.642941863
 21
351.3163489416
 31
0.0
  0
LINE
  5
320
330
1F
100
AcDbEntity
  8
0
  6
Continuous
 62
     8
370
     0
100
AcDbLine
 10
363.6320646113
 20
351.3163489416
 30
0.0
 11
465.313621164
 21
351.3163489416
 31
0.0
  0
LINE
  5
321
330
1F
100
AcDbEntity
  8
0
  6
Continuous
 62
     8
370
     0
100
AcDbLine
 10
505.9373344487
 20
227.0406208128
 30
0.0
 11
505.9475715465
 21
223.0406206228
 31
0.0
  0
LINE
  5
322
330
1F
100
AcDbEntity
  8
0
  6
Continuous
 62
     8
370
     0
100
AcDbLine
 10
331.3518132276
 20
227.0406208128
 30
0.0
 11
331.3415761298
 21
223.0406206228
 31
0.0
  0
LINE
  5
323
330
1F
100
AcDbEntity
  8
0
  6
Continuous
 62
     8
370
     0
100
AcDbLine
 10
478.4298020607
 20
227.0406208128
 30
0.0
 11
478.2725724584
 21
223.0406206228
 31
0.0
  0
LINE
  5
324
330
1F
100
AcDbEntity
  8
0
  6
Continuous
 62
     8
370
     0
100
AcDbLine
 10
358.8593456155
 20
227.0406208128
 30
0.0
 11
359.0165752179
 21
223.0406206228
 31
0.0
  0
LINE
  5
325
330
1F
100
AcDbEntity
  8
0
  6
Continuous
 62
     8
370
     0
100
AcDbLine
 10
499.3834759301
 20
234.0406210289
 30
0.0
 11
499.3835578865
 21
234.0363527775
 31
0.0
  0
LINE
  5
326
330
1F
100
AcDbEntity
  8
0
  6
Continuous
 62
     8
370
     0
100
AcDbLine
 10
499.4262646145
 20
231.9070764944
 30
0.0
 11
499.6040876216
 21
223.0406206228
 31
0.0
  0
LINE
  5
327
330
1F
100
AcDbEntity
  8
0
  6
Continuous
 62
     8
370
     0
100
AcDbLine
 10
337.9056717462
 20
234.0406210289
 30
0.0
 11
337.9055897898
 21
234.0363527775
 31
0.0
  0
LINE
  5
328
330
1F
100
AcDbEntity
  8
0
  6
Continuous
 62
     8
370
     0
100
AcDbLine
 10
337.8626744455
 20
231.8964212328
 30
0.0
 11
337.6850600547
 21
223.0406206228
 31
0.0
  0
LINE
  5
329
330
1F
100
AcDbEntity
  8
0
  6
Continuous
 62
     8
370
     0
100
AcDbLine
 10
489.5195628709
 20
227.0406208128
 30
0.0
 11
489.5997832722
 21
223.0406206228
 31
0.0
  0
LINE
  5
32A
330
1F
100
AcDbEntity
  8
0
  6
Continuous
 62
     8
370
     0
100
AcDbLine
 10
347.7695848054
 20
227.0406208128
 30
0.0
 11
347.6893644041
 21
223.0406206228
 31
0.0
  0
LINE
  5
32B
330
1F
100
AcDbEntity
  8
0
  6
Continuous
 62
     8
370
     0
100
AcDbLine
 10
491.6429410881
 20
322.4097800568
 30
0.0
 11
502.0617137856
 21
322.4097800568
 31
0.0
  0
LINE
  5
32C
330
1F
100
AcDbEntity
  8
0
  6
Continuous
 62
     8
370
     0
100
AcDbLine
 10
335.2274338907
 20
322.4097800568
 30
0.0
 11
345.6320653862
 21
322.4097800568
 31
0.0
  0
LINE
  5
32D
330
1F
100
AcDbEntity
  8
0
  6
Continuous
 62
     8
370
     0
100
AcDbLine
 10
510.1099278039
 20
240.0168006435
 30
0.0
 11
510.1160149282
 21
239.7133366332
 31
0.0
  0
LINE
  5
32E
330
1F
100
AcDbEntity
  8
0
  6
Continuous
 62
     8
370
     0
100
AcDbLine
 10
327.1792198724
 20
240.0168006435
 30
0.0
 11
327.173132748
 21
239.7133459464
 31
0.0
  0
LINE
  5
32F
330
1F
100
AcDbEntity
  8
0
  6
Continuous
 62
     8
370
     0
100
AcDbLine
 10
504.0979053086
 20
240.3561168477
 30
0.0
 11
504.1052292294
 21
239.9909583047
 31
0.0
  0
LINE
  5
330
330
1F
100
AcDbEntity
  8
0
  6
Continuous
 62
     8
370
     0
100
AcDbLine
 10
333.1912423677
 20
240.3561168477
 30
0.0
 11
333.1839184469
 21
239.9909378156
 31
0.0
  0
LINE
  5
331
330
1F
100
AcDbEntity
  8
0
  6
CENTERX2
 62
     7
370
     0
100
AcDbLine
 10
418.6445738381
 20
373.380386753
 30
0.0
 11
418.6445738381
 21
207.964127303
 31
0.0
  0
ENDSEC
  0
SECTION
  2
OBJECTS
  0
DICTIONARY
  5
C
330
0
100
AcDbDictionary
281
     1
  3
ACAD_GROUP
350
D
  3
ACAD_LAYOUT
350
1A
  3
ACAD_MLINESTYLE
350
17
  3
ACAD_PLOTSETTINGS
350
19
  3
ACAD_PLOTSTYLENAME
350
E
  0
DICTIONARY
  5
D
102
{ACAD_REACTORS
330
C
102
}
330
C
100
AcDbDictionary
281
     1
  0
DICTIONARY
  5
1A
102
{ACAD_REACTORS
330
C
102
}
330
C
100
AcDbDictionary
281
     1
  3
Layout1
350
1E
  3
Layout2
350
26
  3
Model
350
22
  0
DICTIONARY
  5
17
102
{ACAD_REACTORS
330
C
102
}
330
C
100
AcDbDictionary
281
     1
  3
Standard
350
18
  0
DICTIONARY
  5
19
102
{ACAD_REACTORS
330
C
102
}
330
C
100
AcDbDictionary
281
     1
  0
ACDBDICTIONARYWDFLT
  5
E
102
{ACAD_REACTORS
330
C
102
}
330
C
100
AcDbDictionary
281
     1
  3
Normal
350
F
100
AcDbDictionaryWithDefault
340
F
  0
LAYOUT
  5
1E
102
{ACAD_REACTORS
330
1A
102
}
330
1A
100
AcDbPlotSettings
  1

  2
none_device
  4

  6

 40
0.0
 41
0.0
 42
0.0
 43
0.0
 44
0.0
 45
0.0
 46
0.0
 47
0.0
 48
0.0
 49
0.0
140
0.0
141
0.0
142
1.0
143
1.0
 70
   688
 72
     0
 73
     0
 74
     5
  7

 75
    16
147
1.0
148
0.0
149
0.0
100
AcDbLayout
  1
Layout1
 70
     1
 71
     1
 10
0.0
 20
0.0
 11
420.0
 21
297.0
 12
0.0
 22
0.0
 32
0.0
 14
1.0000000000E+20
 24
1.0000000000E+20
 34
1.0000000000E+20
 15
-1.0000000000E+20
 25
-1.0000000000E+20
 35
-1.0000000000E+20
146
0.0
 13
0.0
 23
0.0
 33
0.0
 16
1.0
 26
0.0
 36
0.0
 17
0.0
 27
1.0
 37
0.0
 76
     0
330
1B
  0
LAYOUT
  5
26
102
{ACAD_REACTORS
330
1A
102
}
330
1A
100
AcDbPlotSettings
  1

  2
none_device
  4

  6

 40
0.0
 41
0.0
 42
0.0
 43
0.0
 44
0.0
 45
0.0
 46
0.0
 47
0.0
 48
0.0
 49
0.0
140
0.0
141
0.0
142
1.0
143
1.0
 70
   688
 72
     0
 73
     0
 74
     5
  7

 75
    16
147
1.0
148
0.0
149
0.0
100
AcDbLayout
  1
Layout2
 70
     1
 71
     2
 10
0.0
 20
0.0
 11
0.0
 21
0.0
 12
0.0
 22
0.0
 32
0.0
 14
0.0
 24
0.0
 34
0.0
 15
0.0
 25
0.0
 35
0.0
146
0.0
 13
0.0
 23
0.0
 33
0.0
 16
1.0
 26
0.0
 36
0.0
 17
0.0
 27
1.0
 37
0.0
 76
     0
330
23
  0
LAYOUT
  5
22
102
{ACAD_REACTORS
330
1A
102
}
330
1A
100
AcDbPlotSettings
  1

  2
none_device
  4

  6

 40
0.0
 41
0.0
 42
0.0
 43
0.0
 44
0.0
 45
0.0
 46
0.0
 47
0.0
 48
0.0
 49
0.0
140
0.0
141
0.0
142
1.0
143
1.0
 70
  1712
 72
     0
 73
     0
 74
     0
  7

 75
     0
147
1.0
148
0.0
149
0.0
100
AcDbLayout
  1
Model
 70
     1
 71
     0
 10
0.0
 20
0.0
 11
431.8
 21
279.4
 12
0.0
 22
0.0
 32
0.0
 14
0.0
 24
0.0
 34
0.0
 15
431.8
 25
279.4
 35
0.0
146
0.0
 13
0.0
 23
0.0
 33
0.0
 16
1.0
 26
0.0
 36
0.0
 17
0.0
 27
1.0
 37
0.0
 76
     0
330
1F
331
29
  0
MLINESTYLE
  5
18
102
{ACAD_REACTORS
330
17
102
}
330
17
100
AcDbMlineStyle
  2
Standard
 70
     0
  3

 62
   256
 51
90.0
 52
90.0
 71
     2
 49
0.5
 62
   256
  6
BYLAYER
 49
-0.5
 62
   256
  6
BYLAYER
  0
ACDBPLACEHOLDER
  5
F
102
{ACAD_REACTORS
330
E
102
}
330
E
  0
ENDSEC
  0
EOF
