  0
SECTION
  2
HEADER
  9
$ACADVER
  1
AC1015
  9
$ACADMAINTVER
 70
     6
  9
$DWGCODEPAGE
  3
ANSI_1252
  9
$INSBASE
 10
0.0
 20
0.0
 30
0.0
  9
$EXTMIN
 10
0.0
 20
0.0
 30
0.0
  9
$EXTMAX
 10
841.0
 20
594.0
 30
0.0
  9
$LIMMIN
 10
0.0
 20
0.0
  9
$LIMMAX
 10
841.0
 20
594.0
  9
$ORTHOMODE
 70
     0
  9
$REGENMODE
 70
     1
  9
$FILLMODE
 70
     1
  9
$QTEXTMODE
 70
     0
  9
$MIRRTEXT
 70
     1
  9
$LTSCALE
 40
1.0
  9
$ATTMODE
 70
     1
  9
$TEXTSIZE
 40
2.5
  9
$TRACEWID
 40
1.0
  9
$TEXTSTYLE
  7
Standard
  9
$CLAYER
  8
0
  9
$CELTYPE
  6
ByLayer
  9
$CECOLOR
 62
   256
  9
$CELTSCALE
 40
1.0
  9
$DISPSILH
 70
     0
  9
$DIMSCALE
 40
1.0
  9
$DIMASZ
 40
2.5
  9
$DIMEXO
 40
1.0
  9
$DIMDLI
 40
3.75
  9
$DIMRND
 40
0.0
  9
$DIMDLE
 40
0.0
  9
$DIMEXE
 40
1.0
  9
$DIMTP
 40
0.0
  9
$DIMTM
 40
0.0
  9
$DIMTXT
 40
2.5
  9
$DIMCEN
 40
2.5
  9
$DIMTSZ
 40
0.0
  9
$DIMTOL
 70
     0
  9
$DIMLIM
 70
     0
  9
$DIMTIH
 70
     1
  9
$DIMTOH
 70
     1
  9
$DIMSE1
 70
     0
  9
$DIMSE2
 70
     0
  9
$DIMTAD
 70
     1
  9
$DIMZIN
 70
     0
  9
$DIMBLK
  1

  9
$DIMASO
 70
     1
  9
$DIMSHO
 70
     1
  9
$DIMPOST
  1

  9
$DIMAPOST
  1

  9
$DIMALT
 70
     0
  9
$DIMALTD
 70
     3
  9
$DIMALTF
 40
0.0393700787
  9
$DIMLFAC
 40
1.0
  9
$DIMTOFL
 70
     1
  9
$DIMTVP
 40
0.0
  9
$DIMTIX
 70
     0
  9
$DIMSOXD
 70
     0
  9
$DIMSAH
 70
     0
  9
$DIMBLK1
  1

  9
$DIMBLK2
  1

  9
$DIMSTYLE
  2
ISO-25
  9
$DIMCLRD
 70
     0
  9
$DIMCLRE
 70
     0
  9
$DIMCLRT
 70
     0
  9
$DIMTFAC
 40
1.0
  9
$DIMGAP
 40
1.524
  9
$DIMJUST
 70
     0
  9
$DIMSD1
 70
     0
  9
$DIMSD2
 70
     0
  9
$DIMTOLJ
 70
     0
  9
$DIMTZIN
 70
     0
  9
$DIMALTZ
 70
     0
  9
$DIMALTTZ
 70
     0
  9
$DIMUPT
 70
     0
  9
$DIMDEC
 70
     2
  9
$DIMTDEC
 70
     2
  9
$DIMALTU
 70
     2
  9
$DIMALTTD
 70
     3
  9
$DIMTXSTY
  7
Standard
  9
$DIMAUNIT
 70
     0
  9
$DIMADEC
 70
     2
  9
$DIMALTRND
 40
0.0
  9
$DIMAZIN
 70
     0
  9
$DIMDSEP
 70
    44
  9
$DIMATFIT
 70
     3
  9
$DIMFRAC
 70
     0
  9
$DIMLDRBLK
  1

  9
$DIMLUNIT
 70
     2
  9
$DIMLWD
 70
    -2
  9
$DIMLWE
 70
    -2
  9
$DIMTMOVE
 70
     0
  9
$LUNITS
 70
     2
  9
$LUPREC
 70
     2
  9
$SKETCHINC
 40
1.0
  9
$FILLETRAD
 40
10.0
  9
$AUNITS
 70
     0
  9
$AUPREC
 70
     2
  9
$MENU
  1
.
  9
$ELEVATION
 40
0.0
  9
$PELEVATION
 40
0.0
  9
$THICKNESS
 40
0.0
  9
$LIMCHECK
 70
     0
  9
$CHAMFERA
 40
10.0
  9
$CHAMFERB
 40
10.0
  9
$CHAMFERC
 40
20.0
  9
$CHAMFERD
 40
0.0
  9
$SKPOLY
 70
     0
  9
$TDCREATE
 40
2457178.645392373
  9
$TDUCREATE
 40
2457178.312059039
  9
$TDUPDATE
 40
2457178.645394178
  9
$TDUUPDATE
 40
2457178.312060845
  9
$TDINDWG
 40
0.0000000116
  9
$TDUSRTIMER
 40
0.0000000116
  9
$USRTIMER
 70
     1
  9
$ANGBASE
 50
0.0
  9
$ANGDIR
 70
     0
  9
$PDMODE
 70
     0
  9
$PDSIZE
 40
-1.0
  9
$PLINEWID
 40
0.0
  9
$SPLFRAME
 70
     0
  9
$SPLINETYPE
 70
     6
  9
$SPLINESEGS
 70
     8
  9
$HANDSEED
  5
3D0
  9
$SURFTAB1
 70
     6
  9
$SURFTAB2
 70
     6
  9
$SURFTYPE
 70
     6
  9
$SURFU
 70
     6
  9
$SURFV
 70
     6
  9
$UCSBASE
  2

  9
$UCSNAME
  2

  9
$UCSORG
 10
0.0
 20
0.0
 30
0.0
  9
$UCSXDIR
 10
1.0
 20
0.0
 30
0.0
  9
$UCSYDIR
 10
0.0
 20
1.0
 30
0.0
  9
$UCSORTHOREF
  2

  9
$UCSORTHOVIEW
 70
     0
  9
$UCSORGTOP
 10
0.0
 20
0.0
 30
0.0
  9
$UCSORGBOTTOM
 10
0.0
 20
0.0
 30
0.0
  9
$UCSORGLEFT
 10
0.0
 20
0.0
 30
0.0
  9
$UCSORGRIGHT
 10
0.0
 20
0.0
 30
0.0
  9
$UCSORGFRONT
 10
0.0
 20
0.0
 30
0.0
  9
$UCSORGBACK
 10
0.0
 20
0.0
 30
0.0
  9
$PUCSBASE
  2

  9
$PUCSNAME
  2

  9
$PUCSORG
 10
0.0
 20
0.0
 30
0.0
  9
$PUCSXDIR
 10
1.0
 20
0.0
 30
0.0
  9
$PUCSYDIR
 10
0.0
 20
1.0
 30
0.0
  9
$PUCSORTHOREF
  2

  9
$PUCSORTHOVIEW
 70
     0
  9
$PUCSORGTOP
 10
0.0
 20
0.0
 30
0.0
  9
$PUCSORGBOTTOM
 10
0.0
 20
0.0
 30
0.0
  9
$PUCSORGLEFT
 10
0.0
 20
0.0
 30
0.0
  9
$PUCSORGRIGHT
 10
0.0
 20
0.0
 30
0.0
  9
$PUCSORGFRONT
 10
0.0
 20
0.0
 30
0.0
  9
$PUCSORGBACK
 10
0.0
 20
0.0
 30
0.0
  9
$USERI1
 70
     0
  9
$USERI2
 70
     0
  9
$USERI3
 70
     0
  9
$USERI4
 70
     0
  9
$USERI5
 70
     0
  9
$USERR1
 40
0.0
  9
$USERR2
 40
0.0
  9
$USERR3
 40
0.0
  9
$USERR4
 40
0.0
  9
$USERR5
 40
0.0
  9
$WORLDVIEW
 70
     1
  9
$SHADEDGE
 70
     3
  9
$SHADEDIF
 70
    70
  9
$TILEMODE
 70
     1
  9
$MAXACTVP
 70
    64
  9
$PINSBASE
 10
0.0
 20
0.0
 30
0.0
  9
$PLIMCHECK
 70
     0
  9
$PEXTMIN
 10
1.0000000000E+20
 20
1.0000000000E+20
 30
1.0000000000E+20
  9
$PEXTMAX
 10
-1.0000000000E+20
 20
-1.0000000000E+20
 30
-1.0000000000E+20
  9
$PLIMMIN
 10
0.0
 20
0.0
  9
$PLIMMAX
 10
420.0
 20
297.0
  9
$UNITMODE
 70
     0
  9
$VISRETAIN
 70
     1
  9
$PLINEGEN
 70
     0
  9
$PSLTSCALE
 70
     1
  9
$TREEDEPTH
 70
  3020
  9
$CMLSTYLE
  2
Standard
  9
$CMLJUST
 70
     0
  9
$CMLSCALE
 40
20.0
  9
$PROXYGRAPHICS
 70
     1
  9
$MEASUREMENT
 70
     1
  9
$CELWEIGHT
370
    -1
  9
$ENDCAPS
280
     0
  9
$JOINSTYLE
280
     0
  9
$LWDISPLAY
290
     1
  9
$INSUNITS
 70
     4
  9
$HYPERLINKBASE
  1

  9
$STYLESHEET
  1

  9
$XEDIT
290
     1
  9
$CEPSNTYPE
380
     0
  9
$PSTYLEMODE
290
     1
  9
$FINGERPRINTGUID
  2
{E3D529BE-6233-4C5A-94C1-FA7AAF81866E}
  9
$VERSIONGUID
  2
{FAEB1C32-E019-11D5-929B-00C0DF256EC4}
  9
$EXTNAMES
290
     1
  9
$PSVPSCALE
 40
0.0
  9
$OLESTARTUP
290
     0
  0
ENDSEC
  0
SECTION
  2
CLASSES
  0
CLASS
  1
ACDBDICTIONARYWDFLT
  2
AcDbDictionaryWithDefault
  3
ObjectDBX Classes
 90
        0
280
     0
281
     0
  0
CLASS
  1
VISUALSTYLE
  2
AcDbVisualStyle
  3
ObjectDBX Classes
 90
     4095
280
     0
281
     0
  0
CLASS
  1
MATERIAL
  2
AcDbMaterial
  3
ObjectDBX Classes
 90
     1153
280
     0
281
     0
  0
CLASS
  1
ACDBPLACEHOLDER
  2
AcDbPlaceHolder
  3
ObjectDBX Classes
 90
        0
280
     0
281
     0
  0
CLASS
  1
LAYOUT
  2
AcDbLayout
  3
ObjectDBX Classes
 90
        0
280
     0
281
     0
  0
ENDSEC
  0
SECTION
  2
TABLES
  0
TABLE
  2
VPORT
  5
8
330
0
100
AcDbSymbolTable
 70
     1
  0
VPORT
  5
29
330
8
100
AcDbSymbolTableRecord
100
AcDbViewportTableRecord
  2
*Active
 70
     0
 10
0.0
 20
0.0
 11
1.0
 21
1.0
 12
420.5
 22
297.0
 13
0.0
 23
0.0
 14
10.0
 24
10.0
 15
10.0
 25
10.0
 16
0.0
 26
0.0
 36
1.0
 17
0.0
 27
0.0
 37
0.0
 40
594.0
 41
1.4158249158
 42
50.0
 43
0.0
 44
0.0
 50
0.0
 51
0.0
 71
     0
 72
  2000
 73
     1
 74
     3
 75
     0
 76
     0
 77
     0
 78
     0
281
     0
 65
     1
110
0.0
120
0.0
130
0.0
111
1.0
121
0.0
131
0.0
112
0.0
122
1.0
132
0.0
 79
     0
146
0.0
  0
ENDTAB
  0
TABLE
  2
LTYPE
  5
5
330
0
100
AcDbSymbolTable
 70
     6
  0
LTYPE
  5
14
330
5
100
AcDbSymbolTableRecord
100
AcDbLinetypeTableRecord
  2
ByBlock
 70
     0
  3

 72
    65
 73
     0
 40
0.0
  0
LTYPE
  5
15
330
5
100
AcDbSymbolTableRecord
100
AcDbLinetypeTableRecord
  2
ByLayer
 70
     0
  3

 72
    65
 73
     0
 40
0.0
  0
LTYPE
  5
16
330
5
100
AcDbSymbolTableRecord
100
AcDbLinetypeTableRecord
  2
Continuous
 70
     0
  3
Solid line
 72
    65
 73
     0
 40
0.0
  0
LTYPE
  5
3F
330
5
100
AcDbSymbolTableRecord
100
AcDbLinetypeTableRecord
  2
HIDDEN
 70
     0
  3
Hidden __ __ __ __ __ __ __ __ __ __ __ __ __ __
 72
    65
 73
     2
 40
1.905
 49
1.27
 74
     0
 49
-0.635
 74
     0
  0
LTYPE
  5
40
330
5
100
AcDbSymbolTableRecord
100
AcDbLinetypeTableRecord
  2
PHANTOM
 70
     0
  3
Phantom ______  __  __  ______  __  __  ______
 72
    65
 73
     6
 40
12.7
 49
6.35
 74
     0
 49
-1.27
 74
     0
 49
1.27
 74
     0
 49
-1.27
 74
     0
 49
1.27
 74
     0
 49
-1.27
 74
     0
  0
LTYPE
  5
41
330
5
100
AcDbSymbolTableRecord
100
AcDbLinetypeTableRecord
  2
CENTER
 70
     0
  3
Center ____ _ ____ _ ____ _ ____ _ ____ _ ____
 72
    65
 73
     4
 40
10.16
 49
6.35
 74
     0
 49
-1.27
 74
     0
 49
1.27
 74
     0
 49
-1.27
 74
     0
  0
LTYPE
  5
42
330
5
100
AcDbSymbolTableRecord
100
AcDbLinetypeTableRecord
  2
CENTERX2
 70
     0
  3
Center (2x) ________  __  ________  __  _____
 72
    65
 73
     4
 40
20.32
 49
12.7
 74
     0
 49
-2.54
 74
     0
 49
2.54
 74
     0
 49
-2.54
 74
     0
  0
LTYPE
  5
43
330
5
100
AcDbSymbolTableRecord
100
AcDbLinetypeTableRecord
  2
DOT2
 70
     0
  3
Dot (.5x) ........................................
 72
    65
 73
     2
 40
0.635
 49
0.0
 74
     0
 49
-0.635
 74
     0
  0
ENDTAB
  0
TABLE
  2
LAYER
  5
2
330
0
100
AcDbSymbolTable
 70
     3
  0
LAYER
  5
10
330
2
100
AcDbSymbolTableRecord
100
AcDbLayerTableRecord
  2
0
 70
     0
 62
     7
  6
Continuous
370
    -3
390
F
  0
LAYER
  5
44
330
2
100
AcDbSymbolTableRecord
100
AcDbLayerTableRecord
  2
FORMAT
 70
     0
 62
     7
  6
Continuous
370
    -3
390
F
  0
LAYER
  5
45
330
2
100
AcDbSymbolTableRecord
100
AcDbLayerTableRecord
  2
PROTOTYPE
 70
     0
 62
     7
  6
Continuous
370
    -3
390
F
  0
ENDTAB
  0
TABLE
  2
STYLE
  5
3
330
0
100
AcDbSymbolTable
 70
     1
  0
STYLE
  5
11
330
3
100
AcDbSymbolTableRecord
100
AcDbTextStyleTableRecord
  2
Standard
 70
     0
 40
0.0
 41
1.0
 50
0.0
 71
     0
 42
2.5
  3
txt
  4

  0
ENDTAB
  0
TABLE
  2
VIEW
  5
6
330
0
100
AcDbSymbolTable
 70
     0
  0
ENDTAB
  0
TABLE
  2
UCS
  5
7
330
0
100
AcDbSymbolTable
 70
     0
  0
ENDTAB
  0
TABLE
  2
APPID
  5
9
330
0
100
AcDbSymbolTable
 70
     1
  0
APPID
  5
12
330
9
100
AcDbSymbolTableRecord
100
AcDbRegAppTableRecord
  2
ACAD
 70
     0
  0
ENDTAB
  0
TABLE
  2
DIMSTYLE
  5
A
330
0
100
AcDbSymbolTable
 70
     1
100
AcDbDimStyleTable
  0
DIMSTYLE
105
27
330
A
100
AcDbSymbolTableRecord
100
AcDbDimStyleTableRecord
  2
ISO-25
 70
     0
 41
2.5
 42
0.625
 43
3.75
 44
1.25
 73
     0
 74
     0
 77
     1
 78
     8
140
2.5
141
2.5
143
0.0393700787
147
0.625
171
     3
172
     1
178
     0
271
     2
272
     2
274
     3
278
    44
283
     0
284
     8
340
11
  0
ENDTAB
  0
TABLE
  2
BLOCK_RECORD
  5
1
330
0
100
AcDbSymbolTable
 70
     2
  0
BLOCK_RECORD
  5
1F
330
1
100
AcDbSymbolTableRecord
100
AcDbBlockTableRecord
  2
*Model_Space
340
22
  0
BLOCK_RECORD
  5
1B
330
1
100
AcDbSymbolTableRecord
100
AcDbBlockTableRecord
  2
*Paper_Space
340
1E
  0
BLOCK_RECORD
  5
23
330
1
100
AcDbSymbolTableRecord
100
AcDbBlockTableRecord
  2
*Paper_Space0
340
26
  0
BLOCK_RECORD
  5
1E6
330
1
100
AcDbSymbolTableRecord
100
AcDbBlockTableRecord
  2
SW_CENTERMARKSYMBOL_0
340
0
102
{BLKREFS
331
25A
102
}
  0
ENDTAB
  0
ENDSEC
  0
SECTION
  2
BLOCKS
  0
BLOCK
  5
20
330
1F
100
AcDbEntity
  8
0
100
AcDbBlockBegin
  2
*Model_Space
 70
     0
 10
0.0
 20
0.0
 30
0.0
  3
*Model_Space
  1

  0
ENDBLK
  5
21
330
1F
100
AcDbEntity
  8
0
100
AcDbBlockEnd
  0
BLOCK
  5
1C
330
1B
100
AcDbEntity
 67
     1
  8
0
100
AcDbBlockBegin
  2
*Paper_Space
 70
     0
 10
0.0
 20
0.0
 30
0.0
  3
*Paper_Space
  1

  0
ENDBLK
  5
1D
330
1B
100
AcDbEntity
 67
     1
  8
0
100
AcDbBlockEnd
  0
BLOCK
  5
24
330
23
100
AcDbEntity
  8
0
100
AcDbBlockBegin
  2
*Paper_Space0
 70
     0
 10
0.0
 20
0.0
 30
0.0
  3
*Paper_Space0
  1

  0
ENDBLK
  5
25
330
23
100
AcDbEntity
  8
0
100
AcDbBlockEnd
  0
BLOCK
  5
1E7
330
1E6
100
AcDbEntity
  8
0
100
AcDbBlockBegin
  2
SW_CENTERMARKSYMBOL_0
 70
     0
 10
0.0
 20
0.0
 30
0.0
  3
SW_CENTERMARKSYMBOL_0
  1

  0
ARC
  5
1E9
330
1E6
100
AcDbEntity
  8
FORMAT
 62
     0
100
AcDbCircle
 10
45.8462256738
 20
-230.4845408948
 30
0.0
 40
235.000000000003
100
AcDbArc
 50
101.25
 51
101.8595295693
  0
ARC
  5
1EA
330
1E6
100
AcDbEntity
  8
FORMAT
 62
     0
100
AcDbCircle
 10
45.8462256738
 20
-230.4845408948
 30
0.0
 40
235.000000000003
100
AcDbArc
 50
100.6404704307
 51
101.25
  0
ARC
  5
1EB
330
1E6
100
AcDbEntity
  8
FORMAT
 62
     0
100
AcDbCircle
 10
45.8462256738
 20
-230.4845408948
 30
0.0
 40
235.000000000003
100
AcDbArc
 50
123.75
 51
124.3595295693
  0
ARC
  5
1EC
330
1E6
100
AcDbEntity
  8
FORMAT
 62
     0
100
AcDbCircle
 10
45.8462256738
 20
-230.4845408948
 30
0.0
 40
235.0000000000031
100
AcDbArc
 50
123.1404704307
 51
123.75
  0
ARC
  5
1ED
330
1E6
100
AcDbEntity
  8
FORMAT
 62
     0
100
AcDbCircle
 10
45.8462256738
 20
-230.4845408948
 30
0.0
 40
235.0000000000031
100
AcDbArc
 50
146.25
 51
146.8595295693
  0
ARC
  5
1EE
330
1E6
100
AcDbEntity
  8
FORMAT
 62
     0
100
AcDbCircle
 10
45.8462256738
 20
-230.4845408948
 30
0.0
 40
235.0000000000031
100
AcDbArc
 50
145.6404704307
 51
146.25
  0
ARC
  5
1EF
330
1E6
100
AcDbEntity
  8
FORMAT
 62
     0
100
AcDbCircle
 10
45.8462256738
 20
-230.4845408948
 30
0.0
 40
235.0000000000021
100
AcDbArc
 50
168.75
 51
169.3595295693
  0
ARC
  5
1F0
330
1E6
100
AcDbEntity
  8
FORMAT
 62
     0
100
AcDbCircle
 10
45.8462256738
 20
-230.4845408948
 30
0.0
 40
235.0000000000021
100
AcDbArc
 50
168.1404704307
 51
168.75
  0
ARC
  5
1F1
330
1E6
100
AcDbEntity
  8
FORMAT
 62
     0
100
AcDbCircle
 10
45.8462256738
 20
-230.4845408948
 30
0.0
 40
235.0000000000012
100
AcDbArc
 50
191.25
 51
191.8595295693
  0
ARC
  5
1F2
330
1E6
100
AcDbEntity
  8
FORMAT
 62
     0
100
AcDbCircle
 10
45.8462256738
 20
-230.4845408948
 30
0.0
 40
235.0000000000012
100
AcDbArc
 50
190.6404704307
 51
191.25
  0
ARC
  5
1F3
330
1E6
100
AcDbEntity
  8
FORMAT
 62
     0
100
AcDbCircle
 10
45.8462256738
 20
-230.4845408948
 30
0.0
 40
235.0000000000003
100
AcDbArc
 50
213.75
 51
214.3595295693
  0
ARC
  5
1F4
330
1E6
100
AcDbEntity
  8
FORMAT
 62
     0
100
AcDbCircle
 10
45.8462256738
 20
-230.4845408948
 30
0.0
 40
235.0000000000003
100
AcDbArc
 50
213.1404704307
 51
213.75
  0
ARC
  5
1F5
330
1E6
100
AcDbEntity
  8
FORMAT
 62
     0
100
AcDbCircle
 10
45.8462256738
 20
-230.4845408948
 30
0.0
 40
234.9999999999905
100
AcDbArc
 50
236.25
 51
236.8595295693
  0
ARC
  5
1F6
330
1E6
100
AcDbEntity
  8
FORMAT
 62
     0
100
AcDbCircle
 10
45.8462256738
 20
-230.4845408948
 30
0.0
 40
234.9999999999905
100
AcDbArc
 50
235.6404704307
 51
236.25
  0
ARC
  5
1F7
330
1E6
100
AcDbEntity
  8
FORMAT
 62
     0
100
AcDbCircle
 10
45.8462256738
 20
-230.4845408948
 30
0.0
 40
234.9999999999988
100
AcDbArc
 50
258.75
 51
259.3595295693
  0
ARC
  5
1F8
330
1E6
100
AcDbEntity
  8
FORMAT
 62
     0
100
AcDbCircle
 10
45.8462256738
 20
-230.4845408948
 30
0.0
 40
234.9999999999988
100
AcDbArc
 50
258.1404704307
 51
258.75
  0
ARC
  5
1F9
330
1E6
100
AcDbEntity
  8
FORMAT
 62
     0
100
AcDbCircle
 10
45.8462256738
 20
-230.4845408948
 30
0.0
 40
234.9999999999985
100
AcDbArc
 50
281.25
 51
281.8595295693
  0
ARC
  5
1FA
330
1E6
100
AcDbEntity
  8
FORMAT
 62
     0
100
AcDbCircle
 10
45.8462256738
 20
-230.4845408948
 30
0.0
 40
234.9999999999985
100
AcDbArc
 50
280.6404704307
 51
281.25
  0
ARC
  5
1FB
330
1E6
100
AcDbEntity
  8
FORMAT
 62
     0
100
AcDbCircle
 10
45.8462256738
 20
-230.4845408948
 30
0.0
 40
234.9999999999984
100
AcDbArc
 50
303.75
 51
304.3595295693
  0
ARC
  5
1FC
330
1E6
100
AcDbEntity
  8
FORMAT
 62
     0
100
AcDbCircle
 10
45.8462256738
 20
-230.4845408948
 30
0.0
 40
234.9999999999984
100
AcDbArc
 50
303.1404704307
 51
303.75
  0
ARC
  5
1FD
330
1E6
100
AcDbEntity
  8
FORMAT
 62
     0
100
AcDbCircle
 10
45.8462256738
 20
-230.4845408948
 30
0.0
 40
234.9999999999817
100
AcDbArc
 50
326.25
 51
326.8595295693
  0
ARC
  5
1FE
330
1E6
100
AcDbEntity
  8
FORMAT
 62
     0
100
AcDbCircle
 10
45.8462256738
 20
-230.4845408948
 30
0.0
 40
234.9999999999817
100
AcDbArc
 50
325.6404704307
 51
326.25
  0
ARC
  5
1FF
330
1E6
100
AcDbEntity
  8
FORMAT
 62
     0
100
AcDbCircle
 10
45.8462256738
 20
-230.4845408948
 30
0.0
 40
234.9999999999994
100
AcDbArc
 50
348.75
 51
349.3595295693
  0
ARC
  5
200
330
1E6
100
AcDbEntity
  8
FORMAT
 62
     0
100
AcDbCircle
 10
45.8462256738
 20
-230.4845408948
 30
0.0
 40
234.9999999999994
100
AcDbArc
 50
348.1404704307
 51
348.75
  0
ARC
  5
201
330
1E6
100
AcDbEntity
  8
FORMAT
 62
     0
100
AcDbCircle
 10
45.8462256738
 20
-230.4845408948
 30
0.0
 40
235.0000000000012
100
AcDbArc
 50
33.75
 51
34.3595295693
  0
ARC
  5
202
330
1E6
100
AcDbEntity
  8
FORMAT
 62
     0
100
AcDbCircle
 10
45.8462256738
 20
-230.4845408948
 30
0.0
 40
235.0000000000013
100
AcDbArc
 50
33.1404704307
 51
33.75
  0
ARC
  5
203
330
1E6
100
AcDbEntity
  8
FORMAT
 62
     0
100
AcDbCircle
 10
45.8462256738
 20
-230.4845408948
 30
0.0
 40
234.9999999999944
100
AcDbArc
 50
56.25
 51
56.8595295693
  0
ARC
  5
204
330
1E6
100
AcDbEntity
  8
FORMAT
 62
     0
100
AcDbCircle
 10
45.8462256738
 20
-230.4845408948
 30
0.0
 40
234.9999999999944
100
AcDbArc
 50
55.6404704307
 51
56.25
  0
ARC
  5
205
330
1E6
100
AcDbEntity
  8
FORMAT
 62
     0
100
AcDbCircle
 10
45.8462256738
 20
-230.4845408948
 30
0.0
 40
235.0000000000027
100
AcDbArc
 50
78.75
 51
79.3595295693
  0
ARC
  5
206
330
1E6
100
AcDbEntity
  8
FORMAT
 62
     0
100
AcDbCircle
 10
45.8462256738
 20
-230.4845408948
 30
0.0
 40
235.0000000000027
100
AcDbArc
 50
78.1404704307
 51
78.75
  0
ARC
  5
207
330
1E6
100
AcDbEntity
  8
FORMAT
 62
     0
100
AcDbCircle
 10
45.8462256738
 20
-230.4845408948
 30
0.0
 40
235.000000000003
100
AcDbArc
 50
102.4690591386
 51
122.5309408614
  0
ARC
  5
208
330
1E6
100
AcDbEntity
  8
FORMAT
 62
     0
100
AcDbCircle
 10
45.8462256738
 20
-230.4845408948
 30
0.0
 40
235.000000000003
100
AcDbArc
 50
124.9690591386
 51
145.0309408614
  0
ARC
  5
209
330
1E6
100
AcDbEntity
  8
FORMAT
 62
     0
100
AcDbCircle
 10
45.8462256738
 20
-230.4845408948
 30
0.0
 40
235.0000000000031
100
AcDbArc
 50
147.4690591386
 51
167.5309408614
  0
ARC
  5
20A
330
1E6
100
AcDbEntity
  8
FORMAT
 62
     0
100
AcDbCircle
 10
45.8462256738
 20
-230.4845408948
 30
0.0
 40
235.000000000002
100
AcDbArc
 50
169.9690591386
 51
190.0309408614
  0
ARC
  5
20B
330
1E6
100
AcDbEntity
  8
FORMAT
 62
     0
100
AcDbCircle
 10
45.8462256738
 20
-230.4845408948
 30
0.0
 40
235.0000000000012
100
AcDbArc
 50
192.4690591386
 51
212.5309408614
  0
ARC
  5
20C
330
1E6
100
AcDbEntity
  8
FORMAT
 62
     0
100
AcDbCircle
 10
45.8462256738
 20
-230.4845408948
 30
0.0
 40
235.0000000000003
100
AcDbArc
 50
214.9690591386
 51
235.0309408614
  0
ARC
  5
20D
330
1E6
100
AcDbEntity
  8
FORMAT
 62
     0
100
AcDbCircle
 10
45.8462256738
 20
-230.4845408948
 30
0.0
 40
234.9999999999988
100
AcDbArc
 50
237.4690591386
 51
257.5309408614
  0
ARC
  5
20E
330
1E6
100
AcDbEntity
  8
FORMAT
 62
     0
100
AcDbCircle
 10
45.8462256738
 20
-230.4845408948
 30
0.0
 40
234.9999999999987
100
AcDbArc
 50
259.9690591386
 51
280.0309408614
  0
ARC
  5
20F
330
1E6
100
AcDbEntity
  8
FORMAT
 62
     0
100
AcDbCircle
 10
45.8462256738
 20
-230.4845408948
 30
0.0
 40
234.9999999999984
100
AcDbArc
 50
282.4690591386
 51
302.5309408614
  0
ARC
  5
210
330
1E6
100
AcDbEntity
  8
FORMAT
 62
     0
100
AcDbCircle
 10
45.8462256738
 20
-230.4845408948
 30
0.0
 40
234.9999999999984
100
AcDbArc
 50
304.9690591386
 51
325.0309408614
  0
ARC
  5
211
330
1E6
100
AcDbEntity
  8
FORMAT
 62
     0
100
AcDbCircle
 10
45.8462256738
 20
-230.4845408948
 30
0.0
 40
234.9999999999994
100
AcDbArc
 50
327.4690591386
 51
347.5309408614
  0
ARC
  5
212
330
1E6
100
AcDbEntity
  8
FORMAT
 62
     0
100
AcDbCircle
 10
45.8462256738
 20
-230.4845408948
 30
0.0
 40
235.0000000000012
100
AcDbArc
 50
349.9690591386
 51
32.5309408614
  0
ARC
  5
213
330
1E6
100
AcDbEntity
  8
FORMAT
 62
     0
100
AcDbCircle
 10
45.8462256738
 20
-230.4845408948
 30
0.0
 40
235.0000000000011
100
AcDbArc
 50
34.9690591386
 51
55.0309408614
  0
ARC
  5
214
330
1E6
100
AcDbEntity
  8
FORMAT
 62
     0
100
AcDbCircle
 10
45.8462256738
 20
-230.4845408948
 30
0.0
 40
235.0000000000027
100
AcDbArc
 50
57.4690591386
 51
77.5309408614
  0
ARC
  5
215
330
1E6
100
AcDbEntity
  8
FORMAT
 62
     0
100
AcDbCircle
 10
45.8462256738
 20
-230.4845408948
 30
0.0
 40
235.000000000003
100
AcDbArc
 50
79.9690591386
 51
100.0309408614
  0
LINE
  5
216
330
1E6
100
AcDbEntity
  8
FORMAT
 62
     0
100
AcDbLine
 10
0.0
 20
0.0
 30
0.0
 11
-0.487725805
 21
2.451963201
 31
0.0
  0
LINE
  5
217
330
1E6
100
AcDbEntity
  8
FORMAT
 62
     0
100
AcDbLine
 10
0.0
 20
0.0
 30
0.0
 11
0.487725805
 21
-2.451963201
 31
0.0
  0
LINE
  5
218
330
1E6
100
AcDbEntity
  8
FORMAT
 62
     0
100
AcDbLine
 10
-0.9754516101
 20
4.903926402
 30
0.0
 11
-3.2189903133
 21
16.1829571267
 31
0.0
  0
LINE
  5
219
330
1E6
100
AcDbEntity
  8
FORMAT
 62
     0
100
AcDbLine
 10
0.9754516101
 20
-4.903926402
 30
0.0
 11
3.2189903133
 21
-16.1829571267
 31
0.0
  0
LINE
  5
21A
330
1E6
100
AcDbEntity
  8
FORMAT
 62
     0
100
AcDbLine
 10
-84.7127790858
 20
-35.0891820037
 30
0.0
 11
-86.1017046684
 21
-33.0105079729
 31
0.0
  0
LINE
  5
21B
330
1E6
100
AcDbEntity
  8
FORMAT
 62
     0
100
AcDbLine
 10
-84.7127790858
 20
-35.0891820037
 30
0.0
 11
-83.3238535033
 21
-37.1678560344
 31
0.0
  0
LINE
  5
21C
330
1E6
100
AcDbEntity
  8
FORMAT
 62
     0
100
AcDbLine
 10
-87.4906302509
 20
-30.9318339422
 30
0.0
 11
-93.8796879306
 21
-21.3699334007
 31
0.0
  0
LINE
  5
21D
330
1E6
100
AcDbEntity
  8
FORMAT
 62
     0
100
AcDbLine
 10
-81.9349279207
 20
-39.2465300652
 30
0.0
 11
-75.545870241
 21
-48.8084306067
 31
0.0
  0
LINE
  5
21E
330
1E6
100
AcDbEntity
  8
FORMAT
 62
     0
100
AcDbLine
 10
-149.5491332173
 20
-99.9255361352
 30
0.0
 11
-151.6278072481
 21
-98.5366105526
 31
0.0
  0
LINE
  5
21F
330
1E6
100
AcDbEntity
  8
FORMAT
 62
     0
100
AcDbLine
 10
-149.5491332173
 20
-99.9255361352
 30
0.0
 11
-147.4704591865
 21
-101.3144617177
 31
0.0
  0
LINE
  5
220
330
1E6
100
AcDbEntity
  8
FORMAT
 62
     0
100
AcDbLine
 10
-153.7064812788
 20
-97.1476849701
 30
0.0
 11
-161.6054425957
 21
-91.8697677564
 31
0.0
  0
LINE
  5
221
330
1E6
100
AcDbEntity
  8
FORMAT
 62
     0
100
AcDbLine
 10
-145.3917851558
 20
-102.7033873003
 30
0.0
 11
-137.4928238389
 21
-107.9813045139
 31
0.0
  0
LINE
  5
222
330
1E6
100
AcDbEntity
  8
FORMAT
 62
     0
100
AcDbLine
 10
45.8462256738
 20
-230.4845408948
 30
0.0
 11
45.8462256738
 21
-227.9845408948
 31
0.0
  0
LINE
  5
223
330
1E6
100
AcDbEntity
  8
FORMAT
 62
     0
100
AcDbLine
 10
45.8462256738
 20
-230.4845408948
 30
0.0
 11
43.3462256738
 21
-230.4845408948
 31
0.0
  0
LINE
  5
224
330
1E6
100
AcDbEntity
  8
FORMAT
 62
     0
100
AcDbLine
 10
45.8462256738
 20
-230.4845408948
 30
0.0
 11
45.8462256738
 21
-232.9845408948
 31
0.0
  0
LINE
  5
225
330
1E6
100
AcDbEntity
  8
FORMAT
 62
     0
100
AcDbLine
 10
45.8462256738
 20
-230.4845408948
 30
0.0
 11
48.3462256738
 21
-230.4845408948
 31
0.0
  0
LINE
  5
226
330
1E6
100
AcDbEntity
  8
FORMAT
 62
     0
100
AcDbLine
 10
45.8462256738
 20
-225.4845408948
 30
0.0
 11
45.8462256738
 21
2.5
 31
0.0
  0
LINE
  5
227
330
1E6
100
AcDbEntity
  8
FORMAT
 62
     0
100
AcDbLine
 10
40.8462256738
 20
-230.4845408948
 30
0.0
 11
-187.138315221
 21
-230.4845408948
 31
0.0
  0
LINE
  5
228
330
1E6
100
AcDbEntity
  8
FORMAT
 62
     0
100
AcDbLine
 10
45.8462256738
 20
-235.4845408948
 30
0.0
 11
45.8462256738
 21
-463.4690817895
 31
0.0
  0
LINE
  5
229
330
1E6
100
AcDbEntity
  8
FORMAT
 62
     0
100
AcDbLine
 10
50.8462256738
 20
-230.4845408948
 30
0.0
 11
278.8307665686
 21
-230.4845408948
 31
0.0
  0
LINE
  5
22A
330
1E6
100
AcDbEntity
  8
FORMAT
 62
     0
100
AcDbLine
 10
-184.638315221
 20
-184.638315221
 30
0.0
 11
-187.090278422
 21
-184.1505894159
 31
0.0
  0
LINE
  5
22B
330
1E6
100
AcDbEntity
  8
FORMAT
 62
     0
100
AcDbLine
 10
-184.638315221
 20
-184.638315221
 30
0.0
 11
-182.18635202
 21
-185.126041026
 31
0.0
  0
LINE
  5
22C
330
1E6
100
AcDbEntity
  8
FORMAT
 62
     0
100
AcDbLine
 10
-189.542241623
 20
-183.6628636109
 30
0.0
 11
-200.8212723476
 21
-181.4193249077
 31
0.0
  0
LINE
  5
22D
330
1E6
100
AcDbEntity
  8
FORMAT
 62
     0
100
AcDbLine
 10
-179.7343888189
 20
-185.6137668311
 30
0.0
 11
-168.4553580943
 21
-187.8573055342
 31
0.0
  0
LINE
  5
22E
330
1E6
100
AcDbEntity
  8
FORMAT
 62
     0
100
AcDbLine
 10
-184.638315221
 20
-276.3307665686
 30
0.0
 11
-187.090278422
 21
-276.8184923736
 31
0.0
  0
LINE
  5
22F
330
1E6
100
AcDbEntity
  8
FORMAT
 62
     0
100
AcDbLine
 10
-184.638315221
 20
-276.3307665686
 30
0.0
 11
-182.18635202
 21
-275.8430407635
 31
0.0
  0
LINE
  5
230
330
1E6
100
AcDbEntity
  8
FORMAT
 62
     0
100
AcDbLine
 10
-189.542241623
 20
-277.3062181786
 30
0.0
 11
-200.8212723476
 21
-279.5497568818
 31
0.0
  0
LINE
  5
231
330
1E6
100
AcDbEntity
  8
FORMAT
 62
     0
100
AcDbLine
 10
-179.7343888189
 20
-275.3553149585
 30
0.0
 11
-168.4553580943
 21
-273.1117762553
 31
0.0
  0
LINE
  5
232
330
1E6
100
AcDbEntity
  8
FORMAT
 62
     0
100
AcDbLine
 10
-149.5491332173
 20
-361.0435456544
 30
0.0
 11
-151.6278072481
 21
-362.4324712369
 31
0.0
  0
LINE
  5
233
330
1E6
100
AcDbEntity
  8
FORMAT
 62
     0
100
AcDbLine
 10
-149.5491332173
 20
-361.0435456544
 30
0.0
 11
-147.4704591865
 21
-359.6546200718
 31
0.0
  0
LINE
  5
234
330
1E6
100
AcDbEntity
  8
FORMAT
 62
     0
100
AcDbLine
 10
-153.7064812788
 20
-363.8213968195
 30
0.0
 11
-163.2683818203
 21
-370.2104544992
 31
0.0
  0
LINE
  5
235
330
1E6
100
AcDbEntity
  8
FORMAT
 62
     0
100
AcDbLine
 10
-145.3917851558
 20
-358.2656944893
 30
0.0
 11
-135.8298846143
 21
-351.8766368095
 31
0.0
  0
LINE
  5
236
330
1E6
100
AcDbEntity
  8
FORMAT
 62
     0
100
AcDbLine
 10
-84.7127790858
 20
-425.8798997858
 30
0.0
 11
-86.1017046684
 21
-427.9585738166
 31
0.0
  0
LINE
  5
237
330
1E6
100
AcDbEntity
  8
FORMAT
 62
     0
100
AcDbLine
 10
-84.7127790858
 20
-425.8798997858
 30
0.0
 11
-83.3238535033
 21
-423.8012257551
 31
0.0
  0
LINE
  5
238
330
1E6
100
AcDbEntity
  8
FORMAT
 62
     0
100
AcDbLine
 10
-87.4906302509
 20
-430.0372478474
 30
0.0
 11
-92.7685474646
 21
-437.9362091642
 31
0.0
  0
LINE
  5
239
330
1E6
100
AcDbEntity
  8
FORMAT
 62
     0
100
AcDbLine
 10
-81.9349279207
 20
-421.7225517243
 30
0.0
 11
-76.657010707
 21
-413.8235904075
 31
0.0
  0
LINE
  5
23A
330
1E6
100
AcDbEntity
  8
FORMAT
 62
     0
100
AcDbLine
 10
0.0
 20
-460.9690817895
 30
0.0
 11
-0.487725805
 21
-463.4210449905
 31
0.0
  0
LINE
  5
23B
330
1E6
100
AcDbEntity
  8
FORMAT
 62
     0
100
AcDbLine
 10
0.0
 20
-460.9690817895
 30
0.0
 11
0.4877258051
 21
-458.5171185885
 31
0.0
  0
LINE
  5
23C
330
1E6
100
AcDbEntity
  8
FORMAT
 62
     0
100
AcDbLine
 10
-0.9754516101
 20
-465.8730081915
 30
0.0
 11
-3.2189903133
 21
-477.1520389162
 31
0.0
  0
LINE
  5
23D
330
1E6
100
AcDbEntity
  8
FORMAT
 62
     0
100
AcDbLine
 10
0.9754516101
 20
-456.0651553875
 30
0.0
 11
3.2189903133
 21
-444.7861246629
 31
0.0
  0
LINE
  5
23E
330
1E6
100
AcDbEntity
  8
FORMAT
 62
     0
100
AcDbLine
 10
91.6924513476
 20
-460.9690817895
 30
0.0
 11
92.1801771526
 21
-463.4210449905
 31
0.0
  0
LINE
  5
23F
330
1E6
100
AcDbEntity
  8
FORMAT
 62
     0
100
AcDbLine
 10
91.6924513476
 20
-460.9690817895
 30
0.0
 11
91.2047255426
 21
-458.5171185885
 31
0.0
  0
LINE
  5
240
330
1E6
100
AcDbEntity
  8
FORMAT
 62
     0
100
AcDbLine
 10
92.6679029577
 20
-465.8730081915
 30
0.0
 11
94.9114416609
 21
-477.1520389162
 31
0.0
  0
LINE
  5
241
330
1E6
100
AcDbEntity
  8
FORMAT
 62
     0
100
AcDbLine
 10
90.7169997375
 20
-456.0651553875
 30
0.0
 11
88.4734610343
 21
-444.7861246629
 31
0.0
  0
LINE
  5
242
330
1E6
100
AcDbEntity
  8
FORMAT
 62
     0
100
AcDbLine
 10
176.4052304334
 20
-425.8798997859
 30
0.0
 11
177.794156016
 21
-427.9585738166
 31
0.0
  0
LINE
  5
243
330
1E6
100
AcDbEntity
  8
FORMAT
 62
     0
100
AcDbLine
 10
176.4052304334
 20
-425.8798997859
 30
0.0
 11
175.0163048509
 21
-423.8012257551
 31
0.0
  0
LINE
  5
244
330
1E6
100
AcDbEntity
  8
FORMAT
 62
     0
100
AcDbLine
 10
179.1830815985
 20
-430.0372478474
 30
0.0
 11
185.5721392782
 21
-439.5991483888
 31
0.0
  0
LINE
  5
245
330
1E6
100
AcDbEntity
  8
FORMAT
 62
     0
100
AcDbLine
 10
173.6273792683
 20
-421.7225517243
 30
0.0
 11
167.2383215886
 21
-412.1606511829
 31
0.0
  0
LINE
  5
246
330
1E6
100
AcDbEntity
  8
FORMAT
 62
     0
100
AcDbLine
 10
241.2415845649
 20
-361.0435456544
 30
0.0
 11
243.3202585956
 21
-362.4324712369
 31
0.0
  0
LINE
  5
247
330
1E6
100
AcDbEntity
  8
FORMAT
 62
     0
100
AcDbLine
 10
241.2415845649
 20
-361.0435456544
 30
0.0
 11
239.1629105341
 21
-359.6546200718
 31
0.0
  0
LINE
  5
248
330
1E6
100
AcDbEntity
  8
FORMAT
 62
     0
100
AcDbLine
 10
245.3989326264
 20
-363.8213968194
 30
0.0
 11
253.2978939433
 21
-369.0993140331
 31
0.0
  0
LINE
  5
249
330
1E6
100
AcDbEntity
  8
FORMAT
 62
     0
100
AcDbLine
 10
237.0842365034
 20
-358.2656944893
 30
0.0
 11
229.1852751865
 21
-352.9877772756
 31
0.0
  0
LINE
  5
24A
330
1E6
100
AcDbEntity
  8
FORMAT
 62
     0
100
AcDbLine
 10
276.3307665686
 20
-276.3307665685
 30
0.0
 11
278.7827297696
 21
-276.8184923736
 31
0.0
  0
LINE
  5
24B
330
1E6
100
AcDbEntity
  8
FORMAT
 62
     0
100
AcDbLine
 10
276.3307665686
 20
-276.3307665685
 30
0.0
 11
273.8788033675
 21
-275.8430407635
 31
0.0
  0
LINE
  5
24C
330
1E6
100
AcDbEntity
  8
FORMAT
 62
     0
100
AcDbLine
 10
281.2346929706
 20
-277.3062181786
 30
0.0
 11
292.5137236952
 21
-279.5497568818
 31
0.0
  0
LINE
  5
24D
330
1E6
100
AcDbEntity
  8
FORMAT
 62
     0
100
AcDbLine
 10
271.4268401665
 20
-275.3553149585
 30
0.0
 11
260.1478094419
 21
-273.1117762553
 31
0.0
  0
LINE
  5
24E
330
1E6
100
AcDbEntity
  8
FORMAT
 62
     0
100
AcDbLine
 10
241.2415845649
 20
-99.9255361351
 30
0.0
 11
243.3202585956
 21
-98.5366105526
 31
0.0
  0
LINE
  5
24F
330
1E6
100
AcDbEntity
  8
FORMAT
 62
     0
100
AcDbLine
 10
241.2415845649
 20
-99.9255361351
 30
0.0
 11
239.1629105341
 21
-101.3144617177
 31
0.0
  0
LINE
  5
250
330
1E6
100
AcDbEntity
  8
FORMAT
 62
     0
100
AcDbLine
 10
245.3989326264
 20
-97.14768497
 30
0.0
 11
254.9608331679
 21
-90.7586272903
 31
0.0
  0
LINE
  5
251
330
1E6
100
AcDbEntity
  8
FORMAT
 62
     0
100
AcDbLine
 10
237.0842365034
 20
-102.7033873002
 30
0.0
 11
227.5223359619
 21
-109.09244498
 31
0.0
  0
LINE
  5
252
330
1E6
100
AcDbEntity
  8
FORMAT
 62
     0
100
AcDbLine
 10
176.4052304334
 20
-35.0891820037
 30
0.0
 11
177.7941560159
 21
-33.0105079729
 31
0.0
  0
LINE
  5
253
330
1E6
100
AcDbEntity
  8
FORMAT
 62
     0
100
AcDbLine
 10
176.4052304334
 20
-35.0891820037
 30
0.0
 11
175.0163048508
 21
-37.1678560344
 31
0.0
  0
LINE
  5
254
330
1E6
100
AcDbEntity
  8
FORMAT
 62
     0
100
AcDbLine
 10
179.1830815985
 20
-30.9318339421
 30
0.0
 11
184.4609988122
 21
-23.0328726253
 31
0.0
  0
LINE
  5
255
330
1E6
100
AcDbEntity
  8
FORMAT
 62
     0
100
AcDbLine
 10
173.6273792683
 20
-39.2465300652
 30
0.0
 11
168.3494620546
 21
-47.145491382
 31
0.0
  0
LINE
  5
256
330
1E6
100
AcDbEntity
  8
FORMAT
 62
     0
100
AcDbLine
 10
91.6924513476
 20
0.0
 30
0.0
 11
92.1801771526
 21
2.451963201
 31
0.0
  0
LINE
  5
257
330
1E6
100
AcDbEntity
  8
FORMAT
 62
     0
100
AcDbLine
 10
91.6924513476
 20
0.0
 30
0.0
 11
91.2047255425
 21
-2.451963201
 31
0.0
  0
LINE
  5
258
330
1E6
100
AcDbEntity
  8
FORMAT
 62
     0
100
AcDbLine
 10
92.6679029577
 20
4.903926402
 30
0.0
 11
94.9114416608
 21
16.1829571267
 31
0.0
  0
LINE
  5
259
330
1E6
100
AcDbEntity
  8
FORMAT
 62
     0
100
AcDbLine
 10
90.7169997375
 20
-4.903926402
 30
0.0
 11
88.4734610343
 21
-16.1829571267
 31
0.0
  0
ENDBLK
  5
1E8
330
1E6
100
AcDbEntity
  8
0
100
AcDbBlockEnd
  0
ENDSEC
  0
SECTION
  2
ENTITIES
  0
LINE
  5
46
330
1F
100
AcDbEntity
  8
0
  6
Continuous
 62
     7
370
    15
100
AcDbLine
 10
-62.1122670675
 20
869.9761545044
 30
0.0
 11
-87.112273028
 21
869.9761545044
 31
0.0
  0
LINE
  5
47
330
1F
100
AcDbEntity
  8
0
  6
Continuous
 62
     7
370
    15
100
AcDbLine
 10
-87.112273028
 20
349.9761735779
 30
0.0
 11
-62.1122670675
 21
349.9761735779
 31
0.0
  0
LINE
  5
48
330
1F
100
AcDbEntity
  8
0
  6
Continuous
 62
     7
370
    15
100
AcDbLine
 10
272.8877412771
 20
869.9761545044
 30
0.0
 11
247.8877409046
 21
869.9761545044
 31
0.0
  0
LINE
  5
49
330
1F
100
AcDbEntity
  8
0
  6
Continuous
 62
     7
370
    15
100
AcDbLine
 10
247.8877409046
 20
349.9761735779
 30
0.0
 11
272.8877412771
 21
349.9761735779
 31
0.0
  0
LINE
  5
4A
330
1F
100
AcDbEntity
  8
0
  6
Continuous
 62
     7
370
    15
100
AcDbLine
 10
112.8877448534
 20
597.9761639368
 30
0.0
 11
115.3877424692
 21
597.9761639368
 31
0.0
  0
LINE
  5
4B
330
1F
100
AcDbEntity
  8
0
  6
Continuous
 62
     7
370
    15
100
AcDbLine
 10
115.3877424692
 20
621.9761641455
 30
0.0
 11
112.8877448534
 21
621.9761641455
 31
0.0
  0
LINE
  5
4C
330
1F
100
AcDbEntity
  8
0
  6
Continuous
 62
     7
370
    15
100
AcDbLine
 10
106.6481518244
 20
843.2376300675
 30
0.0
 11
106.1867075657
 21
837.9632746559
 31
0.0
  0
LINE
  5
4D
330
1F
100
AcDbEntity
  8
0
  6
Continuous
 62
     7
370
    15
100
AcDbLine
 10
106.1867075657
 20
381.9890534264
 30
0.0
 11
106.6481518244
 21
376.7146980148
 31
0.0
  0
LINE
  5
4E
330
1F
100
AcDbEntity
  8
0
  6
Continuous
 62
     7
370
    15
100
AcDbLine
 10
116.624598453
 20
620.368468551
 30
0.0
 11
115.3877424692
 21
618.2261639964
 31
0.0
  0
LINE
  5
4F
330
1F
100
AcDbEntity
  8
0
  6
Continuous
 62
     7
370
    15
100
AcDbLine
 10
115.3877424692
 20
601.7261640859
 30
0.0
 11
116.624598453
 21
599.5838595313
 31
0.0
  0
LINE
  5
50
330
1F
100
AcDbEntity
  8
0
  6
Continuous
 62
     7
370
    15
100
AcDbLine
 10
124.5508837198
 20
599.5838595313
 30
0.0
 11
125.7877397036
 21
601.7261640859
 31
0.0
  0
LINE
  5
51
330
1F
100
AcDbEntity
  8
0
  6
Continuous
 62
     7
370
    15
100
AcDbLine
 10
125.7877397036
 20
618.2261639964
 30
0.0
 11
124.5508837198
 21
620.368468551
 31
0.0
  0
LINE
  5
52
330
1F
100
AcDbEntity
  8
0
  6
Continuous
 62
     7
370
    15
100
AcDbLine
 10
165.8877405023
 20
615.9761640933
 30
0.0
 11
125.7877397036
 21
615.9761640933
 31
0.0
  0
LINE
  5
53
330
1F
100
AcDbEntity
  8
0
  6
Continuous
 62
     7
370
    15
100
AcDbLine
 10
125.7877397036
 20
603.976163989
 30
0.0
 11
165.8877405023
 21
603.976163989
 31
0.0
  0
LINE
  5
54
330
1F
100
AcDbEntity
  8
0
  6
Continuous
 62
     7
370
    15
100
AcDbLine
 10
105.6699352955
 20
615.9761640933
 30
0.0
 11
-62.1122670675
 21
615.9761640933
 31
0.0
  0
LINE
  5
55
330
1F
100
AcDbEntity
  8
0
  6
Continuous
 62
     7
370
    15
100
AcDbLine
 10
-62.1122670675
 20
603.976163989
 30
0.0
 11
105.6700247025
 21
603.976163989
 31
0.0
  0
LINE
  5
56
330
1F
100
AcDbEntity
  8
0
  6
Continuous
 62
     7
370
    15
100
AcDbLine
 10
-62.1122670675
 20
457.4171518665
 30
0.0
 11
-58.1122589613
 21
457.4171518665
 31
0.0
  0
LINE
  5
57
330
1F
100
AcDbEntity
  8
0
  6
Continuous
 62
     7
370
    15
100
AcDbLine
 10
-58.1122589613
 20
501.4171590787
 30
0.0
 11
-62.1122670675
 21
501.4171590787
 31
0.0
  0
LINE
  5
58
330
1F
100
AcDbEntity
  8
0
  6
Continuous
 62
     7
370
    15
100
AcDbLine
 10
243.8877421116
 20
457.4171518665
 30
0.0
 11
247.8877409046
 21
457.4171518665
 31
0.0
  0
LINE
  5
59
330
1F
100
AcDbEntity
  8
0
  6
Continuous
 62
     7
370
    15
100
AcDbLine
 10
247.8877409046
 20
501.4171590787
 30
0.0
 11
243.8877421116
 21
501.4171590787
 31
0.0
  0
ARC
  5
5A
330
1F
100
AcDbEntity
  8
0
  6
Continuous
 62
     7
370
    15
100
AcDbCircle
 10
100.2449041023
 20
827.4167539223
 30
0.0
 40
5.000000000000038
100
AcDbArc
 50
273.0
 51
343.2760339648
  0
ARC
  5
5B
330
1F
100
AcDbEntity
  8
0
  6
Continuous
 62
     7
370
    15
100
AcDbCircle
 10
100.2449041023
 20
392.53557416
 30
0.0
 40
5.000000000000016
100
AcDbArc
 50
16.7258596189
 51
87.0
  0
LINE
  5
5C
330
1F
100
AcDbEntity
  8
0
  6
Continuous
 62
     7
370
    15
100
AcDbLine
 10
243.0877416079
 20
461.4171599728
 30
0.0
 11
243.8877421116
 21
461.4171599728
 31
0.0
  0
LINE
  5
5D
330
1F
100
AcDbEntity
  8
0
  6
Continuous
 62
     7
370
    15
100
AcDbLine
 10
243.8877421116
 20
497.4171584231
 30
0.0
 11
243.0877416079
 21
497.4171584231
 31
0.0
  0
LINE
  5
5E
330
1F
100
AcDbEntity
  8
0
  6
Continuous
 62
     7
370
    15
100
AcDbLine
 10
-57.3122454191
 20
497.4171584231
 30
0.0
 11
-58.1122589613
 21
497.4171584231
 31
0.0
  0
LINE
  5
5F
330
1F
100
AcDbEntity
  8
0
  6
Continuous
 62
     7
370
    15
100
AcDbLine
 10
-58.1122589613
 20
461.4171599728
 30
0.0
 11
-57.3122454191
 21
461.4171599728
 31
0.0
  0
LINE
  5
60
330
1F
100
AcDbEntity
  8
0
  6
Continuous
 62
     7
370
    15
100
AcDbLine
 10
100.5065786337
 20
822.4236136061
 30
0.0
 11
75.2569037174
 21
821.1003308874
 31
0.0
  0
LINE
  5
61
330
1F
100
AcDbEntity
  8
0
  6
Continuous
 62
     7
370
    15
100
AcDbLine
 10
75.2569037174
 20
398.8519971949
 30
0.0
 11
100.5065786337
 21
397.5287144762
 31
0.0
  0
ARC
  5
62
330
1F
100
AcDbEntity
  8
0
  6
Continuous
 62
     7
370
    15
100
AcDbCircle
 10
75.3877412771
 20
818.6037526244
 30
0.0
 40
2.500000000000132
100
AcDbArc
 50
93.0
 51
180.0
  0
ARC
  5
63
330
1F
100
AcDbEntity
  8
0
  6
Continuous
 62
     7
370
    15
100
AcDbCircle
 10
75.3877412771
 20
401.3485754579
 30
0.0
 40
2.500000000000019
100
AcDbArc
 50
180.0
 51
267.0
  0
LINE
  5
64
330
1F
100
AcDbEntity
  8
0
  6
Continuous
 62
     7
370
    15
100
AcDbLine
 10
-36.7015254999
 20
461.2625455242
 30
0.0
 11
-36.6122675444
 21
461.4171599728
 31
0.0
  0
LINE
  5
65
330
1F
100
AcDbEntity
  8
0
  6
Continuous
 62
     7
370
    15
100
AcDbLine
 10
-87.112273028
 20
491.4171611649
 30
0.0
 11
-194.612259915
 21
491.4171611649
 31
0.0
  0
LINE
  5
66
330
1F
100
AcDbEntity
  8
0
  6
Continuous
 62
     7
370
    15
100
AcDbLine
 10
-194.612259915
 20
467.417157231
 30
0.0
 11
-87.112273028
 21
467.417157231
 31
0.0
  0
LINE
  5
67
330
1F
100
AcDbEntity
  8
0
  6
Continuous
 62
     7
370
    15
100
AcDbLine
 10
106.2367754673
 20
491.4171611649
 30
0.0
 11
-36.6122675444
 21
491.4171611649
 31
0.0
  0
LINE
  5
68
330
1F
100
AcDbEntity
  8
0
  6
Continuous
 62
     7
370
    15
100
AcDbLine
 10
222.3877395188
 20
491.4171611649
 30
0.0
 11
112.8877448534
 21
491.4171611649
 31
0.0
  0
LINE
  5
69
330
1F
100
AcDbEntity
  8
0
  6
Continuous
 62
     7
370
    15
100
AcDbLine
 10
-36.6122675444
 20
467.417157231
 30
0.0
 11
222.3877395188
 21
467.417157231
 31
0.0
  0
LINE
  5
6A
330
1F
100
AcDbEntity
  8
0
  6
Continuous
 62
     7
370
    15
100
AcDbLine
 10
380.3877430653
 20
491.4171611649
 30
0.0
 11
272.8877412771
 21
491.4171611649
 31
0.0
  0
LINE
  5
6B
330
1F
100
AcDbEntity
  8
0
  6
Continuous
 62
     7
370
    15
100
AcDbLine
 10
272.8877412771
 20
467.417157231
 30
0.0
 11
380.3877430653
 21
467.417157231
 31
0.0
  0
LINE
  5
6C
330
1F
100
AcDbEntity
  8
0
  6
Continuous
 62
     7
370
    15
100
AcDbLine
 10
223.9954369759
 20
500.2017682177
 30
0.0
 11
222.3877395188
 21
497.4171584231
 31
0.0
  0
LINE
  5
6D
330
1F
100
AcDbEntity
  8
0
  6
Continuous
 62
     7
370
    15
100
AcDbLine
 10
222.3877395188
 20
461.4171599728
 30
0.0
 11
223.9954369759
 21
458.6325501782
 31
0.0
  0
LINE
  5
6E
330
1F
100
AcDbEntity
  8
0
  6
Continuous
 62
     7
370
    15
100
AcDbLine
 10
-36.6122675444
 20
497.4171584231
 30
0.0
 11
-36.7015254999
 21
497.5717728716
 31
0.0
  0
LINE
  5
6F
330
1F
100
AcDbEntity
  8
0
  6
Continuous
 62
     7
370
    15
100
AcDbLine
 10
-62.1122670675
 20
413.9761691672
 30
0.0
 11
72.8877382969
 21
413.9761691672
 31
0.0
  0
ARC
  5
70
330
1F
100
AcDbEntity
  8
0
  6
Continuous
 62
     7
370
    15
100
AcDbCircle
 10
109.6367347992
 20
376.9761640412
 30
0.0
 40
3.000000000000002
100
AcDbArc
 50
185.0
 51
270.0
  0
LINE
  5
71
330
1F
100
AcDbEntity
  8
0
  6
Continuous
 62
     7
370
    15
100
AcDbLine
 10
109.6367287134
 20
373.9761626106
 30
0.0
 11
112.8877448534
 21
373.9761626106
 31
0.0
  0
LINE
  5
72
330
1F
100
AcDbEntity
  8
0
  6
Continuous
 62
     7
370
    15
100
AcDbLine
 10
222.3877395188
 20
790.9761583191
 30
0.0
 11
112.8877448534
 21
790.9761583191
 31
0.0
  0
LINE
  5
73
330
1F
100
AcDbEntity
  8
0
  6
Continuous
 62
     7
370
    15
100
AcDbLine
 10
112.8877448534
 20
428.9761697632
 30
0.0
 11
247.8877409046
 21
428.9761697632
 31
0.0
  0
LINE
  5
74
330
1F
100
AcDbEntity
  8
0
  6
Continuous
 62
     7
370
    15
100
AcDbLine
 10
112.8877448534
 20
754.9538677317
 30
0.0
 11
115.3877424692
 21
754.9538677317
 31
0.0
  0
LINE
  5
75
330
1F
100
AcDbEntity
  8
0
  6
Continuous
 62
     7
370
    15
100
AcDbLine
 10
115.3877424692
 20
778.9538716656
 30
0.0
 11
112.8877448534
 21
778.9538716656
 31
0.0
  0
LINE
  5
76
330
1F
100
AcDbEntity
  8
0
  6
Continuous
 62
     7
370
    15
100
AcDbLine
 10
112.8877448534
 20
440.9984564167
 30
0.0
 11
115.3877424692
 21
440.9984564167
 31
0.0
  0
LINE
  5
77
330
1F
100
AcDbEntity
  8
0
  6
Continuous
 62
     7
370
    15
100
AcDbLine
 10
115.3877424692
 20
464.9984603506
 30
0.0
 11
112.8877448534
 21
464.9984603506
 31
0.0
  0
LINE
  5
78
330
1F
100
AcDbEntity
  8
0
  6
Continuous
 62
     7
370
    15
100
AcDbLine
 10
125.1691179966
 20
757.6323812586
 30
0.0
 11
125.7877397036
 21
758.7038641554
 31
0.0
  0
LINE
  5
79
330
1F
100
AcDbEntity
  8
0
  6
Continuous
 62
     7
370
    15
100
AcDbLine
 10
125.7877397036
 20
775.2038752419
 30
0.0
 11
125.1691179966
 21
776.2753581387
 31
0.0
  0
LINE
  5
7A
330
1F
100
AcDbEntity
  8
0
  6
Continuous
 62
     7
370
    15
100
AcDbLine
 10
116.0047101473
 20
776.2724822146
 30
0.0
 11
115.3877424692
 21
775.2038752419
 31
0.0
  0
LINE
  5
7B
330
1F
100
AcDbEntity
  8
0
  6
Continuous
 62
     7
370
    15
100
AcDbLine
 10
115.3877424692
 20
758.7038641554
 30
0.0
 11
116.0047101473
 21
757.6352571827
 31
0.0
  0
LINE
  5
7C
330
1F
100
AcDbEntity
  8
0
  6
Continuous
 62
     7
370
    15
100
AcDbLine
 10
125.1707720255
 20
443.6798458677
 30
0.0
 11
125.7877397036
 21
444.7484528404
 31
0.0
  0
LINE
  5
7D
330
1F
100
AcDbEntity
  8
0
  6
Continuous
 62
     7
370
    15
100
AcDbLine
 10
125.7877397036
 20
461.2484639269
 30
0.0
 11
125.1707720255
 21
462.3170708996
 31
0.0
  0
LINE
  5
7E
330
1F
100
AcDbEntity
  8
0
  6
Continuous
 62
     7
370
    15
100
AcDbLine
 10
116.0063641762
 20
462.3199468237
 30
0.0
 11
115.3877424692
 21
461.2484639269
 31
0.0
  0
LINE
  5
7F
330
1F
100
AcDbEntity
  8
0
  6
Continuous
 62
     7
370
    15
100
AcDbLine
 10
115.3877424692
 20
444.7484528404
 30
0.0
 11
116.0063641762
 21
443.6769699436
 31
0.0
  0
LINE
  5
80
330
1F
100
AcDbEntity
  8
0
  6
Continuous
 62
     7
370
    15
100
AcDbLine
 10
165.8877405023
 20
772.9538744074
 30
0.0
 11
125.7877397036
 21
772.9538744074
 31
0.0
  0
LINE
  5
81
330
1F
100
AcDbEntity
  8
0
  6
Continuous
 62
     7
370
    15
100
AcDbLine
 10
125.7877397036
 20
760.9538649899
 30
0.0
 11
165.8877405023
 21
760.9538649899
 31
0.0
  0
LINE
  5
82
330
1F
100
AcDbEntity
  8
0
  6
Continuous
 62
     7
370
    15
100
AcDbLine
 10
106.0364889597
 20
772.9538744074
 30
0.0
 11
-62.1122670675
 21
772.9538744074
 31
0.0
  0
LINE
  5
83
330
1F
100
AcDbEntity
  8
0
  6
Continuous
 62
     7
370
    15
100
AcDbLine
 10
-62.1122670675
 20
760.9538649899
 30
0.0
 11
105.2965419983
 21
760.9538649899
 31
0.0
  0
LINE
  5
84
330
1F
100
AcDbEntity
  8
0
  6
Continuous
 62
     7
370
    15
100
AcDbLine
 10
105.2963035797
 20
458.9984630924
 30
0.0
 11
-58.1122589613
 21
458.9984630924
 31
0.0
  0
LINE
  5
85
330
1F
100
AcDbEntity
  8
0
  6
Continuous
 62
     7
370
    15
100
AcDbLine
 10
-62.1122670675
 20
446.9984536749
 30
0.0
 11
106.0374128317
 21
446.9984536749
 31
0.0
  0
LINE
  5
86
330
1F
100
AcDbEntity
  8
0
  6
Continuous
 62
     7
370
    15
100
AcDbLine
 10
165.8877405023
 20
458.9984630924
 30
0.0
 11
125.7877397036
 21
458.9984630924
 31
0.0
  0
LINE
  5
87
330
1F
100
AcDbEntity
  8
0
  6
Continuous
 62
     7
370
    15
100
AcDbLine
 10
125.7877397036
 20
446.9984536749
 30
0.0
 11
165.8877405023
 21
446.9984536749
 31
0.0
  0
LINE
  5
88
330
1F
100
AcDbEntity
  8
0
  6
Continuous
 62
     7
370
    15
100
AcDbLine
 10
-62.1122670675
 20
783.3715295178
 30
0.0
 11
-58.1122589613
 21
783.3715295178
 31
0.0
  0
LINE
  5
89
330
1F
100
AcDbEntity
  8
0
  6
Continuous
 62
     7
370
    15
100
AcDbLine
 10
-58.1122589613
 20
827.3715292793
 30
0.0
 11
-62.1122670675
 21
827.3715292793
 31
0.0
  0
LINE
  5
8A
330
1F
100
AcDbEntity
  8
0
  6
Continuous
 62
     7
370
    15
100
AcDbLine
 10
243.8877421116
 20
783.3715295178
 30
0.0
 11
247.8877409046
 21
783.3715295178
 31
0.0
  0
LINE
  5
8B
330
1F
100
AcDbEntity
  8
0
  6
Continuous
 62
     7
370
    15
100
AcDbLine
 10
247.8877409046
 20
827.3715292793
 30
0.0
 11
243.8877421116
 21
827.3715292793
 31
0.0
  0
LINE
  5
8C
330
1F
100
AcDbEntity
  8
0
  6
Continuous
 62
     7
370
    15
100
AcDbLine
 10
-57.3122454191
 20
823.3715211731
 30
0.0
 11
-58.1122589613
 21
823.3715211731
 31
0.0
  0
LINE
  5
8D
330
1F
100
AcDbEntity
  8
0
  6
Continuous
 62
     7
370
    15
100
AcDbLine
 10
-58.1122589613
 20
787.3715227228
 30
0.0
 11
-57.3122454191
 21
787.3715227228
 31
0.0
  0
LINE
  5
8E
330
1F
100
AcDbEntity
  8
0
  6
Continuous
 62
     7
370
    15
100
AcDbLine
 10
243.0877416079
 20
787.3715227228
 30
0.0
 11
243.8877421116
 21
787.3715227228
 31
0.0
  0
LINE
  5
8F
330
1F
100
AcDbEntity
  8
0
  6
Continuous
 62
     7
370
    15
100
AcDbLine
 10
243.8877421116
 20
823.3715211731
 30
0.0
 11
243.0877416079
 21
823.3715211731
 31
0.0
  0
LINE
  5
90
330
1F
100
AcDbEntity
  8
0
  6
Continuous
 62
     7
370
    15
100
AcDbLine
 10
380.3877430653
 20
817.3715239149
 30
0.0
 11
272.8877412771
 21
817.3715239149
 31
0.0
  0
LINE
  5
91
330
1F
100
AcDbEntity
  8
0
  6
Continuous
 62
     7
370
    15
100
AcDbLine
 10
272.8877412771
 20
793.371519981
 30
0.0
 11
380.3877430653
 21
793.371519981
 31
0.0
  0
LINE
  5
92
330
1F
100
AcDbEntity
  8
0
  6
Continuous
 62
     7
370
    15
100
AcDbLine
 10
-87.112273028
 20
817.3715239149
 30
0.0
 11
-194.612259915
 21
817.3715239149
 31
0.0
  0
LINE
  5
93
330
1F
100
AcDbEntity
  8
0
  6
Continuous
 62
     7
370
    15
100
AcDbLine
 10
-194.612259915
 20
793.371519981
 30
0.0
 11
-87.112273028
 21
793.371519981
 31
0.0
  0
LINE
  5
94
330
1F
100
AcDbEntity
  8
0
  6
Continuous
 62
     7
370
    15
100
AcDbLine
 10
222.3877395188
 20
817.3715239149
 30
0.0
 11
-36.6122675444
 21
817.3715239149
 31
0.0
  0
LINE
  5
95
330
1F
100
AcDbEntity
  8
0
  6
Continuous
 62
     7
370
    15
100
AcDbLine
 10
112.8877448534
 20
793.371519981
 30
0.0
 11
222.3877395188
 21
793.371519981
 31
0.0
  0
LINE
  5
96
330
1F
100
AcDbEntity
  8
0
  6
Continuous
 62
     7
370
    15
100
AcDbLine
 10
-36.6122675444
 20
793.371519981
 30
0.0
 11
105.9371876215
 21
793.371519981
 31
0.0
  0
LINE
  5
97
330
1F
100
AcDbEntity
  8
0
  6
Continuous
 62
     7
370
    15
100
AcDbLine
 10
-36.6122675444
 20
823.3715211731
 30
0.0
 11
-37.471945336
 21
824.8605346066
 31
0.0
  0
LINE
  5
98
330
1F
100
AcDbEntity
  8
0
  6
Continuous
 62
     7
370
    15
100
AcDbLine
 10
-37.4731076265
 20
785.8804678303
 30
0.0
 11
-36.6122675444
 21
787.3715227228
 31
0.0
  0
ARC
  5
99
330
1F
100
AcDbEntity
  8
0
  6
Continuous
 62
     7
370
    15
100
AcDbCircle
 10
109.6367347992
 20
842.9761640412
 30
0.0
 40
3.000000000000002
100
AcDbArc
 50
90.0
 51
175.0
  0
LINE
  5
9A
330
1F
100
AcDbEntity
  8
0
  6
Continuous
 62
     7
370
    15
100
AcDbLine
 10
112.8877448534
 20
845.9761654717
 30
0.0
 11
109.6367287134
 21
845.9761654717
 31
0.0
  0
LINE
  5
9B
330
1F
100
AcDbEntity
  8
0
  6
Continuous
 62
     7
370
    15
100
AcDbLine
 10
112.8877448534
 20
819.9761574846
 30
0.0
 11
115.3877424692
 21
819.9761574846
 31
0.0
  0
LINE
  5
9C
330
1F
100
AcDbEntity
  8
0
  6
Continuous
 62
     7
370
    15
100
AcDbLine
 10
115.3877424692
 20
843.9761614185
 30
0.0
 11
112.8877448534
 21
843.9761614185
 31
0.0
  0
LINE
  5
9D
330
1F
100
AcDbEntity
  8
0
  6
Continuous
 62
     7
370
    15
100
AcDbLine
 10
112.8877448534
 20
375.9761666638
 30
0.0
 11
115.3877424692
 21
375.9761666638
 31
0.0
  0
LINE
  5
9E
330
1F
100
AcDbEntity
  8
0
  6
Continuous
 62
     7
370
    15
100
AcDbLine
 10
115.3877424692
 20
399.9761705977
 30
0.0
 11
112.8877448534
 21
399.9761705977
 31
0.0
  0
LINE
  5
9F
330
1F
100
AcDbEntity
  8
0
  6
Continuous
 62
     7
370
    15
100
AcDbLine
 10
115.8207553124
 20
840.97617024
 30
0.0
 11
115.3877424692
 21
840.2261649948
 31
0.0
  0
LINE
  5
A0
330
1F
100
AcDbEntity
  8
0
  6
Continuous
 62
     7
370
    15
100
AcDbLine
 10
115.3877424692
 20
823.7261688095
 30
0.0
 11
115.8207553124
 21
822.9761635643
 31
0.0
  0
LINE
  5
A1
330
1F
100
AcDbEntity
  8
0
  6
Continuous
 62
     7
370
    15
100
AcDbLine
 10
125.3547268604
 20
822.9761635643
 30
0.0
 11
125.7877397036
 21
823.7261688095
 31
0.0
  0
LINE
  5
A2
330
1F
100
AcDbEntity
  8
0
  6
Continuous
 62
     7
370
    15
100
AcDbLine
 10
125.7877397036
 20
840.2261649948
 30
0.0
 11
125.3547268604
 21
840.97617024
 31
0.0
  0
LINE
  5
A3
330
1F
100
AcDbEntity
  8
0
  6
Continuous
 62
     7
370
    15
100
AcDbLine
 10
115.8207553124
 20
396.976164518
 30
0.0
 11
115.3877424692
 21
396.2261592728
 31
0.0
  0
LINE
  5
A4
330
1F
100
AcDbEntity
  8
0
  6
Continuous
 62
     7
370
    15
100
AcDbLine
 10
115.3877424692
 20
379.7261630875
 30
0.0
 11
115.8207553124
 21
378.9761578423
 31
0.0
  0
LINE
  5
A5
330
1F
100
AcDbEntity
  8
0
  6
Continuous
 62
     7
370
    15
100
AcDbLine
 10
125.3547268604
 20
378.9761578423
 30
0.0
 11
125.7877397036
 21
379.7261630875
 31
0.0
  0
LINE
  5
A6
330
1F
100
AcDbEntity
  8
0
  6
Continuous
 62
     7
370
    15
100
AcDbLine
 10
125.7877397036
 20
396.2261592728
 30
0.0
 11
125.3547268604
 21
396.976164518
 31
0.0
  0
LINE
  5
A7
330
1F
100
AcDbEntity
  8
0
  6
Continuous
 62
     7
370
    15
100
AcDbLine
 10
165.8877405023
 20
837.9761641604
 30
0.0
 11
125.7877397036
 21
837.9761641604
 31
0.0
  0
LINE
  5
A8
330
1F
100
AcDbEntity
  8
0
  6
Continuous
 62
     7
370
    15
100
AcDbLine
 10
125.7877397036
 20
825.976169644
 30
0.0
 11
165.8877405023
 21
825.976169644
 31
0.0
  0
LINE
  5
A9
330
1F
100
AcDbEntity
  8
0
  6
Continuous
 62
     7
370
    15
100
AcDbLine
 10
106.1878251528
 20
837.9761641604
 30
0.0
 11
-62.1122670675
 21
837.9761641604
 31
0.0
  0
LINE
  5
AA
330
1F
100
AcDbEntity
  8
0
  6
Continuous
 62
     7
370
    15
100
AcDbLine
 10
-58.1122589613
 20
825.976169644
 30
0.0
 11
-57.3122454191
 21
825.976169644
 31
0.0
  0
LINE
  5
AB
330
1F
100
AcDbEntity
  8
0
  6
Continuous
 62
     7
370
    15
100
AcDbLine
 10
-38.217778256
 20
825.976169644
 30
0.0
 11
105.0328808521
 21
825.976169644
 31
0.0
  0
LINE
  5
AC
330
1F
100
AcDbEntity
  8
0
  6
Continuous
 62
     7
370
    15
100
AcDbLine
 10
105.0328808521
 20
393.9761584383
 30
0.0
 11
-62.1122670675
 21
393.9761584383
 31
0.0
  0
LINE
  5
AD
330
1F
100
AcDbEntity
  8
0
  6
Continuous
 62
     7
370
    15
100
AcDbLine
 10
-62.1122670675
 20
381.9761639219
 30
0.0
 11
106.1878251528
 21
381.9761639219
 31
0.0
  0
LINE
  5
AE
330
1F
100
AcDbEntity
  8
0
  6
Continuous
 62
     7
370
    15
100
AcDbLine
 10
165.8877405023
 20
393.9761584383
 30
0.0
 11
125.7877397036
 21
393.9761584383
 31
0.0
  0
LINE
  5
AF
330
1F
100
AcDbEntity
  8
0
  6
Continuous
 62
     7
370
    15
100
AcDbLine
 10
125.7877397036
 20
381.9761639219
 30
0.0
 11
165.8877405023
 21
381.9761639219
 31
0.0
  0
LINE
  5
B0
330
1F
100
AcDbEntity
  8
0
  6
Continuous
 62
     7
370
    15
100
AcDbLine
 10
243.8877421116
 20
392.580798803
 30
0.0
 11
247.8877409046
 21
392.580798803
 31
0.0
  0
LINE
  5
B1
330
1F
100
AcDbEntity
  8
0
  6
Continuous
 62
     7
370
    15
100
AcDbLine
 10
-58.1122589613
 20
396.5808069092
 30
0.0
 11
-57.3122454191
 21
396.5808069092
 31
0.0
  0
LINE
  5
B2
330
1F
100
AcDbEntity
  8
0
  6
Continuous
 62
     7
370
    15
100
AcDbLine
 10
243.0877416079
 20
396.5808069092
 30
0.0
 11
243.8877421116
 21
396.5808069092
 31
0.0
  0
LINE
  5
B3
330
1F
100
AcDbEntity
  8
0
  6
Continuous
 62
     7
370
    15
100
AcDbLine
 10
222.3877395188
 20
426.5808081013
 30
0.0
 11
112.8877448534
 21
426.5808081013
 31
0.0
  0
LINE
  5
B4
330
1F
100
AcDbEntity
  8
0
  6
Continuous
 62
     7
370
    15
100
AcDbLine
 10
-36.6122675444
 20
402.5808041674
 30
0.0
 11
72.8877382969
 21
402.5808041674
 31
0.0
  0
LINE
  5
B5
330
1F
100
AcDbEntity
  8
0
  6
Continuous
 62
     7
370
    15
100
AcDbLine
 10
112.8877448534
 20
402.5808041674
 30
0.0
 11
222.3877395188
 21
402.5808041674
 31
0.0
  0
LINE
  5
B6
330
1F
100
AcDbEntity
  8
0
  6
Continuous
 62
     7
370
    15
100
AcDbLine
 10
-87.112273028
 20
426.5808081013
 30
0.0
 11
-194.612259915
 21
426.5808081013
 31
0.0
  0
LINE
  5
B7
330
1F
100
AcDbEntity
  8
0
  6
Continuous
 62
     7
370
    15
100
AcDbLine
 10
-194.612259915
 20
402.5808041674
 30
0.0
 11
-87.112273028
 21
402.5808041674
 31
0.0
  0
LINE
  5
B8
330
1F
100
AcDbEntity
  8
0
  6
Continuous
 62
     7
370
    15
100
AcDbLine
 10
380.3877430653
 20
426.5808081013
 30
0.0
 11
272.8877412771
 21
426.5808081013
 31
0.0
  0
LINE
  5
B9
330
1F
100
AcDbEntity
  8
0
  6
Continuous
 62
     7
370
    15
100
AcDbLine
 10
272.8877412771
 20
402.5808041674
 30
0.0
 11
380.3877430653
 21
402.5808041674
 31
0.0
  0
LINE
  5
BA
330
1F
100
AcDbEntity
  8
0
  6
Continuous
 62
     7
370
    15
100
AcDbLine
 10
-37.471945336
 20
395.0917934757
 30
0.0
 11
-36.6122675444
 21
396.5808069092
 31
0.0
  0
LINE
  5
BB
330
1F
100
AcDbEntity
  8
0
  6
Continuous
 62
     7
370
    15
100
AcDbLine
 10
-87.112273028
 20
752.5351708513
 30
0.0
 11
-194.612259915
 21
752.5351708513
 31
0.0
  0
LINE
  5
BC
330
1F
100
AcDbEntity
  8
0
  6
Continuous
 62
     7
370
    15
100
AcDbLine
 10
-194.612259915
 20
728.5351669174
 30
0.0
 11
-87.112273028
 21
728.5351669174
 31
0.0
  0
LINE
  5
BD
330
1F
100
AcDbEntity
  8
0
  6
Continuous
 62
     7
370
    15
100
AcDbLine
 10
380.3877430653
 20
752.5351708513
 30
0.0
 11
272.8877412771
 21
752.5351708513
 31
0.0
  0
LINE
  5
BE
330
1F
100
AcDbEntity
  8
0
  6
Continuous
 62
     7
370
    15
100
AcDbLine
 10
272.8877412771
 20
728.5351669174
 30
0.0
 11
380.3877430653
 21
728.5351669174
 31
0.0
  0
LINE
  5
BF
330
1F
100
AcDbEntity
  8
0
  6
Continuous
 62
     7
370
    15
100
AcDbLine
 10
-62.1122670675
 20
510.4784732443
 30
0.0
 11
-62.1122670675
 21
869.9761545044
 31
0.0
  0
LINE
  5
C0
330
1F
100
AcDbEntity
  8
0
  6
Continuous
 62
     7
370
    15
100
AcDbLine
 10
-62.1122670675
 20
349.9761735779
 30
0.0
 11
-62.1122670675
 21
510.4784732443
 31
0.0
  0
LINE
  5
C1
330
1F
100
AcDbEntity
  8
0
  6
Continuous
 62
     7
370
    15
100
AcDbLine
 10
-87.112273028
 20
510.4784732443
 30
0.0
 11
-87.112273028
 21
869.9761545044
 31
0.0
  0
LINE
  5
C2
330
1F
100
AcDbEntity
  8
0
  6
Continuous
 62
     7
370
    15
100
AcDbLine
 10
-87.112273028
 20
349.9761735779
 30
0.0
 11
-87.112273028
 21
510.4784732443
 31
0.0
  0
LINE
  5
C3
330
1F
100
AcDbEntity
  8
0
  6
Continuous
 62
     7
370
    15
100
AcDbLine
 10
247.8877409046
 20
609.9761640412
 30
0.0
 11
247.8877409046
 21
869.9761545044
 31
0.0
  0
LINE
  5
C4
330
1F
100
AcDbEntity
  8
0
  6
Continuous
 62
     7
370
    15
100
AcDbLine
 10
247.8877409046
 20
349.9761735779
 30
0.0
 11
247.8877409046
 21
609.9761640412
 31
0.0
  0
LINE
  5
C5
330
1F
100
AcDbEntity
  8
0
  6
Continuous
 62
     7
370
    15
100
AcDbLine
 10
272.8877412771
 20
609.9761640412
 30
0.0
 11
272.8877412771
 21
869.9761545044
 31
0.0
  0
LINE
  5
C6
330
1F
100
AcDbEntity
  8
0
  6
Continuous
 62
     7
370
    15
100
AcDbLine
 10
272.8877412771
 20
349.9761735779
 30
0.0
 11
272.8877412771
 21
609.9761640412
 31
0.0
  0
LINE
  5
C7
330
1F
100
AcDbEntity
  8
0
  6
Continuous
 62
     7
370
    15
100
AcDbLine
 10
109.6367287134
 20
799.2943888289
 30
0.0
 11
112.8877448534
 21
799.2943888289
 31
0.0
  0
LINE
  5
C8
330
1F
100
AcDbEntity
  8
0
  6
Continuous
 62
     7
370
    15
100
AcDbLine
 10
112.8877448534
 20
799.2943888289
 30
0.0
 11
112.8877448534
 21
488.9914756399
 31
0.0
  0
LINE
  5
C9
330
1F
100
AcDbEntity
  8
0
  6
Continuous
 62
     7
370
    15
100
AcDbLine
 10
112.8877448534
 20
488.9914756399
 30
0.0
 11
109.6367287134
 21
488.9914756399
 31
0.0
  0
SPLINE
  5
CA
330
1F
100
AcDbEntity
  8
0
  6
Continuous
 62
     7
370
    15
100
AcDbSpline
210
0.0
220
0.0
230
1.0
 70
     8
 71
     3
 72
    20
 73
    16
 74
     0
 42
0.00000001
 43
0.00000001
 12
1.0
 22
0.0
 32
0.0
 13
1.0
 23
0.0
 33
0.0
 40
0.0
 40
0.0
 40
0.0
 40
0.0
 40
0.1250000000000026
 40
0.1250000000000026
 40
0.2500000000000053
 40
0.2500000000000053
 40
0.3750000000000079
 40
0.3750000000000079
 40
0.5000000000000105
 40
0.5000000000000105
 40
0.6250000000000132
 40
0.6250000000000132
 40
0.7500000000000158
 40
0.7500000000000158
 40
1.0
 40
1.0
 40
1.0
 40
1.0
 10
106.6481507049077
 20
797.1066388744396
 30
0.0
 10
106.6643530060933
 20
797.2418776862557
 30
0.0
 10
106.6974105440119
 20
797.3768572896827
 30
0.0
 10
106.7962877949484
 20
797.6456993017389
 30
0.0
 10
106.8629540435431
 20
797.7808381490158
 30
0.0
 10
107.0272444699799
 20
798.0424184853356
 30
0.0
 10
107.1238513296101
 20
798.1678679547219
 30
0.0
 10
107.3455094847879
 20
798.4069951039338
 30
0.0
 10
107.4720074729287
 20
798.5215668190671
 30
0.0
 10
107.7449449219967
 20
798.7288738452181
 30
0.0
 10
107.8918338319515
 20
798.8225001617287
 30
0.0
 10
108.2066033354893
 20
798.9882851494083
 30
0.0
 10
108.3748491654427
 20
799.0601674907936
 30
0.0
 10
108.8910106056873
 20
799.2326598892371
 30
0.0
 10
109.262263737956
 20
799.2943855326832
 30
0.0
 10
109.6367347991829
 20
799.2943855326832
 30
0.0
  0
SPLINE
  5
CB
330
1F
100
AcDbEntity
  8
0
  6
Continuous
 62
     7
370
    15
100
AcDbSpline
210
0.0
220
0.0
230
1.0
 70
     8
 71
     3
 72
    22
 73
    18
 74
     0
 42
0.00000001
 43
0.00000001
 12
1.0
 22
0.0
 32
0.0
 13
1.0
 23
0.0
 33
0.0
 40
0.0
 40
0.0
 40
0.0
 40
0.0
 40
0.125
 40
0.125
 40
0.25
 40
0.25
 40
0.375
 40
0.375
 40
0.5
 40
0.5
 40
0.625
 40
0.625
 40
0.75
 40
0.75
 40
0.875
 40
0.875
 40
1.0
 40
1.0
 40
1.0
 40
1.0
 10
109.6367347991829
 20
488.9914754056064
 30
0.0
 10
109.4494556238546
 20
488.9914754056064
 30
0.0
 10
109.2651619286295
 20
489.0020473329946
 30
0.0
 10
108.9022855674815
 20
489.0430649970245
 30
0.0
 10
108.7222245863989
 20
489.0738757430796
 30
0.0
 10
108.3752080121393
 20
489.1537696563645
 30
0.0
 10
108.2101108511629
 20
489.2022135486191
 30
0.0
 10
107.8962904383192
 20
489.3141024272678
 30
0.0
 10
107.7461951445295
 20
489.3783390813777
 30
0.0
 10
107.4728088972
 20
489.5160508172958
 30
0.0
 10
107.3488735129472
 20
489.5895107965056
 30
0.0
 10
107.1264159976741
 20
489.7436159146865
 30
0.0
 10
107.02763249166
 20
489.8248305587641
 30
0.0
 10
106.8641272714191
 20
489.9860755525343
 30
0.0
 10
106.7981383972239
 20
490.0668405651985
 30
0.0
 10
106.6980112375298
 20
490.2272172052442
 30
0.0
 10
106.6643589720657
 20
490.3064920217765
 30
0.0
 10
106.6481507049077
 20
490.3822995644168
 30
0.0
  0
LINE
  5
CC
330
1F
100
AcDbEntity
  8
0
  6
Continuous
 62
     7
370
    15
100
AcDbLine
 10
115.3877424692
 20
597.9761639368
 30
0.0
 11
115.3877424692
 21
621.9761641455
 31
0.0
  0
SPLINE
  5
CD
330
1F
100
AcDbEntity
  8
0
  6
Continuous
 62
     7
370
    15
100
AcDbSpline
210
0.0
220
0.0
230
1.0
 70
     8
 71
     3
 72
    15
 73
    11
 74
     0
 42
0.00000001
 43
0.00000001
 12
1.0
 22
0.0
 32
0.0
 13
1.0
 23
0.0
 33
0.0
 40
0.0
 40
0.0
 40
0.0
 40
0.0
 40
0.0426191823553395
 40
0.1805083530608748
 40
0.3188374899399685
 40
0.4567301888984664
 40
0.5951560991387992
 40
0.7340218567911494
 40
0.8724502429995072
 40
1.0
 40
1.0
 40
1.0
 40
1.0
 10
105.9371876215062
 20
793.3878367525231
 30
0.0
 10
105.9438626088965
 20
793.3831633887551
 30
0.0
 10
105.9721337045378
 20
793.3633699260367
 30
0.0
 10
106.0334709853964
 20
793.4836840003535
 30
0.0
 10
106.1196999991112
 20
793.7459952850663
 30
0.0
 10
106.2153795319253
 20
794.1639166338744
 30
0.0
 10
106.3183856059409
 20
794.7230121937766
 30
0.0
 10
106.4274016288941
 20
795.4178014814125
 30
0.0
 10
106.5377813076212
 20
796.2082541608628
 30
0.0
 10
106.6123786744122
 20
796.8154597474088
 30
0.0
 10
106.6481518243871
 20
797.1066450458657
 30
0.0
  0
SPLINE
  5
CE
330
1F
100
AcDbEntity
  8
0
  6
Continuous
 62
     7
370
    15
100
AcDbSpline
210
0.0
220
0.0
230
1.0
 70
     8
 71
     3
 72
    11
 73
     7
 74
     0
 42
0.00000001
 43
0.00000001
 12
1.0
 22
0.0
 32
0.0
 13
1.0
 23
0.0
 33
0.0
 40
0.0
 40
0.0
 40
0.0
 40
0.0
 40
0.269026995416851
 40
0.5389093259109415
 40
0.8079342949016844
 40
0.9999999999999999
 40
0.9999999999999999
 40
0.9999999999999999
 40
0.9999999999999999
 10
106.6481518243871
 20
490.3822978716981
 30
0.0
 10
106.6092118182987
 20
490.5516891134545
 30
0.0
 10
106.5312080016202
 20
490.891010153593
 30
0.0
 10
106.4179989168934
 20
491.2128173492075
 30
0.0
 10
106.3187460214242
 20
491.39798205933
 30
0.0
 10
106.2608795452525
 20
491.4000447792496
 30
0.0
 10
106.2367754673085
 20
491.4009039980065
 30
0.0
  0
SPLINE
  5
CF
330
1F
100
AcDbEntity
  8
0
  6
Continuous
 62
     7
370
    15
100
AcDbSpline
210
0.0
220
0.0
230
1.0
 70
     8
 71
     3
 72
    27
 73
    23
 74
     0
 42
0.00000001
 43
0.00000001
 12
1.0
 22
0.0
 32
0.0
 13
1.0
 23
0.0
 33
0.0
 40
0.0
 40
0.0
 40
0.0
 40
0.0
 40
0.0647797194440892
 40
0.1314355688302903
 40
0.1963399037053702
 40
0.2631177600265988
 40
0.3281948363651387
 40
0.3951517629445219
 40
0.4603649985928763
 40
0.4939490994136546
 40
0.5275326722320077
 40
0.592725563634946
 40
0.6263024112864659
 40
0.6598799841124363
 40
0.7249092421417576
 40
0.758404140560797
 40
0.7918986565318442
 40
0.8566960258959435
 40
0.89007084485045
 40
0.9234455160035482
 40
0.9880424642775858
 40
0.9999999999999999
 40
0.9999999999999999
 40
0.9999999999999999
 40
0.9999999999999999
 10
105.2258806919179
 20
826.9560849052559
 30
0.0
 10
105.2433580415907
 20
827.1514720633746
 30
0.0
 10
105.2788189144626
 20
827.5479051212797
 30
0.0
 10
105.3460258426513
 20
828.3022381373147
 30
0.0
 10
105.4219645305552
 20
829.1577639439748
 30
0.0
 10
105.5042802408068
 20
830.0887043287477
 30
0.0
 10
105.591674461485
 20
831.0817786556651
 30
0.0
 10
105.6802549298017
 20
832.092743710115
 30
0.0
 10
105.7541033871589
 20
832.9395946386165
 30
0.0
 10
105.8114284743234
 20
833.5991642164526
 30
0.0
 10
105.867281046266
 20
834.2430481969108
 30
0.0
 10
105.9204476923205
 20
834.8581078102061
 30
0.0
 10
105.9696749991313
 20
835.4290218125403
 30
0.0
 10
106.015888015885
 20
835.9661487423461
 30
0.0
 10
106.0573254756039
 20
836.4489878738593
 30
0.0
 10
106.093001669904
 20
836.8655285739841
 30
0.0
 10
106.1245685571172
 20
837.2346001200561
 30
0.0
 10
106.1497909864681
 20
837.5298617888483
 30
0.0
 10
106.1682748557242
 20
837.7467573197144
 30
0.0
 10
106.1814522934255
 20
837.9011858251633
 30
0.0
 10
106.1892950408954
 20
837.9935804453116
 30
0.0
 10
106.1870828969644
 20
837.9673688180571
 30
0.0
 10
106.1867373680195
 20
837.9632746559273
 30
0.0
  0
SPLINE
  5
D0
330
1F
100
AcDbEntity
  8
0
  6
Continuous
 62
     7
370
    15
100
AcDbSpline
210
0.0
220
0.0
230
1.0
 70
     8
 71
     3
 72
    26
 73
    22
 74
     0
 42
0.00000001
 43
0.00000001
 12
1.0
 22
0.0
 32
0.0
 13
1.0
 23
0.0
 33
0.0
 40
0.0
 40
0.0
 40
0.0
 40
0.0
 40
0.0545235862977466
 40
0.1190398702372566
 40
0.1854244718958814
 40
0.2500006218125852
 40
0.316440051888773
 40
0.3811994281031405
 40
0.4478235749721874
 40
0.512815397337939
 40
0.5796810259446902
 40
0.6448568112778713
 40
0.6784183420619669
 40
0.711979963646593
 40
0.777209815934642
 40
0.810803979077466
 40
0.8443984312853886
 40
0.9095211125217181
 40
0.9430642690106905
 40
0.9766072112109763
 40
0.9999999999999999
 40
0.9999999999999999
 40
0.9999999999999999
 40
0.9999999999999999
 10
106.1867373680196
 20
381.9890534263741
 30
0.0
 10
106.186209473084
 20
381.9952012857271
 30
0.0
 10
106.1850569343592
 20
382.0086237406555
 30
0.0
 10
106.1659221386949
 20
382.2334704654715
 30
0.0
 10
106.133470104354
 20
382.6134556261352
 30
0.0
 10
106.0873118726146
 20
383.1534870395764
 30
0.0
 10
106.029902036732
 20
383.8230044051068
 30
0.0
 10
105.9616498056123
 20
384.6168462724661
 30
0.0
 10
105.8854808964828
 20
385.4992100050837
 30
0.0
 10
105.8021342310384
 20
386.4607721180946
 30
0.0
 10
105.7153149046008
 20
387.4581415635393
 30
0.0
 10
105.6409306345228
 20
388.3087049181407
 30
0.0
 10
105.5819836555006
 20
388.9803092967366
 30
0.0
 10
105.5237567681433
 20
389.6425263147505
 30
0.0
 10
105.4670578178581
 20
390.2847466580341
 30
0.0
 10
105.4133760995915
 20
390.8910280774485
 30
0.0
 10
105.3621309593137
 20
391.4688456998595
 30
0.0
 10
105.314857611696
 20
392.0000575665912
 30
0.0
 10
105.2728892017824
 20
392.4703349654343
 30
0.0
 10
105.2466046633541
 20
392.7646871295904
 30
0.0
 10
105.2319158023371
 20
392.9288108164606
 30
0.0
 10
105.2258806919179
 20
392.9962431770455
 30
0.0
  0
SPLINE
  5
D1
330
1F
100
AcDbEntity
  8
0
  6
Continuous
 62
     7
370
    15
100
AcDbSpline
210
0.0
220
0.0
230
1.0
 70
     8
 71
     3
 72
    27
 73
    23
 74
     0
 42
0.00000001
 43
0.00000001
 12
1.0
 22
0.0
 32
0.0
 13
1.0
 23
0.0
 33
0.0
 40
0.0
 40
0.0
 40
0.0
 40
0.0
 40
0.0016313861286938
 40
0.0554204987368423
 40
0.1092094887027263
 40
0.1628050093339534
 40
0.2164000531508697
 40
0.2698465568665587
 40
0.3232926734807394
 40
0.3766963543243577
 40
0.4301000531361076
 40
0.483582000252215
 40
0.5370648681881226
 40
0.5907162515238715
 40
0.6443687307474221
 40
0.6982107433776902
 40
0.7520537856202675
 40
0.8060280777492234
 40
0.8600025951951453
 40
0.9139897708426288
 40
0.9679761817373214
 40
1.0
 40
1.0
 40
1.0
 40
1.0
 10
106.037412831696
 20
447.0010017734658
 30
0.0
 10
106.0380847947284
 20
447.0001587949544
 30
0.0
 10
106.0609123312195
 20
446.9715216202787
 30
0.0
 10
106.0962704648242
 20
447.0748348886647
 30
0.0
 10
106.1410523380205
 20
447.3173328007043
 30
0.0
 10
106.1710244089093
 20
447.7448007250011
 30
0.0
 10
106.1874871131227
 20
448.3119911359933
 30
0.0
 10
106.1891109804847
 20
449.0155209225899
 30
0.0
 10
106.1765844853932
 20
449.8278658524692
 30
0.0
 10
106.1496418197194
 20
450.7310983438463
 30
0.0
 10
106.1095832312743
 20
451.6966529969986
 30
0.0
 10
106.05691392903
 20
452.6995667593166
 30
0.0
 10
105.9934483090536
 20
453.7116518823552
 30
0.0
 10
105.9204876390948
 20
454.7036476353319
 30
0.0
 10
105.8401745150758
 20
455.6500262898357
 30
0.0
 10
105.7545678343062
 20
456.5203666710382
 30
0.0
 10
105.6660495580043
 20
457.2941572376081
 30
0.0
 10
105.5771847663743
 20
457.9431625854723
 30
0.0
 10
105.4903308112772
 20
458.4561279642557
 30
0.0
 10
105.4087107710827
 20
458.8036115014085
 30
0.0
 10
105.3429842790546
 20
458.983990440374
 30
0.0
 10
105.3089685205954
 20
458.98278780724
 30
0.0
 10
105.29630357972
 20
458.9823400360238
 30
0.0
  0
SPLINE
  5
D2
330
1F
100
AcDbEntity
  8
0
  6
Continuous
 62
     7
370
    15
100
AcDbSpline
210
0.0
220
0.0
230
1.0
 70
     8
 71
     3
 72
    27
 73
    23
 74
     0
 42
0.00000001
 43
0.00000001
 12
1.0
 22
0.0
 32
0.0
 13
1.0
 23
0.0
 33
0.0
 40
0.0
 40
0.0
 40
0.0
 40
0.0
 40
0.0066324991222831
 40
0.0606224932864637
 40
0.1146120132690165
 40
0.1685879674936972
 40
0.2225637632188951
 40
0.2764058173759529
 40
0.3302472031159843
 40
0.3838968953822399
 40
0.4375459524895571
 40
0.4910268636302072
 40
0.5445077803211423
 40
0.5979129632745023
 40
0.651318808653348
 40
0.7047705779434392
 40
0.7582234867386142
 40
0.8118256270048343
 40
0.8654284576645269
 40
0.9192246325508642
 40
0.973020131598076
 40
1.0
 40
1.0
 40
1.0
 40
1.0
 10
105.6700247024617
 20
603.9854627792429
 30
0.0
 10
105.673655971208
 20
603.9824485261933
 30
0.0
 10
105.7068465621351
 20
603.9548975937466
 30
0.0
 10
105.7694292022224
 20
604.0679418512683
 30
0.0
 10
105.8546501968115
 20
604.3292569921025
 30
0.0
 10
105.9341892778298
 20
604.77272252141
 30
0.0
 10
106.0060814190777
 20
605.3572696657699
 30
0.0
 10
106.0679850856376
 20
606.0777428473291
 30
0.0
 10
106.1186294359895
 20
606.9058207989427
 30
0.0
 10
106.1562681070802
 20
607.8227032954393
 30
0.0
 10
106.1804031818323
 20
608.7977744077369
 30
0.0
 10
106.1899381438755
 20
609.8061174227352
 30
0.0
 10
106.1852674649761
 20
610.8176681329824
 30
0.0
 10
106.1659417774779
 20
611.8043153332476
 30
0.0
 10
106.1330760131078
 20
612.739993757585
 30
0.0
 10
106.0870014458482
 20
613.5959882301884
 30
0.0
 10
106.0293386916193
 20
614.3527568793779
 30
0.0
 10
105.9612389000957
 20
614.9831413818879
 30
0.0
 10
105.8847515598161
 20
615.4781957146348
 30
0.0
 10
105.801686456736
 20
615.8056235063984
 30
0.0
 10
105.72908650157
 20
615.9714953797677
 30
0.0
 10
105.6847456361999
 20
615.9586915412572
 30
0.0
 10
105.6699352954945
 20
615.9544149172198
 30
0.0
  0
SPLINE
  5
D3
330
1F
100
AcDbEntity
  8
0
  6
Continuous
 62
     7
370
    15
100
AcDbSpline
210
0.0
220
0.0
230
1.0
 70
     8
 71
     3
 72
    27
 73
    23
 74
     0
 42
0.00000001
 43
0.00000001
 12
1.0
 22
0.0
 32
0.0
 13
1.0
 23
0.0
 33
0.0
 40
0.0
 40
0.0
 40
0.0
 40
0.0
 40
0.0175287641215704
 40
0.0710576526287288
 40
0.1247883596419781
 40
0.1785203594134574
 40
0.2324360310957839
 40
0.2863507886721327
 40
0.3403504877920357
 40
0.3943491612493281
 40
0.4482976350251073
 40
0.5022462527461743
 40
0.5560370955583762
 40
0.6098278157243685
 40
0.663425060332485
 40
0.7170218281109532
 40
0.7704700510101885
 40
0.8239178867954637
 40
0.8773232854451691
 40
0.930728702063584
 40
0.9842123695033257
 40
1.0
 40
1.0
 40
1.0
 40
1.0
 10
105.2965419982991
 20
760.972938476194
 30
0.0
 10
105.3031631219196
 20
760.9678353898574
 30
0.0
 10
105.330003662358
 20
760.9471486298713
 30
0.0
 10
105.3874571108097
 20
761.0821392533746
 30
0.0
 10
105.4666997772618
 20
761.381234614309
 30
0.0
 10
105.5521253820169
 20
761.8477071625134
 30
0.0
 10
105.640486213831
 20
762.4595804678157
 30
0.0
 10
105.7294640500741
 20
763.1988556671051
 30
0.0
 10
105.8163581623835
 20
764.047899847746
 30
0.0
 10
105.8988632469586
 20
764.9789434585432
 30
0.0
 10
105.9743929953677
 20
765.9678511321905
 30
0.0
 10
106.0411790753423
 20
766.9837274026703
 30
0.0
 10
106.097018685115
 20
767.9983682863478
 30
0.0
 10
106.1408524926605
 20
768.9822560742537
 30
0.0
 10
106.1710784811828
 20
769.9065129635762
 30
0.0
 10
106.187470427756
 20
770.7470529696081
 30
0.0
 10
106.1891237831015
 20
771.4775633675368
 30
0.0
 10
106.1765499456841
 20
772.0812125206627
 30
0.0
 10
106.1497670718066
 20
772.5403189760046
 30
0.0
 10
106.1091164311294
 20
772.8327239310144
 30
0.0
 10
106.0705191086675
 20
772.9627775411127
 30
0.0
 10
106.0428052327554
 20
772.9408430867041
 30
0.0
 10
106.036488959702
 20
772.9358440023552
 30
0.0
  0
SPLINE
  5
D4
330
1F
100
AcDbEntity
  8
0
  6
Continuous
 62
     7
370
    15
100
AcDbSpline
210
0.0
220
0.0
230
1.0
 70
     8
 71
     3
 72
    16
 73
    12
 74
     0
 42
0.00000001
 43
0.00000001
 12
1.0
 22
0.0
 32
0.0
 13
1.0
 23
0.0
 33
0.0
 40
0.0
 40
0.0
 40
0.0
 40
0.0
 40
0.25
 40
0.25
 40
0.5
 40
0.5
 40
0.625
 40
0.625
 40
0.75
 40
0.75
 40
1.0
 40
1.0
 40
1.0
 40
1.0
 10
116.6246015563161
 20
604.7800116184441
 30
0.0
 10
116.3806262597857
 20
605.6251668372089
 30
0.0
 10
116.1759323042947
 20
606.4909947340191
 30
0.0
 10
115.8960785319692
 20
608.2268800751991
 30
0.0
 10
115.8206699576781
 20
609.0995202109688
 30
0.0
 10
115.8207960969108
 20
610.4167251477419
 30
0.0
 10
115.8394875631044
 20
610.8571512915596
 30
0.0
 10
115.9136624201615
 20
611.7406823347297
 30
0.0
 10
115.9688386684822
 20
612.1797893132269
 30
0.0
 10
116.1801757085577
 20
613.481392437342
 30
0.0
 10
116.3821387729272
 20
614.332400744309
 30
0.0
 10
116.6246015563162
 20
615.1723164638574
 30
0.0
  0
SPLINE
  5
D5
330
1F
100
AcDbEntity
  8
0
  6
Continuous
 62
     7
370
    15
100
AcDbSpline
210
0.0
220
0.0
230
1.0
 70
     8
 71
     3
 72
    16
 73
    12
 74
     0
 42
0.00000001
 43
0.00000001
 12
1.0
 22
0.0
 32
0.0
 13
1.0
 23
0.0
 33
0.0
 40
0.0
 40
0.0
 40
0.0
 40
0.0
 40
0.2500000000000017
 40
0.2500000000000017
 40
0.5000000000000034
 40
0.5000000000000034
 40
0.6250000000000043
 40
0.6250000000000043
 40
0.7500000000000051
 40
0.7500000000000051
 40
1.0
 40
1.0
 40
1.0
 40
1.0
 10
116.6246015563158
 20
599.5838591957374
 30
0.0
 10
116.3796800417334
 20
600.0080757028609
 30
0.0
 10
116.1778203216969
 20
600.4353851086715
 30
0.0
 10
115.8981790500999
 20
601.2989157923699
 30
0.0
 10
115.8213199153715
 20
601.7352033225314
 30
0.0
 10
115.8204757542023
 20
602.397854557842
 30
0.0
 10
115.8392648408724
 20
602.6197776156229
 30
0.0
 10
115.9125323329532
 20
603.0587648346179
 30
0.0
 10
115.9669363846166
 20
603.276786683066
 30
0.0
 10
116.1770154429687
 20
603.9269706472859
 30
0.0
 10
116.379374736136
 20
604.3552663065138
 30
0.0
 10
116.624601556316
 20
604.7800116184441
 30
0.0
  0
SPLINE
  5
D6
330
1F
100
AcDbEntity
  8
0
  6
Continuous
 62
     7
370
    15
100
AcDbSpline
210
0.0
220
0.0
230
1.0
 70
     8
 71
     3
 72
    16
 73
    12
 74
     0
 42
0.00000001
 43
0.00000001
 12
1.0
 22
0.0
 32
0.0
 13
1.0
 23
0.0
 33
0.0
 40
0.0
 40
0.0
 40
0.0
 40
0.0
 40
0.2500000000000017
 40
0.2500000000000017
 40
0.5000000000000034
 40
0.5000000000000034
 40
0.6250000000000043
 40
0.6250000000000043
 40
0.7500000000000051
 40
0.7500000000000051
 40
1.0
 40
1.0
 40
1.0
 40
1.0
 10
116.6246015563158
 20
615.1723164638574
 30
0.0
 10
116.3796800417334
 20
615.5965329709808
 30
0.0
 10
116.1778203216969
 20
616.0238423767915
 30
0.0
 10
115.8981790500998
 20
616.88737306049
 30
0.0
 10
115.8213199153715
 20
617.3236605906515
 30
0.0
 10
115.8204757542023
 20
617.9863118259619
 30
0.0
 10
115.8392648408724
 20
618.2082348837429
 30
0.0
 10
115.9125323329532
 20
618.6472221027379
 30
0.0
 10
115.9669363846166
 20
618.865243951186
 30
0.0
 10
116.1770154429687
 20
619.5154279154058
 30
0.0
 10
116.379374736136
 20
619.9437235746336
 30
0.0
 10
116.624601556316
 20
620.3684688865641
 30
0.0
  0
SPLINE
  5
D7
330
1F
100
AcDbEntity
  8
0
  6
Continuous
 62
     7
370
    15
100
AcDbSpline
210
0.0
220
0.0
230
1.0
 70
     8
 71
     3
 72
    16
 73
    12
 74
     0
 42
0.00000001
 43
0.00000001
 12
1.0
 22
0.0
 32
0.0
 13
1.0
 23
0.0
 33
0.0
 40
0.0
 40
0.0
 40
0.0
 40
0.0
 40
0.25
 40
0.25
 40
0.5
 40
0.5
 40
0.625
 40
0.625
 40
0.75
 40
0.75
 40
1.0
 40
1.0
 40
1.0
 40
1.0
 10
124.5508809979454
 20
604.7800116184441
 30
0.0
 10
124.7958025125279
 20
604.3557951113206
 30
0.0
 10
124.9976622325643
 20
603.92848570551
 30
0.0
 10
125.2773035041614
 20
603.0649550218116
 30
0.0
 10
125.3541626388897
 20
602.62866749165
 30
0.0
 10
125.3550068000589
 20
601.9660162563395
 30
0.0
 10
125.3362177133888
 20
601.7440931985586
 30
0.0
 10
125.262950221308
 20
601.3051059795636
 30
0.0
 10
125.2085461696447
 20
601.0870841311156
 30
0.0
 10
124.9984671112925
 20
600.4369001668956
 30
0.0
 10
124.7961078181252
 20
600.0086045076678
 30
0.0
 10
124.5508809979452
 20
599.5838591957374
 30
0.0
  0
SPLINE
  5
D8
330
1F
100
AcDbEntity
  8
0
  6
Continuous
 62
     7
370
    15
100
AcDbSpline
210
0.0
220
0.0
230
1.0
 70
     8
 71
     3
 72
    16
 73
    12
 74
     0
 42
0.00000001
 43
0.00000001
 12
1.0
 22
0.0
 32
0.0
 13
1.0
 23
0.0
 33
0.0
 40
0.0
 40
0.0
 40
0.0
 40
0.0
 40
0.2500000000000001
 40
0.2500000000000001
 40
0.5000000000000001
 40
0.5000000000000001
 40
0.6250000000000001
 40
0.6250000000000001
 40
0.7500000000000002
 40
0.7500000000000002
 40
1.0
 40
1.0
 40
1.0
 40
1.0
 10
124.5508809979451
 20
604.7800116184441
 30
0.0
 10
124.7948562944755
 20
605.6251668372089
 30
0.0
 10
124.9995502499665
 20
606.4909947340191
 30
0.0
 10
125.279404022292
 20
608.226880075199
 30
0.0
 10
125.3548125965831
 20
609.0995202109688
 30
0.0
 10
125.3546864573504
 20
610.4167251477419
 30
0.0
 10
125.3359949911568
 20
610.8571512915596
 30
0.0
 10
125.2618201340998
 20
611.7406823347297
 30
0.0
 10
125.206643885779
 20
612.1797893132269
 30
0.0
 10
124.9953068457035
 20
613.481392437342
 30
0.0
 10
124.793343781334
 20
614.332400744309
 30
0.0
 10
124.550880997945
 20
615.1723164638574
 30
0.0
  0
SPLINE
  5
D9
330
1F
100
AcDbEntity
  8
0
  6
Continuous
 62
     7
370
    15
100
AcDbSpline
210
0.0
220
0.0
230
1.0
 70
     8
 71
     3
 72
    16
 73
    12
 74
     0
 42
0.00000001
 43
0.00000001
 12
1.0
 22
0.0
 32
0.0
 13
1.0
 23
0.0
 33
0.0
 40
0.0
 40
0.0
 40
0.0
 40
0.0
 40
0.2500000000000017
 40
0.2500000000000017
 40
0.5000000000000034
 40
0.5000000000000034
 40
0.6250000000000043
 40
0.6250000000000043
 40
0.7500000000000051
 40
0.7500000000000051
 40
1.0
 40
1.0
 40
1.0
 40
1.0
 10
124.5508809979455
 20
620.3684688865641
 30
0.0
 10
124.7958025125278
 20
619.9442523794406
 30
0.0
 10
124.9976622325644
 20
619.51694297363
 30
0.0
 10
125.2773035041615
 20
618.6534122899316
 30
0.0
 10
125.3541626388898
 20
618.2171247597698
 30
0.0
 10
125.3550068000589
 20
617.5544735244595
 30
0.0
 10
125.3362177133888
 20
617.3325504666785
 30
0.0
 10
125.262950221308
 20
616.8935632476836
 30
0.0
 10
125.2085461696447
 20
616.6755413992354
 30
0.0
 10
124.9984671112926
 20
616.0253574350155
 30
0.0
 10
124.7961078181252
 20
615.5970617757877
 30
0.0
 10
124.5508809979452
 20
615.1723164638574
 30
0.0
  0
LINE
  5
DA
330
1F
100
AcDbEntity
  8
0
  6
Continuous
 62
     7
370
    15
100
AcDbLine
 10
125.7877397036
 20
609.9761640412
 30
0.0
 11
125.7877397036
 21
618.2261639964
 31
0.0
  0
LINE
  5
DB
330
1F
100
AcDbEntity
  8
0
  6
Continuous
 62
     7
370
    15
100
AcDbLine
 10
125.7877397036
 20
601.7261640859
 30
0.0
 11
125.7877397036
 21
609.9761640412
 31
0.0
  0
LINE
  5
DC
330
1F
100
AcDbEntity
  8
0
  6
Continuous
 62
     7
370
    15
100
AcDbLine
 10
116.624598453
 20
615.1723162961
 30
0.0
 11
124.5508837198
 21
615.1723162961
 31
0.0
  0
LINE
  5
DD
330
1F
100
AcDbEntity
  8
0
  6
Continuous
 62
     7
370
    15
100
AcDbLine
 10
116.624598453
 20
604.7800117862
 30
0.0
 11
124.5508837198
 21
604.7800117862
 31
0.0
  0
LINE
  5
DE
330
1F
100
AcDbEntity
  8
0
  6
Continuous
 62
     7
370
    15
100
AcDbLine
 10
116.624598453
 20
620.368468551
 30
0.0
 11
124.5508837198
 21
620.368468551
 31
0.0
  0
LINE
  5
DF
330
1F
100
AcDbEntity
  8
0
  6
Continuous
 62
     7
370
    15
100
AcDbLine
 10
116.624598453
 20
599.5838595313
 30
0.0
 11
124.5508837198
 21
599.5838595313
 31
0.0
  0
LINE
  5
E0
330
1F
100
AcDbEntity
  8
0
  6
Continuous
 62
     7
370
    15
100
AcDbLine
 10
165.8877405023
 20
609.9761640412
 30
0.0
 11
165.8877405023
 21
615.9761640933
 31
0.0
  0
LINE
  5
E1
330
1F
100
AcDbEntity
  8
0
  6
Continuous
 62
     7
370
    15
100
AcDbLine
 10
165.8877405023
 20
603.976163989
 30
0.0
 11
165.8877405023
 21
609.9761640412
 31
0.0
  0
LINE
  5
E2
330
1F
100
AcDbEntity
  8
0
  6
Continuous
 62
     7
370
    15
100
AcDbLine
 10
-58.1122589613
 20
457.4171518665
 30
0.0
 11
-58.1122589613
 21
501.4171590787
 31
0.0
  0
LINE
  5
E3
330
1F
100
AcDbEntity
  8
0
  6
Continuous
 62
     7
370
    15
100
AcDbLine
 10
243.8877421116
 20
457.4171518665
 30
0.0
 11
243.8877421116
 21
501.4171590787
 31
0.0
  0
SPLINE
  5
E4
330
1F
100
AcDbEntity
  8
0
  6
Continuous
 62
     7
370
    15
100
AcDbSpline
210
0.0
220
0.0
230
1.0
 70
     8
 71
     3
 72
    12
 73
     8
 74
     0
 42
0.00000001
 43
0.00000001
 12
1.0
 22
0.0
 32
0.0
 13
1.0
 23
0.0
 33
0.0
 40
0.0
 40
0.0
 40
0.0
 40
0.0
 40
0.285500472558771
 40
0.4324865679566219
 40
0.5794704510340223
 40
0.8655375824185036
 40
1.0
 40
1.0
 40
1.0
 40
1.0
 10
105.2258806919179
 20
392.9962431770455
 30
0.0
 10
105.2050519857163
 20
393.1648621289368
 30
0.0
 10
105.1734998990267
 20
393.4202922903734
 30
0.0
 10
105.1194213136003
 20
393.6605255935952
 30
0.0
 10
105.0714502146374
 20
393.8505059365259
 30
0.0
 10
105.037181126752
 20
393.9620511434992
 30
0.0
 10
105.0343856430043
 20
393.9713517641739
 30
0.0
 10
105.0334917997441
 20
393.9743255954873
 30
0.0
  0
SPLINE
  5
E5
330
1F
100
AcDbEntity
  8
0
  6
Continuous
 62
     7
370
    15
100
AcDbSpline
210
0.0
220
0.0
230
1.0
 70
     8
 71
     3
 72
    12
 73
     8
 74
     0
 42
0.00000001
 43
0.00000001
 12
1.0
 22
0.0
 32
0.0
 13
1.0
 23
0.0
 33
0.0
 40
0.0
 40
0.0
 40
0.0
 40
0.0
 40
0.0131732419084795
 40
0.1608267344149338
 40
0.4372084972295283
 40
0.72123543663715
 40
0.9999999999999999
 40
0.9999999999999999
 40
0.9999999999999999
 40
0.9999999999999999
 10
105.0334917997441
 20
825.9780024868141
 30
0.0
 10
105.0333134569317
 20
825.977419301886
 30
0.0
 10
105.0311361423175
 20
825.9702994350985
 30
0.0
 10
105.042757934048
 20
826.0077639370622
 30
0.0
 10
105.0826745107731
 20
826.1445730949804
 30
0.0
 10
105.1643231328503
 20
826.4605413512967
 30
0.0
 10
105.2054898151056
 20
826.7919366232746
 30
0.0
 10
105.2258806919179
 20
826.9560849052559
 30
0.0
  0
SPLINE
  5
E6
330
1F
100
AcDbEntity
  8
0
  6
Continuous
 62
     7
370
    15
100
AcDbSpline
210
0.0
220
0.0
230
1.0
 70
     8
 71
     3
 72
    14
 73
    10
 74
     0
 42
0.00000001
 43
0.00000001
 12
1.0
 22
0.0
 32
0.0
 13
1.0
 23
0.0
 33
0.0
 40
0.0
 40
0.0
 40
0.0
 40
0.0
 40
0.1250000000000036
 40
0.1250000000000036
 40
0.2500000000000073
 40
0.2500000000000073
 40
0.5000000000000034
 40
0.5000000000000034
 40
1.0
 40
1.0
 40
1.0
 40
1.0
 10
-36.6122587228693
 20
468.4651055659872
 30
0.0
 10
-36.61225872286941
 20
468.8150645319968
 30
0.0
 10
-36.62168782829142
 20
469.1667742722544
 30
0.0
 10
-36.65908980557883
 20
469.8669213686106
 30
0.0
 10
-36.6870223975492
 20
470.2157813959727
 30
0.0
 10
-36.79731388032795
 20
471.2588788040707
 30
0.0
 10
-36.90622792830353
 20
471.9496254329998
 30
0.0
 10
-37.32629797611168
 20
474.0095970983238
 30
0.0
 10
-37.73041874031887
 20
475.3666016489887
 30
0.0
 10
-38.21995387745594
 20
476.7123782346009
 30
0.0
  0
SPLINE
  5
E7
330
1F
100
AcDbEntity
  8
0
  6
Continuous
 62
     7
370
    15
100
AcDbSpline
210
0.0
220
0.0
230
1.0
 70
     8
 71
     3
 72
    12
 73
     8
 74
     0
 42
0.00000001
 43
0.00000001
 12
1.0
 22
0.0
 32
0.0
 13
1.0
 23
0.0
 33
0.0
 40
0.0
 40
0.0
 40
0.0
 40
0.0
 40
0.2499999999999999
 40
0.2499999999999999
 40
0.4999999999999998
 40
0.4999999999999998
 40
1.0
 40
1.0
 40
1.0
 40
1.0
 10
-38.21995387745606
 20
476.7123782346009
 30
0.0
 10
-37.97599102990287
 20
477.493031957232
 30
0.0
 10
-37.75201653508495
 20
478.2808558964547
 30
0.0
 10
-37.35459183059606
 20
479.8746278330672
 30
0.0
 10
-37.18289288559748
 20
480.6741232937373
 30
0.0
 10
-36.7632083027368
 20
483.0781807951512
 30
0.0
 10
-36.61225872286936
 20
484.68985622016
 30
0.0
 10
-36.6122587228693
 20
486.31204142669
 30
0.0
  0
LINE
  5
E8
330
1F
100
AcDbEntity
  8
0
  6
Continuous
 62
     7
370
    15
100
AcDbLine
 10
-36.6122675444
 20
468.4651111942
 30
0.0
 11
-36.6122675444
 21
486.312038241
 31
0.0
  0
LINE
  5
E9
330
1F
100
AcDbEntity
  8
0
  6
Continuous
 62
     7
370
    15
100
AcDbLine
 10
-57.3122454191
 20
468.4651111942
 30
0.0
 11
-57.3122454191
 21
460.2178400141
 31
0.0
  0
LINE
  5
EA
330
1F
100
AcDbEntity
  8
0
  6
Continuous
 62
     7
370
    15
100
AcDbLine
 10
-57.3122454191
 20
476.7123823744
 30
0.0
 11
-57.3122454191
 21
468.4651111942
 31
0.0
  0
LINE
  5
EB
330
1F
100
AcDbEntity
  8
0
  6
Continuous
 62
     7
370
    15
100
AcDbLine
 10
-57.3122454191
 20
476.7123823744
 30
0.0
 11
-38.2199538256
 21
476.7123823744
 31
0.0
  0
SPLINE
  5
EC
330
1F
100
AcDbEntity
  8
0
  6
Continuous
 62
     7
370
    15
100
AcDbSpline
210
0.0
220
0.0
230
1.0
 70
     8
 71
     3
 72
    10
 73
     6
 74
     0
 42
0.00000001
 43
0.00000001
 12
1.0
 22
0.0
 32
0.0
 13
1.0
 23
0.0
 33
0.0
 40
0.0
 40
0.0
 40
0.0
 40
0.0
 40
0.5
 40
0.5
 40
1.0
 40
1.0
 40
1.0
 40
1.0
 10
-38.21995387745583
 20
460.2178328973735
 30
0.0
 10
-37.72919305939623
 20
461.5669789912433
 30
0.0
 10
-37.32487920816405
 20
462.9259795836762
 30
0.0
 10
-36.76548053455067
 20
465.6723915641646
 30
0.0
 10
-36.6122587228693
 20
467.0600153256202
 30
0.0
 10
-36.6122587228693
 20
468.4651055659872
 30
0.0
  0
LINE
  5
ED
330
1F
100
AcDbEntity
  8
0
  6
Continuous
 62
     7
370
    15
100
AcDbLine
 10
-57.3122454191
 20
460.2178400141
 30
0.0
 11
-38.2199538256
 21
460.2178400141
 31
0.0
  0
LINE
  5
EE
330
1F
100
AcDbEntity
  8
0
  6
Continuous
 62
     7
370
    15
100
AcDbLine
 10
-57.3122454191
 20
486.312038241
 30
0.0
 11
-57.3122454191
 21
476.7123823744
 31
0.0
  0
LINE
  5
EF
330
1F
100
AcDbEntity
  8
0
  6
Continuous
 62
     7
370
    15
100
AcDbLine
 10
-57.3122454191
 20
495.9117015582
 30
0.0
 11
-57.3122454191
 21
486.312038241
 31
0.0
  0
LINE
  5
F0
330
1F
100
AcDbEntity
  8
0
  6
Continuous
 62
     7
370
    15
100
AcDbLine
 10
-57.3122454191
 20
495.9117015582
 30
0.0
 11
-38.2199538256
 21
495.9117015582
 31
0.0
  0
SPLINE
  5
F1
330
1F
100
AcDbEntity
  8
0
  6
Continuous
 62
     7
370
    15
100
AcDbSpline
210
0.0
220
0.0
230
1.0
 70
     8
 71
     3
 72
    12
 73
     8
 74
     0
 42
0.00000001
 43
0.00000001
 12
1.0
 22
0.0
 32
0.0
 13
1.0
 23
0.0
 33
0.0
 40
0.0
 40
0.0
 40
0.0
 40
0.0
 40
0.2500000000000011
 40
0.2500000000000011
 40
0.5000000000000021
 40
0.5000000000000021
 40
1.0
 40
1.0
 40
1.0
 40
1.0
 10
-36.6122587228693
 20
486.31204142669
 30
0.0
 10
-36.6122587228693
 20
487.1236159286747
 30
0.0
 10
-36.64959583405938
 20
487.9377900065018
 30
0.0
 10
-36.79798052048497
 20
489.5712702126964
 30
0.0
 10
-36.90826129627009
 20
490.3820372786496
 30
0.0
 10
-37.33089326850023
 20
492.7869199527061
 30
0.0
 10
-37.73487060264238
 20
494.3594925993368
 30
0.0
 10
-38.21995387745606
 20
495.9117046187792
 30
0.0
  0
LINE
  5
F2
330
1F
100
AcDbEntity
  8
0
  6
Continuous
 62
     7
370
    15
100
AcDbLine
 10
243.0877416079
 20
479.4171666485
 30
0.0
 11
243.0877416079
 21
489.8094674331
 31
0.0
  0
LINE
  5
F3
330
1F
100
AcDbEntity
  8
0
  6
Continuous
 62
     7
370
    15
100
AcDbLine
 10
243.0877416079
 20
469.0248584133
 30
0.0
 11
243.0877416079
 21
479.4171666485
 31
0.0
  0
LINE
  5
F4
330
1F
100
AcDbEntity
  8
0
  6
Continuous
 62
     7
370
    15
100
AcDbLine
 10
243.0877416079
 20
469.0248584133
 30
0.0
 11
223.9954369759
 21
469.0248584133
 31
0.0
  0
SPLINE
  5
F5
330
1F
100
AcDbEntity
  8
0
  6
Continuous
 62
     7
370
    15
100
AcDbSpline
210
0.0
220
0.0
230
1.0
 70
     8
 71
     3
 72
    12
 73
     8
 74
     0
 42
0.00000001
 43
0.00000001
 12
1.0
 22
0.0
 32
0.0
 13
1.0
 23
0.0
 33
0.0
 40
0.0
 40
0.0
 40
0.0
 40
0.0
 40
0.2499999999999981
 40
0.2499999999999981
 40
0.4999999999999961
 40
0.4999999999999961
 40
1.0
 40
1.0
 40
1.0
 40
1.0
 10
222.3877412771306
 20
479.4171592815518
 30
0.0
 10
222.3877412771306
 20
478.5385732873744
 30
0.0
 10
222.4250783883206
 20
477.6571730710643
 30
0.0
 10
222.5734630747461
 20
475.8888168358463
 30
0.0
 10
222.6837438505313
 20
475.0111049474802
 30
0.0
 10
223.1063758227614
 20
472.407651746451
 30
0.0
 10
223.5103531569036
 20
470.705232191897
 30
0.0
 10
223.9954364317173
 20
469.0248544361385
 30
0.0
  0
SPLINE
  5
F6
330
1F
100
AcDbEntity
  8
0
  6
Continuous
 62
     7
370
    15
100
AcDbSpline
210
0.0
220
0.0
230
1.0
 70
     8
 71
     3
 72
    12
 73
     8
 74
     0
 42
0.00000001
 43
0.00000001
 12
1.0
 22
0.0
 32
0.0
 13
1.0
 23
0.0
 33
0.0
 40
0.0
 40
0.0
 40
0.0
 40
0.0
 40
0.2499999999999981
 40
0.2499999999999981
 40
0.4999999999999962
 40
0.4999999999999962
 40
1.0
 40
1.0
 40
1.0
 40
1.0
 10
223.9954364317173
 20
489.8094641269651
 30
0.0
 10
223.7514735841641
 20
488.9643520327225
 30
0.0
 10
223.5274990893462
 20
488.1114776789989
 30
0.0
 10
223.1300743848575
 20
486.3861084146908
 30
0.0
 10
222.9583754398587
 20
485.5205988250777
 30
0.0
 10
222.5386908569981
 20
482.9180389309781
 30
0.0
 10
222.3877412771306
 20
481.1732878919673
 30
0.0
 10
222.3877412771306
 20
479.4171592815518
 30
0.0
  0
LINE
  5
F7
330
1F
100
AcDbEntity
  8
0
  6
Continuous
 62
     7
370
    15
100
AcDbLine
 10
243.0877416079
 20
489.8094674331
 30
0.0
 11
223.9954369759
 21
489.8094674331
 31
0.0
  0
SPLINE
  5
F8
330
1F
100
AcDbEntity
  8
0
  6
Continuous
 62
     7
370
    15
100
AcDbSpline
210
0.0
220
0.0
230
1.0
 70
     8
 71
     3
 72
    14
 73
    10
 74
     0
 42
0.00000001
 43
0.00000001
 12
1.0
 22
0.0
 32
0.0
 13
1.0
 23
0.0
 33
0.0
 40
0.0
 40
0.0
 40
0.0
 40
0.0
 40
0.1249999999999999
 40
0.1249999999999999
 40
0.2499999999999998
 40
0.2499999999999998
 40
0.4999999999999998
 40
0.4999999999999998
 40
1.0
 40
1.0
 40
1.0
 40
1.0
 10
222.3877412771306
 20
495.0056165496717
 30
0.0
 10
222.3877412771305
 20
494.7851266735459
 30
0.0
 10
222.3971703825527
 20
494.5635337309621
 30
0.0
 10
222.43457235984
 20
494.1224095948792
 30
0.0
 10
222.4625049518105
 20
493.9026120994887
 30
0.0
 10
222.5727964345893
 20
493.2454138544453
 30
0.0
 10
222.6817104825648
 20
492.8102124353089
 30
0.0
 10
223.1017805303728
 20
491.5123377087685
 30
0.0
 10
223.5059012945802
 20
490.6573638565766
 30
0.0
 10
223.9954364317172
 20
489.809464126965
 30
0.0
  0
LINE
  5
F9
330
1F
100
AcDbEntity
  8
0
  6
Continuous
 62
     7
370
    15
100
AcDbLine
 10
222.3877395188
 20
495.0056141001
 30
0.0
 11
222.3877395188
 21
479.4171666485
 31
0.0
  0
LINE
  5
FA
330
1F
100
AcDbEntity
  8
0
  6
Continuous
 62
     7
370
    15
100
AcDbLine
 10
243.0877416079
 20
495.0056141001
 30
0.0
 11
243.0877416079
 21
500.2017682177
 31
0.0
  0
SPLINE
  5
FB
330
1F
100
AcDbEntity
  8
0
  6
Continuous
 62
     7
370
    15
100
AcDbSpline
210
0.0
220
0.0
230
1.0
 70
     8
 71
     3
 72
    10
 73
     6
 74
     0
 42
0.00000001
 43
0.00000001
 12
1.0
 22
0.0
 32
0.0
 13
1.0
 23
0.0
 33
0.0
 40
0.0
 40
0.0
 40
0.0
 40
0.0
 40
0.5
 40
0.5
 40
1.0
 40
1.0
 40
1.0
 40
1.0
 10
223.9954364317171
 20
500.2017689723784
 30
0.0
 10
223.5046756136576
 20
499.3517463011352
 30
0.0
 10
223.1003617624253
 20
498.4955148529251
 30
0.0
 10
222.5409630888119
 20
496.7651518784505
 30
0.0
 10
222.3877412771306
 20
495.8908865473996
 30
0.0
 10
222.3877412771306
 20
495.0056165496717
 30
0.0
  0
LINE
  5
FC
330
1F
100
AcDbEntity
  8
0
  6
Continuous
 62
     7
370
    15
100
AcDbLine
 10
243.0877416079
 20
500.2017682177
 30
0.0
 11
223.9954369759
 21
500.2017682177
 31
0.0
  0
LINE
  5
FD
330
1F
100
AcDbEntity
  8
0
  6
Continuous
 62
     7
370
    15
100
AcDbLine
 10
243.0877416079
 20
489.8094674331
 30
0.0
 11
243.0877416079
 21
495.0056141001
 31
0.0
  0
SPLINE
  5
FE
330
1F
100
AcDbEntity
  8
0
  6
Continuous
 62
     7
370
    15
100
AcDbSpline
210
0.0
220
0.0
230
1.0
 70
     8
 71
     3
 72
    10
 73
     6
 74
     0
 42
0.00000001
 43
0.00000001
 12
1.0
 22
0.0
 32
0.0
 13
1.0
 23
0.0
 33
0.0
 40
0.0
 40
0.0
 40
0.0
 40
0.0
 40
0.5
 40
0.5
 40
1.0
 40
1.0
 40
1.0
 40
1.0
 10
223.9954364317171
 20
469.0248544361385
 30
0.0
 10
223.5046756136576
 20
468.1748317648953
 30
0.0
 10
223.1003617624253
 20
467.3186003166853
 30
0.0
 10
222.5409630888119
 20
465.5882373422107
 30
0.0
 10
222.3877412771306
 20
464.7139720111599
 30
0.0
 10
222.3877412771306
 20
463.828702013432
 30
0.0
  0
LINE
  5
FF
330
1F
100
AcDbEntity
  8
0
  6
Continuous
 62
     7
370
    15
100
AcDbLine
 10
222.3877395188
 20
479.4171666485
 30
0.0
 11
222.3877395188
 21
463.8287042957
 31
0.0
  0
LINE
  5
100
330
1F
100
AcDbEntity
  8
0
  6
Continuous
 62
     7
370
    15
100
AcDbLine
 10
243.0877416079
 20
458.6325501782
 30
0.0
 11
243.0877416079
 21
463.8287042957
 31
0.0
  0
LINE
  5
101
330
1F
100
AcDbEntity
  8
0
  6
Continuous
 62
     7
370
    15
100
AcDbLine
 10
243.0877416079
 20
458.6325501782
 30
0.0
 11
223.9954369759
 21
458.6325501782
 31
0.0
  0
SPLINE
  5
102
330
1F
100
AcDbEntity
  8
0
  6
Continuous
 62
     7
370
    15
100
AcDbSpline
210
0.0
220
0.0
230
1.0
 70
     8
 71
     3
 72
    14
 73
    10
 74
     0
 42
0.00000001
 43
0.00000001
 12
1.0
 22
0.0
 32
0.0
 13
1.0
 23
0.0
 33
0.0
 40
0.0
 40
0.0
 40
0.0
 40
0.0
 40
0.1249999999999966
 40
0.1249999999999966
 40
0.2499999999999931
 40
0.2499999999999931
 40
0.4999999999999932
 40
0.4999999999999932
 40
1.0
 40
1.0
 40
1.0
 40
1.0
 10
222.3877412771306
 20
463.828702013432
 30
0.0
 10
222.3877412771305
 20
463.6082121373061
 30
0.0
 10
222.3971703825527
 20
463.3866191947224
 30
0.0
 10
222.43457235984
 20
462.9454950586394
 30
0.0
 10
222.4625049518105
 20
462.725697563249
 30
0.0
 10
222.5727964345893
 20
462.0684993182055
 30
0.0
 10
222.6817104825648
 20
461.6332978990691
 30
0.0
 10
223.1017805303728
 20
460.3354231725288
 30
0.0
 10
223.5059012945802
 20
459.480449320337
 30
0.0
 10
223.9954364317172
 20
458.6325495907254
 30
0.0
  0
LINE
  5
103
330
1F
100
AcDbEntity
  8
0
  6
Continuous
 62
     7
370
    15
100
AcDbLine
 10
243.0877416079
 20
463.8287042957
 30
0.0
 11
243.0877416079
 21
469.0248584133
 31
0.0
  0
SPLINE
  5
104
330
1F
100
AcDbEntity
  8
0
  6
Continuous
 62
     7
370
    15
100
AcDbSpline
210
0.0
220
0.0
230
1.0
 70
     8
 71
     3
 72
    10
 73
     6
 74
     0
 42
0.00000001
 43
0.00000001
 12
1.0
 22
0.0
 32
0.0
 13
1.0
 23
0.0
 33
0.0
 40
0.0
 40
0.0
 40
0.0
 40
0.0
 40
0.5
 40
0.5
 40
1.0
 40
1.0
 40
1.0
 40
1.0
 10
-38.21995387745583
 20
495.9117046187792
 30
0.0
 10
-37.72919305939623
 20
496.1329380453249
 30
0.0
 10
-37.32487920816405
 20
496.3557874158323
 30
0.0
 10
-36.76548053455067
 20
496.8061449685912
 30
0.0
 10
-36.6122587228693
 20
497.0336879759037
 30
0.0
 10
-36.6122587228693
 20
497.2640951422547
 30
0.0
  0
LINE
  5
105
330
1F
100
AcDbEntity
  8
0
  6
Continuous
 62
     7
370
    15
100
AcDbLine
 10
-36.6122675444
 20
486.312038241
 30
0.0
 11
-36.6122675444
 21
497.2640936953
 31
0.0
  0
LINE
  5
106
330
1F
100
AcDbEntity
  8
0
  6
Continuous
 62
     7
370
    15
100
AcDbLine
 10
72.8877382969
 20
818.6037456375
 30
0.0
 11
72.8877382969
 21
817.3715239149
 31
0.0
  0
LINE
  5
107
330
1F
100
AcDbEntity
  8
0
  6
Continuous
 62
     7
370
    15
100
AcDbLine
 10
72.8877382969
 20
793.371519981
 30
0.0
 11
72.8877382969
 21
772.9538744074
 31
0.0
  0
LINE
  5
108
330
1F
100
AcDbEntity
  8
0
  6
Continuous
 62
     7
370
    15
100
AcDbLine
 10
72.8877382969
 20
760.9538649899
 30
0.0
 11
72.8877382969
 21
615.9761640933
 31
0.0
  0
LINE
  5
109
330
1F
100
AcDbEntity
  8
0
  6
Continuous
 62
     7
370
    15
100
AcDbLine
 10
72.8877382969
 20
603.976163989
 30
0.0
 11
72.8877382969
 21
491.4171611649
 31
0.0
  0
LINE
  5
10A
330
1F
100
AcDbEntity
  8
0
  6
Continuous
 62
     7
370
    15
100
AcDbLine
 10
72.8877382969
 20
467.417157231
 30
0.0
 11
72.8877382969
 21
458.9984630924
 31
0.0
  0
LINE
  5
10B
330
1F
100
AcDbEntity
  8
0
  6
Continuous
 62
     7
370
    15
100
AcDbLine
 10
72.8877382969
 20
446.9984536749
 30
0.0
 11
72.8877382969
 21
401.3485824448
 31
0.0
  0
SPLINE
  5
10C
330
1F
100
AcDbEntity
  8
0
  6
Continuous
 62
     7
370
    15
100
AcDbSpline
210
0.0
220
0.0
230
1.0
 70
     8
 71
     3
 72
    11
 73
     7
 74
     0
 42
0.00000001
 43
0.00000001
 12
1.0
 22
0.0
 32
0.0
 13
1.0
 23
0.0
 33
0.0
 40
0.0
 40
0.0
 40
0.0
 40
0.0
 40
0.1974039509074118
 40
0.3953495665940949
 40
0.6976464417465948
 40
1.0
 40
1.0
 40
1.0
 40
1.0
 10
-36.70194273242141
 20
461.2627839428079
 30
0.0
 10
-36.75003831804677
 20
461.1929544676395
 30
0.0
 10
-36.84636146074325
 20
461.0531039093484
 30
0.0
 10
-37.13141149487151
 20
460.8080625889741
 30
0.0
 10
-37.56441344167025
 20
460.5284700137238
 30
0.0
 10
-38.00142670829279
 20
460.3213898182284
 30
0.0
 10
-38.21995382556106
 20
460.2178400140893
 30
0.0
  0
LINE
  5
10D
330
1F
100
AcDbEntity
  8
0
  6
Continuous
 62
     7
370
    15
100
AcDbLine
 10
-36.6122675444
 20
461.4171599728
 30
0.0
 11
-36.6122675444
 21
468.4651111942
 31
0.0
  0
LINE
  5
10E
330
1F
100
AcDbEntity
  8
0
  6
Continuous
 62
     7
370
    15
100
AcDbLine
 10
-57.3122454191
 20
498.6164858323
 30
0.0
 11
-57.3122454191
 21
497.2640936953
 31
0.0
  0
LINE
  5
10F
330
1F
100
AcDbEntity
  8
0
  6
Continuous
 62
     7
370
    15
100
AcDbLine
 10
-57.3122454191
 20
498.6164858323
 30
0.0
 11
-38.2199538256
 21
498.6164858323
 31
0.0
  0
SPLINE
  5
110
330
1F
100
AcDbEntity
  8
0
  6
Continuous
 62
     7
370
    15
100
AcDbSpline
210
0.0
220
0.0
230
1.0
 70
     8
 71
     3
 72
    14
 73
    10
 74
     0
 42
0.00000001
 43
0.00000001
 12
1.0
 22
0.0
 32
0.0
 13
1.0
 23
0.0
 33
0.0
 40
0.0
 40
0.0
 40
0.0
 40
0.0
 40
0.1250000000000026
 40
0.1250000000000026
 40
0.2500000000000051
 40
0.2500000000000051
 40
0.5000000000000024
 40
0.5000000000000024
 40
1.0
 40
1.0
 40
1.0
 40
1.0
 10
-36.6122587228693
 20
497.2640951422547
 30
0.0
 10
-36.61225872286936
 20
497.3214815302467
 30
0.0
 10
-36.62168782829142
 20
497.3791550107839
 30
0.0
 10
-36.65908980557872
 20
497.4939653652123
 30
0.0
 10
-36.6870223975492
 20
497.5511715488782
 30
0.0
 10
-36.79731388032801
 20
497.7222190098337
 30
0.0
 10
-36.90622792830359
 20
497.8354878724774
 30
0.0
 10
-37.32629797611168
 20
498.1732827133603
 30
0.0
 10
-37.73041874031893
 20
498.3958047722728
 30
0.0
 10
-38.21995387745594
 20
498.6164856657302
 30
0.0
  0
LINE
  5
111
330
1F
100
AcDbEntity
  8
0
  6
Continuous
 62
     7
370
    15
100
AcDbLine
 10
-57.3122454191
 20
497.2640936953
 30
0.0
 11
-57.3122454191
 21
495.9117015582
 31
0.0
  0
LINE
  5
112
330
1F
100
AcDbEntity
  8
0
  6
Continuous
 62
     7
370
    15
100
AcDbLine
 10
-194.612259915
 20
467.417157231
 30
0.0
 11
-194.612259915
 21
491.4171611649
 31
0.0
  0
LINE
  5
113
330
1F
100
AcDbEntity
  8
0
  6
Continuous
 62
     7
370
    15
100
AcDbLine
 10
380.3877430653
 20
467.417157231
 30
0.0
 11
380.3877430653
 21
491.4171611649
 31
0.0
  0
LINE
  5
114
330
1F
100
AcDbEntity
  8
0
  6
Continuous
 62
     7
370
    15
100
AcDbLine
 10
222.3877395188
 20
497.4171584231
 30
0.0
 11
222.3877395188
 21
495.0056141001
 31
0.0
  0
LINE
  5
115
330
1F
100
AcDbEntity
  8
0
  6
Continuous
 62
     7
370
    15
100
AcDbLine
 10
222.3877395188
 20
463.8287042957
 30
0.0
 11
222.3877395188
 21
461.4171599728
 31
0.0
  0
LINE
  5
116
330
1F
100
AcDbEntity
  8
0
  6
Continuous
 62
     7
370
    15
100
AcDbLine
 10
-36.6122675444
 20
497.2640936953
 30
0.0
 11
-36.6122675444
 21
497.4171584231
 31
0.0
  0
LINE
  5
117
330
1F
100
AcDbEntity
  8
0
  6
Continuous
 62
     7
370
    15
100
AcDbLine
 10
112.8877448534
 20
467.417157231
 30
0.0
 11
112.8877448534
 21
373.9761626106
 31
0.0
  0
LINE
  5
118
330
1F
100
AcDbEntity
  8
0
  6
Continuous
 62
     7
370
    15
100
AcDbLine
 10
115.3877424692
 20
758.4685897213
 30
0.0
 11
115.3877424692
 21
778.9538716656
 31
0.0
  0
LINE
  5
119
330
1F
100
AcDbEntity
  8
0
  6
Continuous
 62
     7
370
    15
100
AcDbLine
 10
115.3877424692
 20
754.9538677317
 30
0.0
 11
115.3877424692
 21
758.4685897213
 31
0.0
  0
LINE
  5
11A
330
1F
100
AcDbEntity
  8
0
  6
Continuous
 62
     7
370
    15
100
AcDbLine
 10
115.3877424692
 20
440.9984564167
 30
0.0
 11
115.3877424692
 21
464.9984603506
 31
0.0
  0
LINE
  5
11B
330
1F
100
AcDbEntity
  8
0
  6
Continuous
 62
     7
370
    15
100
AcDbLine
 10
116.624598453
 20
769.6435963493
 30
0.0
 11
124.5508837198
 21
769.6435963493
 31
0.0
  0
SPLINE
  5
11C
330
1F
100
AcDbEntity
  8
0
  6
Continuous
 62
     7
370
    15
100
AcDbSpline
210
0.0
220
0.0
230
1.0
 70
     8
 71
     3
 72
    16
 73
    12
 74
     0
 42
0.00000001
 43
0.00000001
 12
1.0
 22
0.0
 32
0.0
 13
1.0
 23
0.0
 33
0.0
 40
0.0
 40
0.0
 40
0.0
 40
0.0
 40
0.2500000000000009
 40
0.2500000000000009
 40
0.5000000000000018
 40
0.5000000000000018
 40
0.6250000000000032
 40
0.6250000000000032
 40
0.7500000000000047
 40
0.7500000000000047
 40
1.0
 40
1.0
 40
1.0
 40
1.0
 10
124.5508809979454
 20
769.6435958810664
 30
0.0
 10
124.7958025125278
 20
768.8240725207291
 30
0.0
 10
124.9976622325644
 20
767.9985741389515
 30
0.0
 10
125.2773035041615
 20
766.330360960597
 30
0.0
 10
125.3541626388898
 20
765.4875181744549
 30
0.0
 10
125.3550068000589
 20
764.2073742904374
 30
0.0
 10
125.3362177133888
 20
763.7786518645183
 30
0.0
 10
125.262950221308
 20
762.9305936800419
 30
0.0
 10
125.2085461696447
 20
762.5094078118194
 30
0.0
 10
124.9984671112925
 20
761.2533488460615
 30
0.0
 10
124.7961078181252
 20
760.4259451689901
 30
0.0
 10
124.5508809979453
 20
759.6054002362127
 30
0.0
  0
LINE
  5
11D
330
1F
100
AcDbEntity
  8
0
  6
Continuous
 62
     7
370
    15
100
AcDbLine
 10
116.624598453
 20
759.6053993088
 30
0.0
 11
124.5508837198
 21
759.6053993088
 31
0.0
  0
SPLINE
  5
11E
330
1F
100
AcDbEntity
  8
0
  6
Continuous
 62
     7
370
    15
100
AcDbSpline
210
0.0
220
0.0
230
1.0
 70
     8
 71
     3
 72
    16
 73
    12
 74
     0
 42
0.00000001
 43
0.00000001
 12
1.0
 22
0.0
 32
0.0
 13
1.0
 23
0.0
 33
0.0
 40
0.0
 40
0.0
 40
0.0
 40
0.0
 40
0.250000000000001
 40
0.250000000000001
 40
0.500000000000002
 40
0.500000000000002
 40
0.6250000000000014
 40
0.6250000000000014
 40
0.750000000000001
 40
0.750000000000001
 40
1.0
 40
1.0
 40
1.0
 40
1.0
 10
116.6246015563158
 20
759.6054002362127
 30
0.0
 10
116.3796800417334
 20
760.4249235965499
 30
0.0
 10
116.1778203216969
 20
761.2504219783276
 30
0.0
 10
115.8981790500999
 20
762.9186351566823
 30
0.0
 10
115.8213199153715
 20
763.7614779428242
 30
0.0
 10
115.8204757542023
 20
765.0416218268415
 30
0.0
 10
115.8392648408724
 20
765.4703442527608
 30
0.0
 10
115.9125323329532
 20
766.3184024372372
 30
0.0
 10
115.9669363846166
 20
766.7395883054596
 30
0.0
 10
116.1770154429687
 20
767.9956472712175
 30
0.0
 10
116.379374736136
 20
768.823050948289
 30
0.0
 10
116.624601556316
 20
769.6435958810663
 30
0.0
  0
SPLINE
  5
11F
330
1F
100
AcDbEntity
  8
0
  6
Continuous
 62
     7
370
    15
100
AcDbSpline
210
0.0
220
0.0
230
1.0
 70
     8
 71
     3
 72
    16
 73
    12
 74
     0
 42
0.00000001
 43
0.00000001
 12
1.0
 22
0.0
 32
0.0
 13
1.0
 23
0.0
 33
0.0
 40
0.0
 40
0.0
 40
0.0
 40
0.0
 40
0.25
 40
0.25
 40
0.5
 40
0.5
 40
0.625
 40
0.625
 40
0.75
 40
0.75
 40
1.0
 40
1.0
 40
1.0
 40
1.0
 10
124.5508809979455
 20
759.6054002362127
 30
0.0
 10
124.7958025125279
 20
759.3858096136319
 30
0.0
 10
124.9976622325643
 20
759.1646179888814
 30
0.0
 10
125.2773035041614
 20
758.7176216149384
 30
0.0
 10
125.3541626388898
 20
758.4917825710453
 30
0.0
 10
125.3550068000589
 20
758.1487690511271
 30
0.0
 10
125.3362177133889
 20
758.0338932233251
 30
0.0
 10
125.262950221308
 20
757.80665671766
 30
0.0
 10
125.2085461696447
 20
757.6938003044064
 30
0.0
 10
124.9984671112925
 20
757.3572403188857
 30
0.0
 10
124.7961078181253
 20
757.1355381717998
 30
0.0
 10
124.5508809979453
 20
756.9156738197087
 30
0.0
  0
SPLINE
  5
120
330
1F
100
AcDbEntity
  8
0
  6
Continuous
 62
     7
370
    15
100
AcDbSpline
210
0.0
220
0.0
230
1.0
 70
     8
 71
     3
 72
    16
 73
    12
 74
     0
 42
0.00000001
 43
0.00000001
 12
1.0
 22
0.0
 32
0.0
 13
1.0
 23
0.0
 33
0.0
 40
0.0
 40
0.0
 40
0.0
 40
0.0
 40
0.2499999999999972
 40
0.2499999999999972
 40
0.4999999999999944
 40
0.4999999999999944
 40
0.6249999999999958
 40
0.6249999999999958
 40
0.7499999999999972
 40
0.7499999999999972
 40
1.0
 40
1.0
 40
1.0
 40
1.0
 10
124.5508809979451
 20
769.6435958810663
 30
0.0
 10
124.7948562944755
 20
770.2412108674101
 30
0.0
 10
124.9995502499665
 20
770.8534436445851
 30
0.0
 10
125.279404022292
 20
772.0808999406958
 30
0.0
 10
125.3548125965831
 20
772.6979496982341
 30
0.0
 10
125.3546864573504
 20
773.629354241239
 30
0.0
 10
125.3359949911568
 20
773.9407825541442
 30
0.0
 10
125.2618201340998
 20
774.5655333461586
 30
0.0
 10
125.2066438857791
 20
774.8760288683203
 30
0.0
 10
124.9953068457035
 20
775.7964012637958
 30
0.0
 10
124.7933437813339
 20
776.3981550084982
 30
0.0
 10
124.550880997945
 20
776.992065109416
 30
0.0
  0
SPLINE
  5
121
330
1F
100
AcDbEntity
  8
0
  6
Continuous
 62
     7
370
    15
100
AcDbSpline
210
0.0
220
0.0
230
1.0
 70
     8
 71
     3
 72
    10
 73
     6
 74
     0
 42
0.00000001
 43
0.00000001
 12
1.0
 22
0.0
 32
0.0
 13
1.0
 23
0.0
 33
0.0
 40
0.0
 40
0.0
 40
0.0
 40
0.0
 40
0.1326313793274105
 40
0.566272437656685
 40
0.9999999999999999
 40
0.9999999999999999
 40
0.9999999999999999
 40
0.9999999999999999
 10
125.1622336601338
 20
776.2713795286309
 30
0.0
 10
125.1461126447281
 20
776.3037626304463
 30
0.0
 10
125.0772836335424
 20
776.4420229584085
 30
0.0
 10
124.8749525158668
 20
776.6830255559368
 30
0.0
 10
124.6589138338021
 20
776.8890411956329
 30
0.0
 10
124.5508837198338
 20
776.9920592886101
 30
0.0
  0
LINE
  5
122
330
1F
100
AcDbEntity
  8
0
  6
Continuous
 62
     7
370
    15
100
AcDbLine
 10
125.7877397036
 20
772.7875029427
 30
0.0
 11
125.7877397036
 21
775.2038752419
 31
0.0
  0
LINE
  5
123
330
1F
100
AcDbEntity
  8
0
  6
Continuous
 62
     7
370
    15
100
AcDbLine
 10
125.7877397036
 20
758.7038641554
 30
0.0
 11
125.7877397036
 21
772.7875029427
 31
0.0
  0
SPLINE
  5
124
330
1F
100
AcDbEntity
  8
0
  6
Continuous
 62
     7
370
    15
100
AcDbSpline
210
0.0
220
0.0
230
1.0
 70
     8
 71
     3
 72
    16
 73
    12
 74
     0
 42
0.00000001
 43
0.00000001
 12
1.0
 22
0.0
 32
0.0
 13
1.0
 23
0.0
 33
0.0
 40
0.0
 40
0.0
 40
0.0
 40
0.0
 40
0.2499999999999958
 40
0.2499999999999958
 40
0.4999999999999917
 40
0.4999999999999917
 40
0.6249999999999923
 40
0.6249999999999923
 40
0.749999999999993
 40
0.749999999999993
 40
1.0
 40
1.0
 40
1.0
 40
1.0
 10
116.6246015563161
 20
769.6435958810663
 30
0.0
 10
116.3806262597857
 20
770.2412108674101
 30
0.0
 10
116.1759323042947
 20
770.8534436445851
 30
0.0
 10
115.8960785319692
 20
772.0808999406959
 30
0.0
 10
115.8206699576781
 20
772.6979496982342
 30
0.0
 10
115.8207960969107
 20
773.6293542412391
 30
0.0
 10
115.8394875631044
 20
773.9407825541442
 30
0.0
 10
115.9136624201615
 20
774.5655333461588
 30
0.0
 10
115.9688386684822
 20
774.8760288683203
 30
0.0
 10
116.1801757085577
 20
775.7964012637957
 30
0.0
 10
116.3821387729272
 20
776.3981550084981
 30
0.0
 10
116.6246015563162
 20
776.992065109416
 30
0.0
  0
SPLINE
  5
125
330
1F
100
AcDbEntity
  8
0
  6
Continuous
 62
     7
370
    15
100
AcDbSpline
210
0.0
220
0.0
230
1.0
 70
     8
 71
     3
 72
    16
 73
    12
 74
     0
 42
0.00000001
 43
0.00000001
 12
1.0
 22
0.0
 32
0.0
 13
1.0
 23
0.0
 33
0.0
 40
0.0
 40
0.0
 40
0.0
 40
0.0
 40
0.2499999999999943
 40
0.2499999999999943
 40
0.4999999999999887
 40
0.4999999999999887
 40
0.6249999999999896
 40
0.6249999999999896
 40
0.7499999999999906
 40
0.7499999999999906
 40
1.0
 40
1.0
 40
1.0
 40
1.0
 10
116.6246015563158
 20
756.9156738197087
 30
0.0
 10
116.3796800417334
 20
757.1352644422896
 30
0.0
 10
116.1778203216969
 20
757.35645606704
 30
0.0
 10
115.8981790500999
 20
757.803452440983
 30
0.0
 10
115.8213199153714
 20
758.0292914848762
 30
0.0
 10
115.8204757542023
 20
758.3723050047944
 30
0.0
 10
115.8392648408723
 20
758.4871808325964
 30
0.0
 10
115.9125323329532
 20
758.7144173382615
 30
0.0
 10
115.9669363846166
 20
758.827273751515
 30
0.0
 10
116.1770154429687
 20
759.1638337370358
 30
0.0
 10
116.379374736136
 20
759.3855358841216
 30
0.0
 10
116.624601556316
 20
759.6054002362127
 30
0.0
  0
SPLINE
  5
126
330
1F
100
AcDbEntity
  8
0
  6
Continuous
 62
     7
370
    15
100
AcDbSpline
210
0.0
220
0.0
230
1.0
 70
     8
 71
     3
 72
    10
 73
     6
 74
     0
 42
0.00000001
 43
0.00000001
 12
1.0
 22
0.0
 32
0.0
 13
1.0
 23
0.0
 33
0.0
 40
0.0
 40
0.0
 40
0.0
 40
0.0
 40
0.4890196813942188
 40
0.9779002660241853
 40
0.9999999999999999
 40
0.9999999999999999
 40
0.9999999999999999
 40
0.9999999999999999
 10
116.6245984529576
 20
776.9920592886101
 30
0.0
 10
116.504712406438
 20
776.875772018997
 30
0.0
 10
116.2649744137874
 20
776.6432305565232
 30
0.0
 10
116.0614518683977
 20
776.4018825784276
 30
0.0
 10
116.0089050308632
 20
776.2767897529858
 30
0.0
 10
116.0066323970876
 20
776.2713795286309
 30
0.0
  0
SPLINE
  5
127
330
1F
100
AcDbEntity
  8
0
  6
Continuous
 62
     7
370
    15
100
AcDbSpline
210
0.0
220
0.0
230
1.0
 70
     8
 71
     3
 72
    16
 73
    12
 74
     0
 42
0.00000001
 43
0.00000001
 12
1.0
 22
0.0
 32
0.0
 13
1.0
 23
0.0
 33
0.0
 40
0.0
 40
0.0
 40
0.0
 40
0.0
 40
0.2500000000000038
 40
0.2500000000000038
 40
0.5000000000000075
 40
0.5000000000000075
 40
0.6250000000000057
 40
0.6250000000000057
 40
0.7500000000000038
 40
0.7500000000000038
 40
1.0
 40
1.0
 40
1.0
 40
1.0
 10
124.5508809979455
 20
463.0366542625907
 30
0.0
 10
124.7958025125279
 20
462.8170636400097
 30
0.0
 10
124.9976622325644
 20
462.5958720152593
 30
0.0
 10
125.2773035041615
 20
462.1488756413162
 30
0.0
 10
125.3541626388898
 20
461.923036597423
 30
0.0
 10
125.355006800059
 20
461.580023077505
 30
0.0
 10
125.3362177133889
 20
461.4651472497028
 30
0.0
 10
125.262950221308
 20
461.2379107440378
 30
0.0
 10
125.2085461696447
 20
461.1250543307842
 30
0.0
 10
124.9984671112926
 20
460.7884943452635
 30
0.0
 10
124.7961078181254
 20
460.5667921981777
 30
0.0
 10
124.5508809979453
 20
460.3469278460864
 30
0.0
  0
SPLINE
  5
128
330
1F
100
AcDbEntity
  8
0
  6
Continuous
 62
     7
370
    15
100
AcDbSpline
210
0.0
220
0.0
230
1.0
 70
     8
 71
     3
 72
    10
 73
     6
 74
     0
 42
0.00000001
 43
0.00000001
 12
1.0
 22
0.0
 32
0.0
 13
1.0
 23
0.0
 33
0.0
 40
0.0
 40
0.0
 40
0.0
 40
0.0
 40
0.4890196813942188
 40
0.9779002660241853
 40
0.9999999999999999
 40
0.9999999999999999
 40
0.9999999999999999
 40
0.9999999999999999
 10
124.5508837198338
 20
442.9602687936913
 30
0.0
 10
124.6707697663535
 20
443.0765560633045
 30
0.0
 10
124.9105077590042
 20
443.3090975257782
 30
0.0
 10
125.1140303043937
 20
443.5504455038739
 30
0.0
 10
125.1665771419282
 20
443.6755383293157
 30
0.0
 10
125.1688497757039
 20
443.6809485536706
 30
0.0
  0
SPLINE
  5
129
330
1F
100
AcDbEntity
  8
0
  6
Continuous
 62
     7
370
    15
100
AcDbSpline
210
0.0
220
0.0
230
1.0
 70
     8
 71
     3
 72
    16
 73
    12
 74
     0
 42
0.00000001
 43
0.00000001
 12
1.0
 22
0.0
 32
0.0
 13
1.0
 23
0.0
 33
0.0
 40
0.0
 40
0.0
 40
0.0
 40
0.0
 40
0.2499999999999944
 40
0.2499999999999944
 40
0.4999999999999889
 40
0.4999999999999889
 40
0.6249999999999917
 40
0.6249999999999917
 40
0.7499999999999944
 40
0.7499999999999944
 40
1.0
 40
1.0
 40
1.0
 40
1.0
 10
124.5508809979451
 20
442.9602629728832
 30
0.0
 10
124.7948562944755
 20
443.557877959227
 30
0.0
 10
124.9995502499665
 20
444.1701107364019
 30
0.0
 10
125.279404022292
 20
445.3975670325127
 30
0.0
 10
125.3548125965831
 20
446.014616790051
 30
0.0
 10
125.3546864573504
 20
446.9460213330557
 30
0.0
 10
125.3359949911568
 20
447.2574496459609
 30
0.0
 10
125.2618201340998
 20
447.8822004379755
 30
0.0
 10
125.2066438857791
 20
448.1926959601371
 30
0.0
 10
124.9953068457036
 20
449.1130683556125
 30
0.0
 10
124.793343781334
 20
449.7148221003149
 30
0.0
 10
124.5508809979451
 20
450.3087322012328
 30
0.0
  0
SPLINE
  5
12A
330
1F
100
AcDbEntity
  8
0
  6
Continuous
 62
     7
370
    15
100
AcDbSpline
210
0.0
220
0.0
230
1.0
 70
     8
 71
     3
 72
    16
 73
    12
 74
     0
 42
0.00000001
 43
0.00000001
 12
1.0
 22
0.0
 32
0.0
 13
1.0
 23
0.0
 33
0.0
 40
0.0
 40
0.0
 40
0.0
 40
0.0
 40
0.2499999999999972
 40
0.2499999999999972
 40
0.4999999999999944
 40
0.4999999999999944
 40
0.6249999999999958
 40
0.6249999999999958
 40
0.7499999999999972
 40
0.7499999999999972
 40
1.0
 40
1.0
 40
1.0
 40
1.0
 10
124.5508809979455
 20
460.3469278460865
 30
0.0
 10
124.7958025125278
 20
459.5274044857491
 30
0.0
 10
124.9976622325644
 20
458.7019061039716
 30
0.0
 10
125.2773035041615
 20
457.033692925617
 30
0.0
 10
125.3541626388898
 20
456.1908501394749
 30
0.0
 10
125.355006800059
 20
454.9107062554575
 30
0.0
 10
125.3362177133888
 20
454.4819838295383
 30
0.0
 10
125.262950221308
 20
453.633925645062
 30
0.0
 10
125.2085461696447
 20
453.2127397768395
 30
0.0
 10
124.9984671112925
 20
451.9566808110815
 30
0.0
 10
124.7961078181252
 20
451.1292771340101
 30
0.0
 10
124.5508809979452
 20
450.3087322012327
 30
0.0
  0
LINE
  5
12B
330
1F
100
AcDbEntity
  8
0
  6
Continuous
 62
     7
370
    15
100
AcDbLine
 10
125.7877397036
 20
447.1648251396
 30
0.0
 11
125.7877397036
 21
461.2484639269
 31
0.0
  0
LINE
  5
12C
330
1F
100
AcDbEntity
  8
0
  6
Continuous
 62
     7
370
    15
100
AcDbLine
 10
125.7877397036
 20
444.7484528404
 30
0.0
 11
125.7877397036
 21
447.1648251396
 31
0.0
  0
LINE
  5
12D
330
1F
100
AcDbEntity
  8
0
  6
Continuous
 62
     7
370
    15
100
AcDbLine
 10
116.624598453
 20
460.3469287735
 30
0.0
 11
124.5508837198
 21
460.3469287735
 31
0.0
  0
LINE
  5
12E
330
1F
100
AcDbEntity
  8
0
  6
Continuous
 62
     7
370
    15
100
AcDbLine
 10
116.624598453
 20
450.308731733
 30
0.0
 11
124.5508837198
 21
450.308731733
 31
0.0
  0
SPLINE
  5
12F
330
1F
100
AcDbEntity
  8
0
  6
Continuous
 62
     7
370
    15
100
AcDbSpline
210
0.0
220
0.0
230
1.0
 70
     8
 71
     3
 72
    16
 73
    12
 74
     0
 42
0.00000001
 43
0.00000001
 12
1.0
 22
0.0
 32
0.0
 13
1.0
 23
0.0
 33
0.0
 40
0.0
 40
0.0
 40
0.0
 40
0.0
 40
0.250000000000001
 40
0.250000000000001
 40
0.500000000000002
 40
0.500000000000002
 40
0.6250000000000014
 40
0.6250000000000014
 40
0.750000000000001
 40
0.750000000000001
 40
1.0
 40
1.0
 40
1.0
 40
1.0
 10
116.6246015563158
 20
450.3087322012327
 30
0.0
 10
116.3796800417334
 20
451.12825556157
 30
0.0
 10
116.1778203216969
 20
451.9537539433476
 30
0.0
 10
115.8981790500999
 20
453.6219671217023
 30
0.0
 10
115.8213199153715
 20
454.4648099078443
 30
0.0
 10
115.8204757542023
 20
455.7449537918617
 30
0.0
 10
115.8392648408724
 20
456.173676217781
 30
0.0
 10
115.9125323329533
 20
457.0217344022573
 30
0.0
 10
115.9669363846166
 20
457.4429202704798
 30
0.0
 10
116.1770154429687
 20
458.6989792362377
 30
0.0
 10
116.379374736136
 20
459.5263829133091
 30
0.0
 10
116.624601556316
 20
460.3469278460865
 30
0.0
  0
SPLINE
  5
130
330
1F
100
AcDbEntity
  8
0
  6
Continuous
 62
     7
370
    15
100
AcDbSpline
210
0.0
220
0.0
230
1.0
 70
     8
 71
     3
 72
    16
 73
    12
 74
     0
 42
0.00000001
 43
0.00000001
 12
1.0
 22
0.0
 32
0.0
 13
1.0
 23
0.0
 33
0.0
 40
0.0
 40
0.0
 40
0.0
 40
0.0
 40
0.25
 40
0.25
 40
0.5
 40
0.5
 40
0.625
 40
0.625
 40
0.75
 40
0.75
 40
1.0
 40
1.0
 40
1.0
 40
1.0
 10
116.6246015563161
 20
442.9602629728832
 30
0.0
 10
116.3806262597857
 20
443.5578779592271
 30
0.0
 10
116.1759323042947
 20
444.170110736402
 30
0.0
 10
115.8960785319692
 20
445.3975670325127
 30
0.0
 10
115.8206699576781
 20
446.014616790051
 30
0.0
 10
115.8207960969108
 20
446.9460213330557
 30
0.0
 10
115.8394875631044
 20
447.2574496459611
 30
0.0
 10
115.9136624201615
 20
447.8822004379755
 30
0.0
 10
115.9688386684822
 20
448.1926959601371
 30
0.0
 10
116.1801757085577
 20
449.1130683556125
 30
0.0
 10
116.3821387729272
 20
449.7148221003149
 30
0.0
 10
116.6246015563162
 20
450.3087322012328
 30
0.0
  0
SPLINE
  5
131
330
1F
100
AcDbEntity
  8
0
  6
Continuous
 62
     7
370
    15
100
AcDbSpline
210
0.0
220
0.0
230
1.0
 70
     8
 71
     3
 72
    10
 73
     6
 74
     0
 42
0.00000001
 43
0.00000001
 12
1.0
 22
0.0
 32
0.0
 13
1.0
 23
0.0
 33
0.0
 40
0.0
 40
0.0
 40
0.0
 40
0.0
 40
0.1326313793274105
 40
0.566272437656685
 40
0.9999999999999999
 40
0.9999999999999999
 40
0.9999999999999999
 40
0.9999999999999999
 10
116.0132485126576
 20
443.6809485536706
 30
0.0
 10
116.0293695280633
 20
443.6485654518552
 30
0.0
 10
116.0981985392491
 20
443.510305123893
 30
0.0
 10
116.3005296569247
 20
443.2693025263648
 30
0.0
 10
116.5165683389893
 20
443.0632868866686
 30
0.0
 10
116.6245984529576
 20
442.9602687936913
 30
0.0
  0
SPLINE
  5
132
330
1F
100
AcDbEntity
  8
0
  6
Continuous
 62
     7
370
    15
100
AcDbSpline
210
0.0
220
0.0
230
1.0
 70
     8
 71
     3
 72
    16
 73
    12
 74
     0
 42
0.00000001
 43
0.00000001
 12
1.0
 22
0.0
 32
0.0
 13
1.0
 23
0.0
 33
0.0
 40
0.0
 40
0.0
 40
0.0
 40
0.0
 40
0.2499999999999971
 40
0.2499999999999971
 40
0.4999999999999942
 40
0.4999999999999942
 40
0.6249999999999976
 40
0.6249999999999976
 40
0.7500000000000009
 40
0.7500000000000009
 40
1.0
 40
1.0
 40
1.0
 40
1.0
 10
116.6246015563158
 20
460.3469278460864
 30
0.0
 10
116.3796800417334
 20
460.5665184686673
 30
0.0
 10
116.1778203216969
 20
460.7877100934177
 30
0.0
 10
115.8981790500999
 20
461.2347064673608
 30
0.0
 10
115.8213199153714
 20
461.460545511254
 30
0.0
 10
115.8204757542023
 20
461.8035590311721
 30
0.0
 10
115.8392648408724
 20
461.9184348589743
 30
0.0
 10
115.9125323329532
 20
462.1456713646393
 30
0.0
 10
115.9669363846166
 20
462.258527777893
 30
0.0
 10
116.1770154429686
 20
462.5950877634136
 30
0.0
 10
116.379374736136
 20
462.8167899104995
 30
0.0
 10
116.624601556316
 20
463.0366542625907
 30
0.0
  0
LINE
  5
133
330
1F
100
AcDbEntity
  8
0
  6
Continuous
 62
     7
370
    15
100
AcDbLine
 10
116.624598453
 20
776.9920592886
 30
0.0
 11
124.5508837198
 21
776.9920592886
 31
0.0
  0
LINE
  5
134
330
1F
100
AcDbEntity
  8
0
  6
Continuous
 62
     7
370
    15
100
AcDbLine
 10
116.624598453
 20
442.9602687937
 30
0.0
 11
124.5508837198
 21
442.9602687937
 31
0.0
  0
LINE
  5
135
330
1F
100
AcDbEntity
  8
0
  6
Continuous
 62
     7
370
    15
100
AcDbLine
 10
116.624598453
 20
756.9156801087
 30
0.0
 11
124.5508837198
 21
756.9156801087
 31
0.0
  0
LINE
  5
136
330
1F
100
AcDbEntity
  8
0
  6
Continuous
 62
     7
370
    15
100
AcDbLine
 10
116.624598453
 20
463.0366479736
 30
0.0
 11
124.5508837198
 21
463.0366479736
 31
0.0
  0
LINE
  5
137
330
1F
100
AcDbEntity
  8
0
  6
Continuous
 62
     7
370
    15
100
AcDbLine
 10
165.8877405023
 20
771.196505962
 30
0.0
 11
165.8877405023
 21
772.9538744074
 31
0.0
  0
LINE
  5
138
330
1F
100
AcDbEntity
  8
0
  6
Continuous
 62
     7
370
    15
100
AcDbLine
 10
165.8877405023
 20
760.9538649899
 30
0.0
 11
165.8877405023
 21
771.196505962
 31
0.0
  0
LINE
  5
139
330
1F
100
AcDbEntity
  8
0
  6
Continuous
 62
     7
370
    15
100
AcDbLine
 10
165.8877405023
 20
448.7558221203
 30
0.0
 11
165.8877405023
 21
458.9984630924
 31
0.0
  0
LINE
  5
13A
330
1F
100
AcDbEntity
  8
0
  6
Continuous
 62
     7
370
    15
100
AcDbLine
 10
165.8877405023
 20
446.9984536749
 30
0.0
 11
165.8877405023
 21
448.7558221203
 31
0.0
  0
LINE
  5
13B
330
1F
100
AcDbEntity
  8
0
  6
Continuous
 62
     7
370
    15
100
AcDbLine
 10
-58.1122589613
 20
783.3715295178
 30
0.0
 11
-58.1122589613
 21
827.3715292793
 31
0.0
  0
LINE
  5
13C
330
1F
100
AcDbEntity
  8
0
  6
Continuous
 62
     7
370
    15
100
AcDbLine
 10
243.8877421116
 20
783.3715295178
 30
0.0
 11
243.8877421116
 21
827.3715292793
 31
0.0
  0
SPLINE
  5
13D
330
1F
100
AcDbEntity
  8
0
  6
Continuous
 62
     7
370
    15
100
AcDbSpline
210
0.0
220
0.0
230
1.0
 70
     8
 71
     3
 72
    14
 73
    10
 74
     0
 42
0.00000001
 43
0.00000001
 12
1.0
 22
0.0
 32
0.0
 13
1.0
 23
0.0
 33
0.0
 40
0.0
 40
0.0
 40
0.0
 40
0.0
 40
0.1250000000000022
 40
0.1250000000000022
 40
0.2500000000000045
 40
0.2500000000000045
 40
0.500000000000002
 40
0.500000000000002
 40
1.0
 40
1.0
 40
1.0
 40
1.0
 10
222.3877412771305
 20
814.3715229322453
 30
0.0
 10
222.3877412771305
 20
813.9896232642408
 30
0.0
 10
222.3971703825527
 20
813.6058130290869
 30
0.0
 10
222.43457235984
 20
812.8417636129465
 30
0.0
 10
222.4625049518105
 20
812.4610631835538
 30
0.0
 10
222.5727964345893
 20
811.3227624324935
 30
0.0
 10
222.6817104825648
 20
810.568971463023
 30
0.0
 10
223.1017805303728
 20
808.3209864947955
 30
0.0
 10
223.5059012945802
 20
806.8401283436565
 30
0.0
 10
223.9954364317172
 20
805.3715229322453
 30
0.0
  0
SPLINE
  5
13E
330
1F
100
AcDbEntity
  8
0
  6
Continuous
 62
     7
370
    15
100
AcDbSpline
210
0.0
220
0.0
230
1.0
 70
     8
 71
     3
 72
    10
 73
     6
 74
     0
 42
0.00000001
 43
0.00000001
 12
1.0
 22
0.0
 32
0.0
 13
1.0
 23
0.0
 33
0.0
 40
0.0
 40
0.0
 40
0.0
 40
0.0
 40
0.5
 40
0.5
 40
1.0
 40
1.0
 40
1.0
 40
1.0
 10
223.9954364317171
 20
805.3715229322454
 30
0.0
 10
223.5046756136576
 20
803.8992404780665
 30
0.0
 10
223.1003617624253
 20
802.4162041067285
 30
0.0
 10
222.5409630888119
 20
799.4191275194024
 30
0.0
 10
222.3877412771305
 20
797.9048555467264
 30
0.0
 10
222.3877412771306
 20
796.3715229322452
 30
0.0
  0
LINE
  5
13F
330
1F
100
AcDbEntity
  8
0
  6
Continuous
 62
     7
370
    15
100
AcDbLine
 10
222.3877395188
 20
814.3715178352
 30
0.0
 11
222.3877395188
 21
796.3715260607
 31
0.0
  0
LINE
  5
140
330
1F
100
AcDbEntity
  8
0
  6
Continuous
 62
     7
370
    15
100
AcDbLine
 10
243.0877416079
 20
796.3715260607
 30
0.0
 11
243.0877416079
 21
805.3715293985
 31
0.0
  0
LINE
  5
141
330
1F
100
AcDbEntity
  8
0
  6
Continuous
 62
     7
370
    15
100
AcDbLine
 10
243.0877416079
 20
787.3715227228
 30
0.0
 11
243.0877416079
 21
796.3715260607
 31
0.0
  0
LINE
  5
142
330
1F
100
AcDbEntity
  8
0
  6
Continuous
 62
     7
370
    15
100
AcDbLine
 10
243.0877416079
 20
787.3715227228
 30
0.0
 11
223.9954369759
 21
787.3715227228
 31
0.0
  0
SPLINE
  5
143
330
1F
100
AcDbEntity
  8
0
  6
Continuous
 62
     7
370
    15
100
AcDbSpline
210
0.0
220
0.0
230
1.0
 70
     8
 71
     3
 72
    14
 73
    10
 74
     0
 42
0.00000001
 43
0.00000001
 12
1.0
 22
0.0
 32
0.0
 13
1.0
 23
0.0
 33
0.0
 40
0.0
 40
0.0
 40
0.0
 40
0.0
 40
0.1249999999999996
 40
0.1249999999999996
 40
0.2499999999999992
 40
0.2499999999999992
 40
0.4999999999999987
 40
0.4999999999999987
 40
1.0
 40
1.0
 40
1.0
 40
1.0
 10
222.3877412771306
 20
796.3715229322452
 30
0.0
 10
222.3877412771305
 20
795.9896232642407
 30
0.0
 10
222.3971703825528
 20
795.6058130290868
 30
0.0
 10
222.43457235984
 20
794.8417636129464
 30
0.0
 10
222.4625049518105
 20
794.4610631835538
 30
0.0
 10
222.5727964345893
 20
793.3227624324935
 30
0.0
 10
222.6817104825648
 20
792.5689714630231
 30
0.0
 10
223.1017805303728
 20
790.3209864947956
 30
0.0
 10
223.5059012945802
 20
788.8401283436565
 30
0.0
 10
223.9954364317172
 20
787.3715229322453
 30
0.0
  0
LINE
  5
144
330
1F
100
AcDbEntity
  8
0
  6
Continuous
 62
     7
370
    15
100
AcDbLine
 10
243.0877416079
 20
805.3715293985
 30
0.0
 11
223.9954369759
 21
805.3715293985
 31
0.0
  0
LINE
  5
145
330
1F
100
AcDbEntity
  8
0
  6
Continuous
 62
     7
370
    15
100
AcDbLine
 10
243.0877416079
 20
814.3715178352
 30
0.0
 11
243.0877416079
 21
823.3715211731
 31
0.0
  0
SPLINE
  5
146
330
1F
100
AcDbEntity
  8
0
  6
Continuous
 62
     7
370
    15
100
AcDbSpline
210
0.0
220
0.0
230
1.0
 70
     8
 71
     3
 72
    10
 73
     6
 74
     0
 42
0.00000001
 43
0.00000001
 12
1.0
 22
0.0
 32
0.0
 13
1.0
 23
0.0
 33
0.0
 40
0.0
 40
0.0
 40
0.0
 40
0.0
 40
0.5
 40
0.5
 40
1.0
 40
1.0
 40
1.0
 40
1.0
 10
223.9954364317171
 20
823.3715229322454
 30
0.0
 10
223.5046756136575
 20
821.8992404780666
 30
0.0
 10
223.1003617624253
 20
820.4162041067285
 30
0.0
 10
222.5409630888119
 20
817.4191275194025
 30
0.0
 10
222.3877412771305
 20
815.9048555467265
 30
0.0
 10
222.3877412771305
 20
814.3715229322453
 30
0.0
  0
LINE
  5
147
330
1F
100
AcDbEntity
  8
0
  6
Continuous
 62
     7
370
    15
100
AcDbLine
 10
243.0877416079
 20
823.3715211731
 30
0.0
 11
223.9954369759
 21
823.3715211731
 31
0.0
  0
LINE
  5
148
330
1F
100
AcDbEntity
  8
0
  6
Continuous
 62
     7
370
    15
100
AcDbLine
 10
243.0877416079
 20
805.3715293985
 30
0.0
 11
243.0877416079
 21
814.3715178352
 31
0.0
  0
SPLINE
  5
149
330
1F
100
AcDbEntity
  8
0
  6
Continuous
 62
     7
370
    15
100
AcDbSpline
210
0.0
220
0.0
230
1.0
 70
     8
 71
     3
 72
    14
 73
    10
 74
     0
 42
0.00000001
 43
0.00000001
 12
1.0
 22
0.0
 32
0.0
 13
1.0
 23
0.0
 33
0.0
 40
0.0
 40
0.0
 40
0.0
 40
0.0
 40
0.1249999999999962
 40
0.1249999999999962
 40
0.2499999999999925
 40
0.2499999999999925
 40
0.4999999999999938
 40
0.4999999999999938
 40
1.0
 40
1.0
 40
1.0
 40
1.0
 10
-36.6122587228693
 20
803.0291138339112
 30
0.0
 10
-36.61225872286936
 20
803.466343686928
 30
0.0
 10
-36.62168782829142
 20
803.90576091287
 30
0.0
 10
-36.65908980557883
 20
804.7805069310122
 30
0.0
 10
-36.68702239754926
 20
805.2163637979651
 30
0.0
 10
-36.79731388032806
 20
806.5195832343047
 30
0.0
 10
-36.90622792830353
 20
807.3825845469507
 30
0.0
 10
-37.32629797611168
 20
809.9562608802611
 30
0.0
 10
-37.73041874031899
 20
811.6516679361108
 30
0.0
 10
-38.21995387745594
 20
813.3330470572979
 30
0.0
  0
SPLINE
  5
14A
330
1F
100
AcDbEntity
  8
0
  6
Continuous
 62
     7
370
    15
100
AcDbSpline
210
0.0
220
0.0
230
1.0
 70
     8
 71
     3
 72
    10
 73
     6
 74
     0
 42
0.00000001
 43
0.00000001
 12
1.0
 22
0.0
 32
0.0
 13
1.0
 23
0.0
 33
0.0
 40
0.0
 40
0.0
 40
0.0
 40
0.0
 40
0.5
 40
0.5
 40
1.0
 40
1.0
 40
1.0
 40
1.0
 10
-38.21995387745589
 20
813.3330470572979
 30
0.0
 10
-37.72919305939629
 20
814.3674352745094
 30
0.0
 10
-37.32487920816405
 20
815.409378920482
 30
0.0
 10
-36.76548053455067
 20
817.5150487253563
 30
0.0
 10
-36.6122587228693
 20
818.5789377106147
 30
0.0
 10
-36.6122587228693
 20
819.6562182181585
 30
0.0
  0
LINE
  5
14B
330
1F
100
AcDbEntity
  8
0
  6
Continuous
 62
     7
370
    15
100
AcDbLine
 10
-36.6122675444
 20
803.0291115624
 30
0.0
 11
-36.6122675444
 21
819.6562146526
 31
0.0
  0
LINE
  5
14C
330
1F
100
AcDbEntity
  8
0
  6
Continuous
 62
     7
370
    15
100
AcDbLine
 10
-57.3122454191
 20
803.0291115624
 30
0.0
 11
-57.3122454191
 21
792.7251821142
 31
0.0
  0
LINE
  5
14D
330
1F
100
AcDbEntity
  8
0
  6
Continuous
 62
     7
370
    15
100
AcDbLine
 10
-57.3122454191
 20
813.3330410105
 30
0.0
 11
-57.3122454191
 21
803.0291115624
 31
0.0
  0
LINE
  5
14E
330
1F
100
AcDbEntity
  8
0
  6
Continuous
 62
     7
370
    15
100
AcDbLine
 10
-57.3122454191
 20
813.3330410105
 30
0.0
 11
-38.2199538256
 21
813.3330410105
 31
0.0
  0
SPLINE
  5
14F
330
1F
100
AcDbEntity
  8
0
  6
Continuous
 62
     7
370
    15
100
AcDbSpline
210
0.0
220
0.0
230
1.0
 70
     8
 71
     3
 72
    10
 73
     6
 74
     0
 42
0.00000001
 43
0.00000001
 12
1.0
 22
0.0
 32
0.0
 13
1.0
 23
0.0
 33
0.0
 40
0.0
 40
0.0
 40
0.0
 40
0.0
 40
0.5
 40
0.5
 40
1.0
 40
1.0
 40
1.0
 40
1.0
 10
-38.21995387745583
 20
792.7251806105244
 30
0.0
 10
-37.72919305939623
 20
794.4107695098379
 30
0.0
 10
-37.32487920816405
 20
796.1086703696292
 30
0.0
 10
-36.76548053455067
 20
799.5399678164273
 30
0.0
 10
-36.6122587228693
 20
801.2736297373717
 30
0.0
 10
-36.6122587228693
 20
803.0291138339112
 30
0.0
  0
LINE
  5
150
330
1F
100
AcDbEntity
  8
0
  6
Continuous
 62
     7
370
    15
100
AcDbLine
 10
-57.3122454191
 20
792.7251821142
 30
0.0
 11
-38.2199538256
 21
792.7251821142
 31
0.0
  0
LINE
  5
151
330
1F
100
AcDbEntity
  8
0
  6
Continuous
 62
     7
370
    15
100
AcDbLine
 10
-36.6122675444
 20
788.7444114071
 30
0.0
 11
-36.6122675444
 21
803.0291115624
 31
0.0
  0
SPLINE
  5
152
330
1F
100
AcDbEntity
  8
0
  6
Continuous
 62
     7
370
    15
100
AcDbSpline
210
0.0
220
0.0
230
1.0
 70
     8
 71
     3
 72
    12
 73
     8
 74
     0
 42
0.00000001
 43
0.00000001
 12
1.0
 22
0.0
 32
0.0
 13
1.0
 23
0.0
 33
0.0
 40
0.0
 40
0.0
 40
0.0
 40
0.0
 40
0.2499999999999999
 40
0.2499999999999999
 40
0.4999999999999998
 40
0.4999999999999998
 40
1.0
 40
1.0
 40
1.0
 40
1.0
 10
-38.21995387745606
 20
792.7251806105245
 30
0.0
 10
-37.97599102990287
 20
792.4014612611226
 30
0.0
 10
-37.75201653508495
 20
792.0747685859262
 30
0.0
 10
-37.35459183059606
 20
791.4138676006901
 30
0.0
 10
-37.18289288559748
 20
791.0823350109197
 30
0.0
 10
-36.7632083027368
 20
790.0854270250596
 30
0.0
 10
-36.61225872286936
 20
789.4171018702493
 30
0.0
 10
-36.6122587228693
 20
788.7444185479982
 30
0.0
  0
LINE
  5
153
330
1F
100
AcDbEntity
  8
0
  6
Continuous
 62
     7
370
    15
100
AcDbLine
 10
-57.3122454191
 20
825.9793882948
 30
0.0
 11
-57.3122454191
 21
819.6562146526
 31
0.0
  0
LINE
  5
154
330
1F
100
AcDbEntity
  8
0
  6
Continuous
 62
     7
370
    15
100
AcDbLine
 10
-57.3122454191
 20
825.9793882948
 30
0.0
 11
-38.2199538256
 21
825.9793882948
 31
0.0
  0
SPLINE
  5
155
330
1F
100
AcDbEntity
  8
0
  6
Continuous
 62
     7
370
    15
100
AcDbSpline
210
0.0
220
0.0
230
1.0
 70
     8
 71
     3
 72
    14
 73
    10
 74
     0
 42
0.00000001
 43
0.00000001
 12
1.0
 22
0.0
 32
0.0
 13
1.0
 23
0.0
 33
0.0
 40
0.0
 40
0.0
 40
0.0
 40
0.0
 40
0.1250000000000009
 40
0.1250000000000009
 40
0.2500000000000018
 40
0.2500000000000018
 40
0.4999999999999988
 40
0.4999999999999988
 40
1.0
 40
1.0
 40
1.0
 40
1.0
 10
-36.6122587228693
 20
819.6562182181585
 30
0.0
 10
-36.61225872286936
 20
819.9245312144993
 30
0.0
 10
-36.62168782829142
 20
820.1941865267403
 30
0.0
 10
-36.65908980557883
 20
820.7309882193638
 30
0.0
 10
-36.68702239754926
 20
820.9984586611486
 30
0.0
 10
-36.79731388032801
 20
821.7981998257586
 30
0.0
 10
-36.90622792830353
 20
822.3277941945888
 30
0.0
 10
-37.32629797611162
 20
823.9071712747159
 30
0.0
 10
-37.73041874031893
 20
824.9475845585613
 30
0.0
 10
-38.21995387745594
 20
825.9793893790189
 30
0.0
  0
LINE
  5
156
330
1F
100
AcDbEntity
  8
0
  6
Continuous
 62
     7
370
    15
100
AcDbLine
 10
-57.3122454191
 20
819.6562146526
 30
0.0
 11
-57.3122454191
 21
813.3330410105
 31
0.0
  0
SPLINE
  5
157
330
1F
100
AcDbEntity
  8
0
  6
Continuous
 62
     7
370
    15
100
AcDbSpline
210
0.0
220
0.0
230
1.0
 70
     8
 71
     3
 72
    12
 73
     8
 74
     0
 42
0.00000001
 43
0.00000001
 12
1.0
 22
0.0
 32
0.0
 13
1.0
 23
0.0
 33
0.0
 40
0.0
 40
0.0
 40
0.0
 40
0.0
 40
0.2500000000000012
 40
0.2500000000000012
 40
0.5000000000000023
 40
0.5000000000000023
 40
1.0
 40
1.0
 40
1.0
 40
1.0
 10
-36.6122587228693
 20
788.7444185479982
 30
0.0
 10
-36.61225872286936
 20
788.4078770544303
 30
0.0
 10
-36.64959583405938
 20
788.0702575758659
 30
0.0
 10
-36.7979805204848
 20
787.3928904740633
 30
0.0
 10
-36.90826129627009
 20
787.0566838058593
 30
0.0
 10
-37.33089326850023
 20
786.059433639666
 30
0.0
 10
-37.73487060264238
 20
785.4073235179866
 30
0.0
 10
-38.21995387745606
 20
784.7636564854719
 30
0.0
  0
LINE
  5
158
330
1F
100
AcDbEntity
  8
0
  6
Continuous
 62
     7
370
    15
100
AcDbLine
 10
-57.3122454191
 20
784.7636556011
 30
0.0
 11
-38.2199538256
 21
784.7636556011
 31
0.0
  0
LINE
  5
159
330
1F
100
AcDbEntity
  8
0
  6
Continuous
 62
     7
370
    15
100
AcDbLine
 10
-57.3122454191
 20
784.7636556011
 30
0.0
 11
-57.3122454191
 21
788.7444114071
 31
0.0
  0
LINE
  5
15A
330
1F
100
AcDbEntity
  8
0
  6
Continuous
 62
     7
370
    15
100
AcDbLine
 10
-57.3122454191
 20
788.7444114071
 30
0.0
 11
-57.3122454191
 21
792.7251821142
 31
0.0
  0
SPLINE
  5
15B
330
1F
100
AcDbEntity
  8
0
  6
Continuous
 62
     7
370
    15
100
AcDbSpline
210
0.0
220
0.0
230
1.0
 70
    24
 71
     3
 72
    12
 73
     8
 74
     0
 42
0.00000001
 43
0.00000001
 12
1.0
 22
0.0
 32
0.0
 13
1.0
 23
0.0
 33
0.0
 40
0.0
 40
0.0
 40
0.0
 40
0.0
 40
0.2499999999999981
 40
0.2499999999999981
 40
0.4999999999999962
 40
0.4999999999999962
 40
1.0
 40
1.0
 40
1.0
 40
1.0
 10
222.3877412771306
 20
823.3715229322454
 30
0.0
 10
222.3877412771305
 20
823.3715229322454
 30
0.0
 10
222.4250783883206
 20
823.3715229322454
 30
0.0
 10
222.5734630747461
 20
823.3715229322454
 30
0.0
 10
222.6837438505313
 20
823.3715229322454
 30
0.0
 10
223.1063758227614
 20
823.3715229322454
 30
0.0
 10
223.5103531569036
 20
823.3715229322452
 30
0.0
 10
223.9954364317173
 20
823.3715229322454
 30
0.0
  0
LINE
  5
15C
330
1F
100
AcDbEntity
  8
0
  6
Continuous
 62
     7
370
    15
100
AcDbLine
 10
222.3877395188
 20
823.3715211731
 30
0.0
 11
222.3877395188
 21
814.3715178352
 31
0.0
  0
SPLINE
  5
15D
330
1F
100
AcDbEntity
  8
0
  6
Continuous
 62
     7
370
    15
100
AcDbSpline
210
0.0
220
0.0
230
1.0
 70
    24
 71
     3
 72
    12
 73
     8
 74
     0
 42
0.00000001
 43
0.00000001
 12
1.0
 22
0.0
 32
0.0
 13
1.0
 23
0.0
 33
0.0
 40
0.0
 40
0.0
 40
0.0
 40
0.0
 40
0.249999999999998
 40
0.249999999999998
 40
0.499999999999996
 40
0.499999999999996
 40
1.0
 40
1.0
 40
1.0
 40
1.0
 10
222.3877412771306
 20
787.3715229322453
 30
0.0
 10
222.3877412771306
 20
787.3715229322453
 30
0.0
 10
222.4250783883206
 20
787.3715229322453
 30
0.0
 10
222.5734630747461
 20
787.3715229322453
 30
0.0
 10
222.6837438505313
 20
787.3715229322453
 30
0.0
 10
223.1063758227614
 20
787.3715229322453
 30
0.0
 10
223.5103531569036
 20
787.3715229322453
 30
0.0
 10
223.9954364317173
 20
787.3715229322453
 30
0.0
  0
LINE
  5
15E
330
1F
100
AcDbEntity
  8
0
  6
Continuous
 62
     7
370
    15
100
AcDbLine
 10
222.3877395188
 20
787.3715227228
 30
0.0
 11
222.3877395188
 21
796.3715260607
 31
0.0
  0
LINE
  5
15F
330
1F
100
AcDbEntity
  8
0
  6
Continuous
 62
     7
370
    15
100
AcDbLine
 10
380.3877430653
 20
793.5978239161
 30
0.0
 11
380.3877430653
 21
817.3715239149
 31
0.0
  0
LINE
  5
160
330
1F
100
AcDbEntity
  8
0
  6
Continuous
 62
     7
370
    15
100
AcDbLine
 10
380.3877430653
 20
793.371519981
 30
0.0
 11
380.3877430653
 21
793.5978239161
 31
0.0
  0
LINE
  5
161
330
1F
100
AcDbEntity
  8
0
  6
Continuous
 62
     7
370
    15
100
AcDbLine
 10
-194.612259915
 20
793.5978239161
 30
0.0
 11
-194.612259915
 21
817.3715239149
 31
0.0
  0
LINE
  5
162
330
1F
100
AcDbEntity
  8
0
  6
Continuous
 62
     7
370
    15
100
AcDbLine
 10
-194.612259915
 20
793.371519981
 30
0.0
 11
-194.612259915
 21
793.5978239161
 31
0.0
  0
SPLINE
  5
163
330
1F
100
AcDbEntity
  8
0
  6
Continuous
 62
     7
370
    15
100
AcDbSpline
210
0.0
220
0.0
230
1.0
 70
     8
 71
     3
 72
     9
 73
     5
 74
     0
 42
0.00000001
 43
0.00000001
 12
1.0
 22
0.0
 32
0.0
 13
1.0
 23
0.0
 33
0.0
 40
0.0
 40
0.0
 40
0.0
 40
0.0
 40
0.8980088387130482
 40
1.0
 40
1.0
 40
1.0
 40
1.0
 10
-38.21995382556106
 20
825.9793882948052
 30
0.0
 10
-37.97192413844577
 20
825.6459214171336
 30
0.0
 10
-37.69572453280404
 20
825.2745811103393
 30
0.0
 10
-37.49692944477559
 20
824.8963807844982
 30
0.0
 10
-37.47665410288955
 20
824.8578076940667
 30
0.0
  0
LINE
  5
164
330
1F
100
AcDbEntity
  8
0
  6
Continuous
 62
     7
370
    15
100
AcDbLine
 10
-36.6122675444
 20
819.6562146526
 30
0.0
 11
-36.6122675444
 21
823.3715211731
 31
0.0
  0
LINE
  5
165
330
1F
100
AcDbEntity
  8
0
  6
Continuous
 62
     7
370
    15
100
AcDbLine
 10
-36.6122675444
 20
788.7444114071
 30
0.0
 11
-36.6122675444
 21
787.3715227228
 31
0.0
  0
LINE
  5
166
330
1F
100
AcDbEntity
  8
0
  6
Continuous
 62
     7
370
    15
100
AcDbLine
 10
112.8877448534
 20
845.9761654717
 30
0.0
 11
112.8877448534
 21
817.3715239149
 31
0.0
  0
LINE
  5
167
330
1F
100
AcDbEntity
  8
0
  6
Continuous
 62
     7
370
    15
100
AcDbLine
 10
115.3877424692
 20
831.9761669022
 30
0.0
 11
115.3877424692
 21
843.9761614185
 31
0.0
  0
LINE
  5
168
330
1F
100
AcDbEntity
  8
0
  6
Continuous
 62
     7
370
    15
100
AcDbLine
 10
115.3877424692
 20
819.9761574846
 30
0.0
 11
115.3877424692
 21
831.9761669022
 31
0.0
  0
LINE
  5
169
330
1F
100
AcDbEntity
  8
0
  6
Continuous
 62
     7
370
    15
100
AcDbLine
 10
115.3877424692
 20
375.9761666638
 30
0.0
 11
115.3877424692
 21
399.9761705977
 31
0.0
  0
SPLINE
  5
16A
330
1F
100
AcDbEntity
  8
0
  6
Continuous
 62
     7
370
    15
100
AcDbSpline
210
0.0
220
0.0
230
1.0
 70
    24
 71
     3
 72
    11
 73
     7
 74
     0
 42
0.00000001
 43
0.00000001
 12
1.0
 22
0.0
 32
0.0
 13
1.0
 23
0.0
 33
0.0
 40
0.0
 40
0.0
 40
0.0
 40
0.0
 40
0.2663525986627063
 40
0.5156165659569694
 40
0.7648184317252038
 40
0.9999999999999999
 40
0.9999999999999999
 40
0.9999999999999999
 40
0.9999999999999999
 10
116.6245984529576
 20
840.9761702400338
 30
0.0
 10
116.5011965207079
 20
840.9761702400338
 30
0.0
 10
116.2623098687341
 20
840.9761702400338
 30
0.0
 10
116.011513163989
 20
840.9761702400338
 30
0.0
 10
115.8485413552534
 20
840.9761702400338
 30
0.0
 10
115.8330066222659
 20
840.9761702400338
 30
0.0
 10
115.8254640792927
 20
840.9761702400338
 30
0.0
  0
SPLINE
  5
16B
330
1F
100
AcDbEntity
  8
0
  6
Continuous
 62
     7
370
    15
100
AcDbSpline
210
0.0
220
0.0
230
1.0
 70
     8
 71
     3
 72
    16
 73
    12
 74
     0
 42
0.00000001
 43
0.00000001
 12
1.0
 22
0.0
 32
0.0
 13
1.0
 23
0.0
 33
0.0
 40
0.0
 40
0.0
 40
0.0
 40
0.0
 40
0.2499999999999984
 40
0.2499999999999984
 40
0.4999999999999969
 40
0.4999999999999969
 40
0.624999999999996
 40
0.624999999999996
 40
0.7499999999999951
 40
0.7499999999999951
 40
1.0
 40
1.0
 40
1.0
 40
1.0
 10
116.6246015563158
 20
831.9761640411505
 30
0.0
 10
116.3796800417334
 20
832.7109285848977
 30
0.0
 10
116.1778203216969
 20
833.451050186314
 30
0.0
 10
115.8981790500999
 20
834.9467292043742
 30
0.0
 10
115.8213199153715
 20
835.7024013733228
 30
0.0
 10
115.8204757542023
 20
836.8501469805789
 30
0.0
 10
115.8392648408724
 20
837.2345289920264
 30
0.0
 10
115.9125323329532
 20
837.9948771591993
 30
0.0
 10
115.9669363846166
 20
838.3725020778714
 30
0.0
 10
116.1770154429687
 20
839.4986537381667
 30
0.0
 10
116.3793747361359
 20
840.2404835806107
 30
0.0
 10
116.624601556316
 20
840.9761640411506
 30
0.0
  0
SPLINE
  5
16C
330
1F
100
AcDbEntity
  8
0
  6
Continuous
 62
     7
370
    15
100
AcDbSpline
210
0.0
220
0.0
230
1.0
 70
     8
 71
     3
 72
    16
 73
    12
 74
     0
 42
0.00000001
 43
0.00000001
 12
1.0
 22
0.0
 32
0.0
 13
1.0
 23
0.0
 33
0.0
 40
0.0
 40
0.0
 40
0.0
 40
0.0
 40
0.2500000000000017
 40
0.2500000000000017
 40
0.5000000000000033
 40
0.5000000000000033
 40
0.6250000000000043
 40
0.6250000000000043
 40
0.7500000000000052
 40
0.7500000000000052
 40
1.0
 40
1.0
 40
1.0
 40
1.0
 10
116.6246015563158
 20
822.9761640411506
 30
0.0
 10
116.3796800417334
 20
823.7109285848977
 30
0.0
 10
116.1778203216969
 20
824.451050186314
 30
0.0
 10
115.8981790500999
 20
825.9467292043742
 30
0.0
 10
115.8213199153715
 20
826.7024013733228
 30
0.0
 10
115.8204757542023
 20
827.8501469805789
 30
0.0
 10
115.8392648408724
 20
828.2345289920263
 30
0.0
 10
115.9125323329532
 20
828.9948771591993
 30
0.0
 10
115.9669363846166
 20
829.3725020778713
 30
0.0
 10
116.1770154429687
 20
830.4986537381667
 30
0.0
 10
116.379374736136
 20
831.2404835806105
 30
0.0
 10
116.624601556316
 20
831.9761640411506
 30
0.0
  0
SPLINE
  5
16D
330
1F
100
AcDbEntity
  8
0
  6
Continuous
 62
     7
370
    15
100
AcDbSpline
210
0.0
220
0.0
230
1.0
 70
    24
 71
     3
 72
    11
 73
     7
 74
     0
 42
0.00000001
 43
0.00000001
 12
1.0
 22
0.0
 32
0.0
 13
1.0
 23
0.0
 33
0.0
 40
0.0
 40
0.0
 40
0.0
 40
0.0
 40
0.2223418845273219
 40
0.4779598272875455
 40
0.7336459942938375
 40
1.0
 40
1.0
 40
1.0
 40
1.0
 10
115.8264326547704
 20
822.9761635643135
 30
0.0
 10
115.8326094001336
 20
822.9761635643135
 30
0.0
 10
115.8458873128997
 20
822.9761635643134
 30
0.0
 10
116.0056229283665
 20
822.9761635643135
 30
0.0
 10
116.2593396625986
 20
822.9761635643135
 30
0.0
 10
116.5011980720382
 20
822.9761635643135
 30
0.0
 10
116.6245984529576
 20
822.9761635643135
 30
0.0
  0
LINE
  5
16E
330
1F
100
AcDbEntity
  8
0
  6
Continuous
 62
     7
370
    15
100
AcDbLine
 10
116.624598453
 20
840.97617024
 30
0.0
 11
124.5508837198
 21
840.97617024
 31
0.0
  0
SPLINE
  5
16F
330
1F
100
AcDbEntity
  8
0
  6
Continuous
 62
     7
370
    15
100
AcDbSpline
210
0.0
220
0.0
230
1.0
 70
     8
 71
     3
 72
    16
 73
    12
 74
     0
 42
0.00000001
 43
0.00000001
 12
1.0
 22
0.0
 32
0.0
 13
1.0
 23
0.0
 33
0.0
 40
0.0
 40
0.0
 40
0.0
 40
0.0
 40
0.2500000000000034
 40
0.2500000000000034
 40
0.5000000000000069
 40
0.5000000000000069
 40
0.6250000000000051
 40
0.6250000000000051
 40
0.7500000000000034
 40
0.7500000000000034
 40
1.0
 40
1.0
 40
1.0
 40
1.0
 10
124.5508809979454
 20
840.9761640411507
 30
0.0
 10
124.7958025125279
 20
840.2413994974036
 30
0.0
 10
124.9976622325643
 20
839.5012778959873
 30
0.0
 10
125.2773035041614
 20
838.0055988779269
 30
0.0
 10
125.3541626388897
 20
837.2499267089784
 30
0.0
 10
125.3550068000589
 20
836.1021811017223
 30
0.0
 10
125.3362177133888
 20
835.7177990902748
 30
0.0
 10
125.262950221308
 20
834.9574509231019
 30
0.0
 10
125.2085461696447
 20
834.5798260044298
 30
0.0
 10
124.9984671112926
 20
833.4536743441346
 30
0.0
 10
124.7961078181252
 20
832.7118445016905
 30
0.0
 10
124.5508809979452
 20
831.9761640411505
 30
0.0
  0
LINE
  5
170
330
1F
100
AcDbEntity
  8
0
  6
Continuous
 62
     7
370
    15
100
AcDbLine
 10
116.624598453
 20
831.9761669022
 30
0.0
 11
124.5508837198
 21
831.9761669022
 31
0.0
  0
SPLINE
  5
171
330
1F
100
AcDbEntity
  8
0
  6
Continuous
 62
     7
370
    15
100
AcDbSpline
210
0.0
220
0.0
230
1.0
 70
     8
 71
     3
 72
    16
 73
    12
 74
     0
 42
0.00000001
 43
0.00000001
 12
1.0
 22
0.0
 32
0.0
 13
1.0
 23
0.0
 33
0.0
 40
0.0
 40
0.0
 40
0.0
 40
0.0
 40
0.2500000000000017
 40
0.2500000000000017
 40
0.5000000000000034
 40
0.5000000000000034
 40
0.6250000000000043
 40
0.6250000000000043
 40
0.7500000000000051
 40
0.7500000000000051
 40
1.0
 40
1.0
 40
1.0
 40
1.0
 10
124.5508809979455
 20
831.9761640411506
 30
0.0
 10
124.7958025125278
 20
831.2413994974034
 30
0.0
 10
124.9976622325644
 20
830.5012778959873
 30
0.0
 10
125.2773035041615
 20
829.005598877927
 30
0.0
 10
125.3541626388898
 20
828.2499267089784
 30
0.0
 10
125.3550068000589
 20
827.1021811017223
 30
0.0
 10
125.3362177133889
 20
826.7177990902748
 30
0.0
 10
125.262950221308
 20
825.9574509231019
 30
0.0
 10
125.2085461696447
 20
825.5798260044298
 30
0.0
 10
124.9984671112926
 20
824.4536743441345
 30
0.0
 10
124.7961078181253
 20
823.7118445016906
 30
0.0
 10
124.5508809979453
 20
822.9761640411506
 30
0.0
  0
LINE
  5
172
330
1F
100
AcDbEntity
  8
0
  6
Continuous
 62
     7
370
    15
100
AcDbLine
 10
116.624598453
 20
822.9761635643
 30
0.0
 11
124.5508837198
 21
822.9761635643
 31
0.0
  0
SPLINE
  5
173
330
1F
100
AcDbEntity
  8
0
  6
Continuous
 62
     7
370
    15
100
AcDbSpline
210
0.0
220
0.0
230
1.0
 70
    24
 71
     3
 72
    11
 73
     7
 74
     0
 42
0.00000001
 43
0.00000001
 12
1.0
 22
0.0
 32
0.0
 13
1.0
 23
0.0
 33
0.0
 40
0.0
 40
0.0
 40
0.0
 40
0.0
 40
0.2663525986627063
 40
0.5156165659569694
 40
0.7648184317252038
 40
0.9999999999999999
 40
0.9999999999999999
 40
0.9999999999999999
 40
0.9999999999999999
 10
124.5508837198338
 20
822.9761635643135
 30
0.0
 10
124.6742856520836
 20
822.9761635643135
 30
0.0
 10
124.9131723040573
 20
822.9761635643135
 30
0.0
 10
125.1639690088025
 20
822.9761635643135
 30
0.0
 10
125.3269408175379
 20
822.9761635643135
 30
0.0
 10
125.3424755505255
 20
822.9761635643135
 30
0.0
 10
125.3500180934987
 20
822.9761635643135
 30
0.0
  0
SPLINE
  5
174
330
1F
100
AcDbEntity
  8
0
  6
Continuous
 62
     7
370
    15
100
AcDbSpline
210
0.0
220
0.0
230
1.0
 70
    24
 71
     3
 72
    11
 73
     7
 74
     0
 42
0.00000001
 43
0.00000001
 12
1.0
 22
0.0
 32
0.0
 13
1.0
 23
0.0
 33
0.0
 40
0.0
 40
0.0
 40
0.0
 40
0.0
 40
0.2223418845273219
 40
0.4779598272875455
 40
0.7336459942938375
 40
1.0
 40
1.0
 40
1.0
 40
1.0
 10
125.3490495180211
 20
840.9761702400338
 30
0.0
 10
125.3428727726579
 20
840.9761702400338
 30
0.0
 10
125.3295948598919
 20
840.9761702400336
 30
0.0
 10
125.1698592444249
 20
840.9761702400338
 30
0.0
 10
124.9161425101929
 20
840.9761702400338
 30
0.0
 10
124.6742841007532
 20
840.9761702400338
 30
0.0
 10
124.5508837198338
 20
840.9761702400338
 30
0.0
  0
LINE
  5
175
330
1F
100
AcDbEntity
  8
0
  6
Continuous
 62
     7
370
    15
100
AcDbLine
 10
125.7877397036
 20
823.7261688095
 30
0.0
 11
125.7877397036
 21
840.2261649948
 31
0.0
  0
LINE
  5
176
330
1F
100
AcDbEntity
  8
0
  6
Continuous
 62
     7
370
    15
100
AcDbLine
 10
116.624598453
 20
396.976164518
 30
0.0
 11
124.5508837198
 21
396.976164518
 31
0.0
  0
SPLINE
  5
177
330
1F
100
AcDbEntity
  8
0
  6
Continuous
 62
     7
370
    15
100
AcDbSpline
210
0.0
220
0.0
230
1.0
 70
     8
 71
     3
 72
    16
 73
    12
 74
     0
 42
0.00000001
 43
0.00000001
 12
1.0
 22
0.0
 32
0.0
 13
1.0
 23
0.0
 33
0.0
 40
0.0
 40
0.0
 40
0.0
 40
0.0
 40
0.2499999999999982
 40
0.2499999999999982
 40
0.4999999999999964
 40
0.4999999999999964
 40
0.624999999999999
 40
0.624999999999999
 40
0.7500000000000016
 40
0.7500000000000016
 40
1.0
 40
1.0
 40
1.0
 40
1.0
 10
124.5508809979455
 20
396.9761640411508
 30
0.0
 10
124.7958025125279
 20
396.2413994974036
 30
0.0
 10
124.9976622325644
 20
395.5012778959874
 30
0.0
 10
125.2773035041615
 20
394.0055988779272
 30
0.0
 10
125.3541626388898
 20
393.2499267089784
 30
0.0
 10
125.3550068000589
 20
392.1021811017225
 30
0.0
 10
125.3362177133889
 20
391.7177990902749
 30
0.0
 10
125.262950221308
 20
390.957450923102
 30
0.0
 10
125.2085461696446
 20
390.5798260044299
 30
0.0
 10
124.9984671112926
 20
389.4536743441346
 30
0.0
 10
124.7961078181253
 20
388.7118445016907
 30
0.0
 10
124.5508809979453
 20
387.9761640411508
 30
0.0
  0
LINE
  5
178
330
1F
100
AcDbEntity
  8
0
  6
Continuous
 62
     7
370
    15
100
AcDbLine
 10
116.624598453
 20
387.9761611801
 30
0.0
 11
124.5508837198
 21
387.9761611801
 31
0.0
  0
SPLINE
  5
179
330
1F
100
AcDbEntity
  8
0
  6
Continuous
 62
     7
370
    15
100
AcDbSpline
210
0.0
220
0.0
230
1.0
 70
     8
 71
     3
 72
    16
 73
    12
 74
     0
 42
0.00000001
 43
0.00000001
 12
1.0
 22
0.0
 32
0.0
 13
1.0
 23
0.0
 33
0.0
 40
0.0
 40
0.0
 40
0.0
 40
0.0
 40
0.2500000000000001
 40
0.2500000000000001
 40
0.5000000000000001
 40
0.5000000000000001
 40
0.6250000000000001
 40
0.6250000000000001
 40
0.7500000000000002
 40
0.7500000000000002
 40
1.0
 40
1.0
 40
1.0
 40
1.0
 10
116.6246015563158
 20
387.9761640411507
 30
0.0
 10
116.3796800417334
 20
388.7109285848979
 30
0.0
 10
116.1778203216969
 20
389.4510501863141
 30
0.0
 10
115.8981790500999
 20
390.9467292043744
 30
0.0
 10
115.8213199153715
 20
391.7024013733231
 30
0.0
 10
115.8204757542023
 20
392.8501469805792
 30
0.0
 10
115.8392648408724
 20
393.2345289920266
 30
0.0
 10
115.9125323329532
 20
393.9948771591995
 30
0.0
 10
115.9669363846166
 20
394.3725020778716
 30
0.0
 10
116.1770154429687
 20
395.4986537381669
 30
0.0
 10
116.379374736136
 20
396.2404835806108
 30
0.0
 10
116.624601556316
 20
396.9761640411508
 30
0.0
  0
SPLINE
  5
17A
330
1F
100
AcDbEntity
  8
0
  6
Continuous
 62
     7
370
    15
100
AcDbSpline
210
0.0
220
0.0
230
1.0
 70
    24
 71
     3
 72
    13
 73
     9
 74
     0
 42
0.00000001
 43
0.00000001
 12
1.0
 22
0.0
 32
0.0
 13
1.0
 23
0.0
 33
0.0
 40
0.0
 40
0.0
 40
0.0
 40
0.0
 40
0.0202177273900238
 40
0.2756270723546788
 40
0.4558406025497853
 40
0.6360709919441101
 40
0.8180279454828743
 40
1.0
 40
1.0
 40
1.0
 40
1.0
 10
115.8254640792927
 20
378.9761578422677
 30
0.0
 10
115.8240909852308
 20
378.9761578422677
 30
0.0
 10
115.8053716757333
 20
378.9761578422675
 30
0.0
 10
115.8680352494399
 20
378.9761578422678
 30
0.0
 10
115.9922464453891
 20
378.9761578422677
 30
0.0
 10
116.1593801961412
 20
378.9761578422676
 30
0.0
 10
116.3677384256392
 20
378.9761578422678
 30
0.0
 10
116.5389760753895
 20
378.9761578422677
 30
0.0
 10
116.6245984529576
 20
378.9761578422677
 30
0.0
  0
SPLINE
  5
17B
330
1F
100
AcDbEntity
  8
0
  6
Continuous
 62
     7
370
    15
100
AcDbSpline
210
0.0
220
0.0
230
1.0
 70
    24
 71
     3
 72
    13
 73
     9
 74
     0
 42
0.00000001
 43
0.00000001
 12
1.0
 22
0.0
 32
0.0
 13
1.0
 23
0.0
 33
0.0
 40
0.0
 40
0.0
 40
0.0
 40
0.0
 40
0.1803396894263314
 40
0.3606648495279782
 40
0.5425248691375312
 40
0.724367061425254
 40
0.9733583677453949
 40
1.0
 40
1.0
 40
1.0
 40
1.0
 10
116.6245984529576
 20
396.9761645179879
 30
0.0
 10
116.5397181053959
 20
396.9761645179879
 30
0.0
 10
116.3699642487789
 20
396.976164517988
 30
0.0
 10
116.1616523900324
 20
396.9761645179879
 30
0.0
 10
115.9934171112052
 20
396.9761645179879
 30
0.0
 10
115.8692310277925
 20
396.9761645179879
 30
0.0
 10
115.807190693705
 20
396.976164517988
 30
0.0
 10
115.82473672233
 20
396.9761645179879
 30
0.0
 10
115.8264326547704
 20
396.9761645179879
 30
0.0
  0
SPLINE
  5
17C
330
1F
100
AcDbEntity
  8
0
  6
Continuous
 62
     7
370
    15
100
AcDbSpline
210
0.0
220
0.0
230
1.0
 70
     8
 71
     3
 72
    16
 73
    12
 74
     0
 42
0.00000001
 43
0.00000001
 12
1.0
 22
0.0
 32
0.0
 13
1.0
 23
0.0
 33
0.0
 40
0.0
 40
0.0
 40
0.0
 40
0.0
 40
0.2499999999999983
 40
0.2499999999999983
 40
0.4999999999999966
 40
0.4999999999999966
 40
0.6249999999999958
 40
0.6249999999999958
 40
0.749999999999995
 40
0.749999999999995
 40
1.0
 40
1.0
 40
1.0
 40
1.0
 10
116.6246015563158
 20
378.9761640411508
 30
0.0
 10
116.3796800417334
 20
379.7109285848979
 30
0.0
 10
116.1778203216969
 20
380.4510501863141
 30
0.0
 10
115.8981790500998
 20
381.9467292043744
 30
0.0
 10
115.8213199153715
 20
382.7024013733231
 30
0.0
 10
115.8204757542023
 20
383.850146980579
 30
0.0
 10
115.8392648408724
 20
384.2345289920266
 30
0.0
 10
115.9125323329532
 20
384.9948771591995
 30
0.0
 10
115.9669363846166
 20
385.3725020778717
 30
0.0
 10
116.1770154429687
 20
386.4986537381669
 30
0.0
 10
116.379374736136
 20
387.2404835806107
 30
0.0
 10
116.624601556316
 20
387.9761640411508
 30
0.0
  0
SPLINE
  5
17D
330
1F
100
AcDbEntity
  8
0
  6
Continuous
 62
     7
370
    15
100
AcDbSpline
210
0.0
220
0.0
230
1.0
 70
    24
 71
     3
 72
    13
 73
     9
 74
     0
 42
0.00000001
 43
0.00000001
 12
1.0
 22
0.0
 32
0.0
 13
1.0
 23
0.0
 33
0.0
 40
0.0
 40
0.0
 40
0.0
 40
0.0
 40
0.0202177273900238
 40
0.2756270723546788
 40
0.4558406025497853
 40
0.6360709919441101
 40
0.8180279454828743
 40
1.0
 40
1.0
 40
1.0
 40
1.0
 10
125.3500180934987
 20
396.9761645179879
 30
0.0
 10
125.3513911875606
 20
396.9761645179879
 30
0.0
 10
125.3701104970579
 20
396.9761645179877
 30
0.0
 10
125.3074469233516
 20
396.976164517988
 30
0.0
 10
125.1832357274024
 20
396.9761645179879
 30
0.0
 10
125.0161019766501
 20
396.9761645179879
 30
0.0
 10
124.8077437471523
 20
396.9761645179879
 30
0.0
 10
124.6365060974019
 20
396.9761645179879
 30
0.0
 10
124.5508837198338
 20
396.9761645179879
 30
0.0
  0
SPLINE
  5
17E
330
1F
100
AcDbEntity
  8
0
  6
Continuous
 62
     7
370
    15
100
AcDbSpline
210
0.0
220
0.0
230
1.0
 70
    24
 71
     3
 72
    13
 73
     9
 74
     0
 42
0.00000001
 43
0.00000001
 12
1.0
 22
0.0
 32
0.0
 13
1.0
 23
0.0
 33
0.0
 40
0.0
 40
0.0
 40
0.0
 40
0.0
 40
0.1803396894263314
 40
0.3606648495279782
 40
0.5425248691375312
 40
0.724367061425254
 40
0.9733583677453949
 40
1.0
 40
1.0
 40
1.0
 40
1.0
 10
124.5508837198338
 20
378.9761578422677
 30
0.0
 10
124.6357640673955
 20
378.9761578422677
 30
0.0
 10
124.8055179240126
 20
378.9761578422677
 30
0.0
 10
125.013829782759
 20
378.9761578422677
 30
0.0
 10
125.1820650615862
 20
378.9761578422677
 30
0.0
 10
125.3062511449989
 20
378.9761578422677
 30
0.0
 10
125.3682914790866
 20
378.9761578422675
 30
0.0
 10
125.3507454504615
 20
378.9761578422677
 30
0.0
 10
125.3490495180211
 20
378.9761578422677
 30
0.0
  0
SPLINE
  5
17F
330
1F
100
AcDbEntity
  8
0
  6
Continuous
 62
     7
370
    15
100
AcDbSpline
210
0.0
220
0.0
230
1.0
 70
     8
 71
     3
 72
    16
 73
    12
 74
     0
 42
0.00000001
 43
0.00000001
 12
1.0
 22
0.0
 32
0.0
 13
1.0
 23
0.0
 33
0.0
 40
0.0
 40
0.0
 40
0.0
 40
0.0
 40
0.2499999999999983
 40
0.2499999999999983
 40
0.4999999999999967
 40
0.4999999999999967
 40
0.6249999999999958
 40
0.6249999999999958
 40
0.749999999999995
 40
0.749999999999995
 40
1.0
 40
1.0
 40
1.0
 40
1.0
 10
124.5508809979455
 20
387.9761640411508
 30
0.0
 10
124.7958025125279
 20
387.2413994974037
 30
0.0
 10
124.9976622325643
 20
386.5012778959874
 30
0.0
 10
125.2773035041614
 20
385.0055988779271
 30
0.0
 10
125.3541626388897
 20
384.2499267089784
 30
0.0
 10
125.3550068000589
 20
383.1021811017225
 30
0.0
 10
125.3362177133889
 20
382.7177990902749
 30
0.0
 10
125.262950221308
 20
381.957450923102
 30
0.0
 10
125.2085461696446
 20
381.5798260044299
 30
0.0
 10
124.9984671112925
 20
380.4536743441346
 30
0.0
 10
124.7961078181252
 20
379.7118445016906
 30
0.0
 10
124.5508809979452
 20
378.9761640411508
 30
0.0
  0
LINE
  5
180
330
1F
100
AcDbEntity
  8
0
  6
Continuous
 62
     7
370
    15
100
AcDbLine
 10
125.7877397036
 20
379.7261630875
 30
0.0
 11
125.7877397036
 21
396.2261592728
 31
0.0
  0
LINE
  5
181
330
1F
100
AcDbEntity
  8
0
  6
Continuous
 62
     7
370
    15
100
AcDbLine
 10
116.624598453
 20
378.9761578423
 30
0.0
 11
124.5508837198
 21
378.9761578423
 31
0.0
  0
LINE
  5
182
330
1F
100
AcDbEntity
  8
0
  6
Continuous
 62
     7
370
    15
100
AcDbLine
 10
165.8877405023
 20
825.976169644
 30
0.0
 11
165.8877405023
 21
837.9761641604
 31
0.0
  0
LINE
  5
183
330
1F
100
AcDbEntity
  8
0
  6
Continuous
 62
     7
370
    15
100
AcDbLine
 10
165.8877405023
 20
381.9761639219
 30
0.0
 11
165.8877405023
 21
393.9761584383
 31
0.0
  0
LINE
  5
184
330
1F
100
AcDbEntity
  8
0
  6
Continuous
 62
     7
370
    15
100
AcDbLine
 10
-58.1122589613
 20
393.9761584383
 30
0.0
 11
-58.1122589613
 21
413.9761691672
 31
0.0
  0
LINE
  5
185
330
1F
100
AcDbEntity
  8
0
  6
Continuous
 62
     7
370
    15
100
AcDbLine
 10
243.8877421116
 20
392.580798803
 30
0.0
 11
243.8877421116
 21
428.9761697632
 31
0.0
  0
LINE
  5
186
330
1F
100
AcDbEntity
  8
0
  6
Continuous
 62
     7
370
    15
100
AcDbLine
 10
243.0877416079
 20
405.5808102471
 30
0.0
 11
243.0877416079
 21
414.5807986838
 31
0.0
  0
LINE
  5
187
330
1F
100
AcDbEntity
  8
0
  6
Continuous
 62
     7
370
    15
100
AcDbLine
 10
243.0877416079
 20
396.5808069092
 30
0.0
 11
243.0877416079
 21
405.5808102471
 31
0.0
  0
LINE
  5
188
330
1F
100
AcDbEntity
  8
0
  6
Continuous
 62
     7
370
    15
100
AcDbLine
 10
243.0877416079
 20
396.5808069092
 30
0.0
 11
223.9954369759
 21
396.5808069092
 31
0.0
  0
SPLINE
  5
189
330
1F
100
AcDbEntity
  8
0
  6
Continuous
 62
     7
370
    15
100
AcDbSpline
210
0.0
220
0.0
230
1.0
 70
     8
 71
     3
 72
    14
 73
    10
 74
     0
 42
0.00000001
 43
0.00000001
 12
1.0
 22
0.0
 32
0.0
 13
1.0
 23
0.0
 33
0.0
 40
0.0
 40
0.0
 40
0.0
 40
0.0
 40
0.1249999999999997
 40
0.1249999999999997
 40
0.2499999999999994
 40
0.2499999999999994
 40
0.4999999999999991
 40
0.4999999999999991
 40
1.0
 40
1.0
 40
1.0
 40
1.0
 10
222.3877412771306
 20
405.5808051500569
 30
0.0
 10
222.3877412771306
 20
405.1989054820523
 30
0.0
 10
222.3971703825527
 20
404.8150952468985
 30
0.0
 10
222.4345723598401
 20
404.051045830758
 30
0.0
 10
222.4625049518105
 20
403.6703454013654
 30
0.0
 10
222.5727964345893
 20
402.5320446503051
 30
0.0
 10
222.6817104825648
 20
401.7782536808347
 30
0.0
 10
223.1017805303728
 20
399.5302687126073
 30
0.0
 10
223.5059012945802
 20
398.049410561468
 30
0.0
 10
223.9954364317172
 20
396.5808051500569
 30
0.0
  0
SPLINE
  5
18A
330
1F
100
AcDbEntity
  8
0
  6
Continuous
 62
     7
370
    15
100
AcDbSpline
210
0.0
220
0.0
230
1.0
 70
     8
 71
     3
 72
    10
 73
     6
 74
     0
 42
0.00000001
 43
0.00000001
 12
1.0
 22
0.0
 32
0.0
 13
1.0
 23
0.0
 33
0.0
 40
0.0
 40
0.0
 40
0.0
 40
0.0
 40
0.5
 40
0.5
 40
1.0
 40
1.0
 40
1.0
 40
1.0
 10
223.9954364317171
 20
414.5808051500568
 30
0.0
 10
223.5046756136576
 20
413.108522695878
 30
0.0
 10
223.1003617624253
 20
411.62548632454
 30
0.0
 10
222.5409630888119
 20
408.628409737214
 30
0.0
 10
222.3877412771306
 20
407.114137764538
 30
0.0
 10
222.3877412771306
 20
405.5808051500569
 30
0.0
  0
LINE
  5
18B
330
1F
100
AcDbEntity
  8
0
  6
Continuous
 62
     7
370
    15
100
AcDbLine
 10
243.0877416079
 20
414.5807986838
 30
0.0
 11
223.9954369759
 21
414.5807986838
 31
0.0
  0
LINE
  5
18C
330
1F
100
AcDbEntity
  8
0
  6
Continuous
 62
     7
370
    15
100
AcDbLine
 10
243.0877416079
 20
423.5808020216
 30
0.0
 11
243.0877416079
 21
428.9761697632
 31
0.0
  0
SPLINE
  5
18D
330
1F
100
AcDbEntity
  8
0
  6
Continuous
 62
     7
370
    15
100
AcDbSpline
210
0.0
220
0.0
230
1.0
 70
     8
 71
     3
 72
    14
 73
    10
 74
     0
 42
0.00000001
 43
0.00000001
 12
1.0
 22
0.0
 32
0.0
 13
1.0
 23
0.0
 33
0.0
 40
0.0
 40
0.0
 40
0.0
 40
0.0
 40
0.1250000000000044
 40
0.1250000000000044
 40
0.2500000000000089
 40
0.2500000000000089
 40
0.5000000000000089
 40
0.5000000000000089
 40
1.0
 40
1.0
 40
1.0
 40
1.0
 10
222.3877412771306
 20
423.5808051500569
 30
0.0
 10
222.3877412771306
 20
423.1989054820524
 30
0.0
 10
222.3971703825527
 20
422.8150952468984
 30
0.0
 10
222.43457235984
 20
422.051045830758
 30
0.0
 10
222.4625049518105
 20
421.6703454013655
 30
0.0
 10
222.5727964345893
 20
420.532044650305
 30
0.0
 10
222.6817104825648
 20
419.7782536808347
 30
0.0
 10
223.1017805303728
 20
417.5302687126072
 30
0.0
 10
223.5059012945802
 20
416.049410561468
 30
0.0
 10
223.9954364317172
 20
414.5808051500568
 30
0.0
  0
SPLINE
  5
18E
330
1F
100
AcDbEntity
  8
0
  6
Continuous
 62
     7
370
    15
100
AcDbSpline
210
0.0
220
0.0
230
1.0
 70
     8
 71
     3
 72
    11
 73
     7
 74
     0
 42
0.00000001
 43
0.00000001
 12
1.0
 22
0.0
 32
0.0
 13
1.0
 23
0.0
 33
0.0
 40
0.0
 40
0.0
 40
0.0
 40
0.0
 40
0.1507706622011568
 40
0.4338032581902395
 40
0.7170178601360345
 40
1.0
 40
1.0
 40
1.0
 40
1.0
 10
223.0025018250069
 20
428.9761697631967
 30
0.0
 10
222.9424278151145
 20
428.7082596960823
 30
0.0
 10
222.7695805194705
 20
427.9374183512251
 30
0.0
 10
222.5759456886539
 20
426.6497470618515
 30
0.0
 10
222.4171954405601
 20
425.1179904497211
 30
0.0
 10
222.3975554715369
 20
424.0930578962553
 30
0.0
 10
222.3877395187936
 20
423.5808020216119
 30
0.0
  0
LINE
  5
18F
330
1F
100
AcDbEntity
  8
0
  6
Continuous
 62
     7
370
    15
100
AcDbLine
 10
243.0877416079
 20
414.5807986838
 30
0.0
 11
243.0877416079
 21
423.5808020216
 31
0.0
  0
LINE
  5
190
330
1F
100
AcDbEntity
  8
0
  6
Continuous
 62
     7
370
    15
100
AcDbLine
 10
222.3877395188
 20
423.5808020216
 30
0.0
 11
222.3877395188
 21
405.5808102471
 31
0.0
  0
LINE
  5
191
330
1F
100
AcDbEntity
  8
0
  6
Continuous
 62
     7
370
    15
100
AcDbLine
 10
-57.3122454191
 20
412.2383957487
 30
0.0
 11
-57.3122454191
 21
401.9344663006
 31
0.0
  0
LINE
  5
192
330
1F
100
AcDbEntity
  8
0
  6
Continuous
 62
     7
370
    15
100
AcDbLine
 10
-57.3122454191
 20
413.9761691672
 30
0.0
 11
-57.3122454191
 21
412.2383957487
 31
0.0
  0
SPLINE
  5
193
330
1F
100
AcDbEntity
  8
0
  6
Continuous
 62
     7
370
    15
100
AcDbSpline
210
0.0
220
0.0
230
1.0
 70
     8
 71
     3
 72
     9
 73
     5
 74
     0
 42
0.00000001
 43
0.00000001
 12
1.0
 22
0.0
 32
0.0
 13
1.0
 23
0.0
 33
0.0
 40
0.0
 40
0.0
 40
0.0
 40
0.0
 40
0.4214710539873555
 40
1.0
 40
1.0
 40
1.0
 40
1.0
 10
-36.61226754435684
 20
412.2383957487237
 30
0.0
 10
-36.61322769309685
 20
412.4827600761822
 30
0.0
 10
-36.61550578249575
 20
413.0625491866007
 30
0.0
 10
-36.65089301267424
 20
413.6413285513107
 30
0.0
 10
-36.67136554965164
 20
413.9761691671502
 30
0.0
  0
SPLINE
  5
194
330
1F
100
AcDbEntity
  8
0
  6
Continuous
 62
     7
370
    15
100
AcDbSpline
210
0.0
220
0.0
230
1.0
 70
     8
 71
     3
 72
    10
 73
     6
 74
     0
 42
0.00000001
 43
0.00000001
 12
1.0
 22
0.0
 32
0.0
 13
1.0
 23
0.0
 33
0.0
 40
0.0
 40
0.0
 40
0.0
 40
0.0
 40
0.5
 40
0.5
 40
1.0
 40
1.0
 40
1.0
 40
1.0
 10
-38.21995387745583
 20
401.9344628283359
 30
0.0
 10
-37.72919305939623
 20
403.6200517276495
 30
0.0
 10
-37.32487920816405
 20
405.3179525874406
 30
0.0
 10
-36.76548053455067
 20
408.7492500342389
 30
0.0
 10
-36.6122587228693
 20
410.4829119551834
 30
0.0
 10
-36.6122587228693
 20
412.2383960517228
 30
0.0
  0
LINE
  5
195
330
1F
100
AcDbEntity
  8
0
  6
Continuous
 62
     7
370
    15
100
AcDbLine
 10
-57.3122454191
 20
401.9344663006
 30
0.0
 11
-38.2199538256
 21
401.9344663006
 31
0.0
  0
LINE
  5
196
330
1F
100
AcDbEntity
  8
0
  6
Continuous
 62
     7
370
    15
100
AcDbLine
 10
-36.6122675444
 20
412.2383957487
 30
0.0
 11
-36.6122675444
 21
413.9761691672
 31
0.0
  0
LINE
  5
197
330
1F
100
AcDbEntity
  8
0
  6
Continuous
 62
     7
370
    15
100
AcDbLine
 10
-36.6122675444
 20
397.9536955935
 30
0.0
 11
-36.6122675444
 21
412.2383957487
 31
0.0
  0
SPLINE
  5
198
330
1F
100
AcDbEntity
  8
0
  6
Continuous
 62
     7
370
    15
100
AcDbSpline
210
0.0
220
0.0
230
1.0
 70
     8
 71
     3
 72
    12
 73
     8
 74
     0
 42
0.00000001
 43
0.00000001
 12
1.0
 22
0.0
 32
0.0
 13
1.0
 23
0.0
 33
0.0
 40
0.0
 40
0.0
 40
0.0
 40
0.0
 40
0.2499999999999978
 40
0.2499999999999978
 40
0.4999999999999956
 40
0.4999999999999956
 40
1.0
 40
1.0
 40
1.0
 40
1.0
 10
-36.6122587228693
 20
397.9537007658097
 30
0.0
 10
-36.61225872286936
 20
398.2902422593775
 30
0.0
 10
-36.64959583405938
 20
398.6278617379419
 30
0.0
 10
-36.79798052048486
 20
399.3052288397446
 30
0.0
 10
-36.90826129627015
 20
399.6414355079485
 30
0.0
 10
-37.33089326850017
 20
400.6386856741418
 30
0.0
 10
-37.73487060264238
 20
401.2907957958212
 30
0.0
 10
-38.21995387745606
 20
401.934462828336
 30
0.0
  0
LINE
  5
199
330
1F
100
AcDbEntity
  8
0
  6
Continuous
 62
     7
370
    15
100
AcDbLine
 10
-57.3122454191
 20
397.9536955935
 30
0.0
 11
-57.3122454191
 21
393.9761584383
 31
0.0
  0
SPLINE
  5
19A
330
1F
100
AcDbEntity
  8
0
  6
Continuous
 62
     7
370
    15
100
AcDbSpline
210
0.0
220
0.0
230
1.0
 70
     8
 71
     3
 72
    12
 73
     8
 74
     0
 42
0.00000001
 43
0.00000001
 12
1.0
 22
0.0
 32
0.0
 13
1.0
 23
0.0
 33
0.0
 40
0.0
 40
0.0
 40
0.0
 40
0.0
 40
0.2499999999999999
 40
0.2499999999999999
 40
0.4999999999999998
 40
0.4999999999999998
 40
1.0
 40
1.0
 40
1.0
 40
1.0
 10
-38.21995387745606
 20
393.9729387032835
 30
0.0
 10
-37.97599102990287
 20
394.2966580526853
 30
0.0
 10
-37.75201653508495
 20
394.6233507278817
 30
0.0
 10
-37.35459183059606
 20
395.2842517131178
 30
0.0
 10
-37.18289288559748
 20
395.6157843028882
 30
0.0
 10
-36.7632083027368
 20
396.6126922887483
 30
0.0
 10
-36.61225872286936
 20
397.2810174435586
 30
0.0
 10
-36.6122587228693
 20
397.9537007658097
 30
0.0
  0
LINE
  5
19B
330
1F
100
AcDbEntity
  8
0
  6
Continuous
 62
     7
370
    15
100
AcDbLine
 10
-57.3122454191
 20
401.9344663006
 30
0.0
 11
-57.3122454191
 21
397.9536955935
 31
0.0
  0
LINE
  5
19C
330
1F
100
AcDbEntity
  8
0
  6
Continuous
 62
     7
370
    15
100
AcDbLine
 10
222.3877395188
 20
428.9761697632
 30
0.0
 11
222.3877395188
 21
423.5808020216
 31
0.0
  0
SPLINE
  5
19D
330
1F
100
AcDbEntity
  8
0
  6
Continuous
 62
     7
370
    15
100
AcDbSpline
210
0.0
220
0.0
230
1.0
 70
    24
 71
     3
 72
    12
 73
     8
 74
     0
 42
0.00000001
 43
0.00000001
 12
1.0
 22
0.0
 32
0.0
 13
1.0
 23
0.0
 33
0.0
 40
0.0
 40
0.0
 40
0.0
 40
0.0
 40
0.2499999999999999
 40
0.2499999999999999
 40
0.4999999999999998
 40
0.4999999999999998
 40
1.0
 40
1.0
 40
1.0
 40
1.0
 10
223.9954364317173
 20
396.580805150057
 30
0.0
 10
223.7514735841641
 20
396.5808051500569
 30
0.0
 10
223.5274990893462
 20
396.580805150057
 30
0.0
 10
223.1300743848575
 20
396.5808051500571
 30
0.0
 10
222.9583754398587
 20
396.580805150057
 30
0.0
 10
222.5386908569981
 20
396.580805150057
 30
0.0
 10
222.3877412771305
 20
396.580805150057
 30
0.0
 10
222.3877412771306
 20
396.5808051500571
 30
0.0
  0
LINE
  5
19E
330
1F
100
AcDbEntity
  8
0
  6
Continuous
 62
     7
370
    15
100
AcDbLine
 10
222.3877395188
 20
405.5808102471
 30
0.0
 11
222.3877395188
 21
396.5808069092
 31
0.0
  0
LINE
  5
19F
330
1F
100
AcDbEntity
  8
0
  6
Continuous
 62
     7
370
    15
100
AcDbLine
 10
-194.612259915
 20
402.5808041674
 30
0.0
 11
-194.612259915
 21
426.5808081013
 31
0.0
  0
LINE
  5
1A0
330
1F
100
AcDbEntity
  8
0
  6
Continuous
 62
     7
370
    15
100
AcDbLine
 10
380.3877430653
 20
402.5808041674
 30
0.0
 11
380.3877430653
 21
426.5808081013
 31
0.0
  0
LINE
  5
1A1
330
1F
100
AcDbEntity
  8
0
  6
Continuous
 62
     7
370
    15
100
AcDbLine
 10
-36.6122675444
 20
396.5808069092
 30
0.0
 11
-36.6122675444
 21
397.9536955935
 31
0.0
  0
LINE
  5
1A2
330
1F
100
AcDbEntity
  8
0
  6
Continuous
 62
     7
370
    15
100
AcDbLine
 10
-194.612259915
 20
742.8546463829
 30
0.0
 11
-194.612259915
 21
752.5351708513
 31
0.0
  0
LINE
  5
1A3
330
1F
100
AcDbEntity
  8
0
  6
Continuous
 62
     7
370
    15
100
AcDbLine
 10
-194.612259915
 20
728.5351669174
 30
0.0
 11
-194.612259915
 21
742.8546463829
 31
0.0
  0
LINE
  5
1A4
330
1F
100
AcDbEntity
  8
0
  6
Continuous
 62
     7
370
    15
100
AcDbLine
 10
380.3877430653
 20
742.8546463829
 30
0.0
 11
380.3877430653
 21
752.5351708513
 31
0.0
  0
LINE
  5
1A5
330
1F
100
AcDbEntity
  8
0
  6
Continuous
 62
     7
370
    15
100
AcDbLine
 10
380.3877430653
 20
728.5351669174
 30
0.0
 11
380.3877430653
 21
742.8546463829
 31
0.0
  0
LINE
  5
1A6
330
1F
100
AcDbEntity
  8
0
  6
Continuous
 62
     8
370
     0
100
AcDbLine
 10
109.6367287134
 20
799.2943888289
 30
0.0
 11
109.6367287134
 21
488.9914756399
 31
0.0
  0
LINE
  5
1A7
330
1F
100
AcDbEntity
  8
0
  6
Continuous
 62
     8
370
     0
100
AcDbLine
 10
106.6481518244
 20
797.1066450459
 30
0.0
 11
106.6481518244
 21
490.3822978717
 31
0.0
  0
LINE
  5
1A8
330
1F
100
AcDbEntity
  8
0
  6
Continuous
 62
     8
370
     0
100
AcDbLine
 10
106.6481518244
 20
843.2376300675
 30
0.0
 11
106.6481518244
 21
817.3715239149
 31
0.0
  0
LINE
  5
1A9
330
1F
100
AcDbEntity
  8
0
  6
Continuous
 62
     8
370
     0
100
AcDbLine
 10
106.6481518244
 20
467.417157231
 30
0.0
 11
106.6481518244
 21
376.7146980148
 31
0.0
  0
LINE
  5
1AA
330
1F
100
AcDbEntity
  8
0
  6
Continuous
 62
     8
370
     0
100
AcDbLine
 10
105.2258806919
 20
826.9560849053
 30
0.0
 11
105.2258806919
 21
817.3715239149
 31
0.0
  0
LINE
  5
1AB
330
1F
100
AcDbEntity
  8
0
  6
Continuous
 62
     8
370
     0
100
AcDbLine
 10
105.2258806919
 20
793.371519981
 30
0.0
 11
105.2258806919
 21
772.9538744074
 31
0.0
  0
LINE
  5
1AC
330
1F
100
AcDbEntity
  8
0
  6
Continuous
 62
     8
370
     0
100
AcDbLine
 10
105.2258806919
 20
446.9984536749
 30
0.0
 11
105.2258806919
 21
392.996243177
 31
0.0
  0
LINE
  5
1AD
330
1F
100
AcDbEntity
  8
0
  6
Continuous
 62
     8
370
     0
100
AcDbLine
 10
105.2258806919
 20
603.976163989
 30
0.0
 11
105.2258806919
 21
491.4171611649
 31
0.0
  0
LINE
  5
1AE
330
1F
100
AcDbEntity
  8
0
  6
Continuous
 62
     8
370
     0
100
AcDbLine
 10
105.2258806919
 20
467.417157231
 30
0.0
 11
105.2258806919
 21
458.9984630924
 31
0.0
  0
LINE
  5
1AF
330
1F
100
AcDbEntity
  8
0
  6
Continuous
 62
     8
370
     0
100
AcDbLine
 10
105.2258806919
 20
760.9538649899
 30
0.0
 11
105.2258806919
 21
615.9761640933
 31
0.0
  0
LINE
  5
1B0
330
1F
100
AcDbEntity
  8
0
  6
Continuous
 62
     8
370
     0
100
AcDbLine
 10
100.5065786337
 20
822.4236136061
 30
0.0
 11
100.5065786337
 21
817.3715239149
 31
0.0
  0
LINE
  5
1B1
330
1F
100
AcDbEntity
  8
0
  6
Continuous
 62
     8
370
     0
100
AcDbLine
 10
100.5065786337
 20
793.371519981
 30
0.0
 11
100.5065786337
 21
772.9538744074
 31
0.0
  0
LINE
  5
1B2
330
1F
100
AcDbEntity
  8
0
  6
Continuous
 62
     8
370
     0
100
AcDbLine
 10
100.5065786337
 20
760.9538649899
 30
0.0
 11
100.5065786337
 21
615.9761640933
 31
0.0
  0
LINE
  5
1B3
330
1F
100
AcDbEntity
  8
0
  6
Continuous
 62
     8
370
     0
100
AcDbLine
 10
100.5065786337
 20
603.976163989
 30
0.0
 11
100.5065786337
 21
491.4171611649
 31
0.0
  0
LINE
  5
1B4
330
1F
100
AcDbEntity
  8
0
  6
Continuous
 62
     8
370
     0
100
AcDbLine
 10
100.5065786337
 20
467.417157231
 30
0.0
 11
100.5065786337
 21
458.9984630924
 31
0.0
  0
LINE
  5
1B5
330
1F
100
AcDbEntity
  8
0
  6
Continuous
 62
     8
370
     0
100
AcDbLine
 10
100.5065786337
 20
446.9984536749
 30
0.0
 11
100.5065786337
 21
397.5287144762
 31
0.0
  0
LINE
  5
1B6
330
1F
100
AcDbEntity
  8
0
  6
Continuous
 62
     8
370
     0
100
AcDbLine
 10
75.2569037174
 20
821.1003308874
 30
0.0
 11
75.2569037174
 21
817.3715239149
 31
0.0
  0
LINE
  5
1B7
330
1F
100
AcDbEntity
  8
0
  6
Continuous
 62
     8
370
     0
100
AcDbLine
 10
75.2569037174
 20
793.371519981
 30
0.0
 11
75.2569037174
 21
772.9538744074
 31
0.0
  0
LINE
  5
1B8
330
1F
100
AcDbEntity
  8
0
  6
Continuous
 62
     8
370
     0
100
AcDbLine
 10
75.2569037174
 20
760.9538649899
 30
0.0
 11
75.2569037174
 21
615.9761640933
 31
0.0
  0
LINE
  5
1B9
330
1F
100
AcDbEntity
  8
0
  6
Continuous
 62
     8
370
     0
100
AcDbLine
 10
75.2569037174
 20
603.976163989
 30
0.0
 11
75.2569037174
 21
491.4171611649
 31
0.0
  0
LINE
  5
1BA
330
1F
100
AcDbEntity
  8
0
  6
Continuous
 62
     8
370
     0
100
AcDbLine
 10
75.2569037174
 20
467.417157231
 30
0.0
 11
75.2569037174
 21
458.9984630924
 31
0.0
  0
LINE
  5
1BB
330
1F
100
AcDbEntity
  8
0
  6
Continuous
 62
     8
370
     0
100
AcDbLine
 10
75.2569037174
 20
446.9984536749
 30
0.0
 11
75.2569037174
 21
398.8519971949
 31
0.0
  0
LINE
  5
1BC
330
1F
100
AcDbEntity
  8
0
  6
Continuous
 62
     8
370
     0
100
AcDbLine
 10
109.6367287134
 20
467.417157231
 30
0.0
 11
109.6367287134
 21
373.9761626106
 31
0.0
  0
LINE
  5
1BD
330
1F
100
AcDbEntity
  8
0
  6
Continuous
 62
     8
370
     0
100
AcDbLine
 10
109.6367287134
 20
845.9761654717
 30
0.0
 11
109.6367287134
 21
817.3715239149
 31
0.0
  0
LINE
  5
1BE
330
1F
100
AcDbEntity
  8
FORMAT
  6
CENTERX2
370
     0
100
AcDbLine
 10
-205.7571677205
 20
609.9761640412
 30
0.0
 11
393.1141970699
 21
609.9761640412
 31
0.0
  0
CIRCLE
  5
1BF
330
1F
100
AcDbEntity
  8
0
  6
Continuous
 62
     7
370
    15
100
AcDbCircle
 10
689.1416975418
 20
414.5808051501
 30
0.0
 40
11.99999999999999
  0
CIRCLE
  5
1C0
330
1F
100
AcDbEntity
  8
0
  6
Continuous
 62
     7
370
    15
100
AcDbCircle
 10
950.259707061
 20
805.3715229322
 30
0.0
 40
12.00000000000005
  0
CIRCLE
  5
1C1
330
1F
100
AcDbEntity
  8
0
  6
Continuous
 62
     7
370
    15
100
AcDbCircle
 10
1015.0960611925
 20
479.4171592816
 30
0.0
 40
12.00000000000005
  0
CIRCLE
  5
1C2
330
1F
100
AcDbEntity
  8
0
  6
Continuous
 62
     7
370
    15
100
AcDbCircle
 10
624.3053434103
 20
740.5351688007
 30
0.0
 40
12.00000000000007
  0
CIRCLE
  5
1C3
330
1F
100
AcDbEntity
  8
0
  6
Continuous
 62
     7
370
    15
100
AcDbCircle
 10
865.5469279752
 20
840.4607049359
 30
0.0
 40
13.99999999999998
  0
CIRCLE
  5
1C4
330
1F
100
AcDbEntity
  8
0
  6
Continuous
 62
     7
370
    15
100
AcDbCircle
 10
689.1416975418
 20
805.3715229322
 30
0.0
 40
14.00000000000002
  0
CIRCLE
  5
1C5
330
1F
100
AcDbEntity
  8
0
  6
Continuous
 62
     7
370
    15
100
AcDbCircle
 10
589.2161614066
 20
564.1299383673
 30
0.0
 40
13.99999999999998
  0
CIRCLE
  5
1C6
330
1F
100
AcDbEntity
  8
0
  6
Continuous
 62
     7
370
    15
100
AcDbCircle
 10
773.8544766276
 20
379.4916231464
 30
0.0
 40
14.0
  0
CIRCLE
  5
1C7
330
1F
100
AcDbEntity
  8
0
  6
Continuous
 62
     7
370
    15
100
AcDbCircle
 10
950.259707061
 20
414.5808051501
 30
0.0
 40
14.0
  0
CIRCLE
  5
1C8
330
1F
100
AcDbEntity
  8
0
  6
Continuous
 62
     7
370
    15
100
AcDbCircle
 10
819.7007023014
 20
609.9761640412
 30
0.0
 40
175.0
  0
CIRCLE
  5
1C9
330
1F
100
AcDbEntity
  8
0
  6
Continuous
 62
     7
370
    15
100
AcDbCircle
 10
865.5469279752
 20
379.4916231464
 30
0.0
 40
14.00000000000008
  0
CIRCLE
  5
1CA
330
1F
100
AcDbEntity
  8
0
  6
Continuous
 62
     7
370
    15
100
AcDbCircle
 10
624.3053434103
 20
479.4171592815
 30
0.0
 40
14.0
  0
CIRCLE
  5
1CB
330
1F
100
AcDbEntity
  8
0
  6
Continuous
 62
     7
370
    15
100
AcDbCircle
 10
589.2161614066
 20
655.8223897149
 30
0.0
 40
14.00000000000002
  0
CIRCLE
  5
1CC
330
1F
100
AcDbEntity
  8
0
  6
Continuous
 62
     7
370
    15
100
AcDbCircle
 10
773.8544766276
 20
840.4607049359
 30
0.0
 40
13.99999999999998
  0
CIRCLE
  5
1CD
330
1F
100
AcDbEntity
  8
0
  6
Continuous
 62
     7
370
    15
100
AcDbCircle
 10
819.7007023014
 20
609.9761640412
 30
0.0
 40
260.0000000000001
  0
CIRCLE
  5
1CE
330
1F
100
AcDbEntity
  8
0
  6
Continuous
 62
     7
370
    15
100
AcDbCircle
 10
1050.1852431962
 20
564.1299383674
 30
0.0
 40
13.99999999999998
  0
CIRCLE
  5
1CF
330
1F
100
AcDbEntity
  8
0
  6
Continuous
 62
     7
370
    15
100
AcDbCircle
 10
1015.0960611925
 20
740.5351688008
 30
0.0
 40
14.00000000000023
  0
ARC
  5
1D0
330
1F
100
AcDbEntity
  8
0
  6
Continuous
 62
     7
370
    15
100
AcDbCircle
 10
819.7007023014
 20
609.9761640412
 30
0.0
 40
235.9999999999999
100
AcDbArc
 50
300.352076078
 51
307.1479239221
  0
ARC
  5
1D1
330
1F
100
AcDbEntity
  8
0
  6
Continuous
 62
     7
370
    15
100
AcDbCircle
 10
819.7007023014
 20
609.9761640412
 30
0.0
 40
236.0
100
AcDbArc
 50
277.852076078
 51
284.6479239221
  0
ARC
  5
1D2
330
1F
100
AcDbEntity
  8
0
  6
Continuous
 62
     7
370
    15
100
AcDbCircle
 10
819.7007023014
 20
609.9761640412
 30
0.0
 40
236.0
100
AcDbArc
 50
255.352076078
 51
262.1479239221
  0
ARC
  5
1D3
330
1F
100
AcDbEntity
  8
0
  6
Continuous
 62
     7
370
    15
100
AcDbCircle
 10
819.7007023014
 20
609.9761640412
 30
0.0
 40
236.0
100
AcDbArc
 50
210.352076078
 51
217.1479239221
  0
ARC
  5
1D4
330
1F
100
AcDbEntity
  8
0
  6
Continuous
 62
     7
370
    15
100
AcDbCircle
 10
819.7007023014
 20
609.9761640412
 30
0.0
 40
236.0
100
AcDbArc
 50
187.852076078
 51
194.6479239221
  0
ARC
  5
1D5
330
1F
100
AcDbEntity
  8
0
  6
Continuous
 62
     7
370
    15
100
AcDbCircle
 10
819.7007023014
 20
609.9761640412
 30
0.0
 40
236.0000000000001
100
AcDbArc
 50
165.3520760779
 51
172.1479239221
  0
ARC
  5
1D6
330
1F
100
AcDbEntity
  8
0
  6
Continuous
 62
     7
370
    15
100
AcDbCircle
 10
819.7007023014
 20
609.9761640412
 30
0.0
 40
236.0000000000001
100
AcDbArc
 50
120.3520760779
 51
127.1479239221
  0
ARC
  5
1D7
330
1F
100
AcDbEntity
  8
0
  6
Continuous
 62
     7
370
    15
100
AcDbCircle
 10
819.7007023014
 20
609.9761640412
 30
0.0
 40
236.0
100
AcDbArc
 50
97.8520760779
 51
104.6479239221
  0
ARC
  5
1D8
330
1F
100
AcDbEntity
  8
0
  6
Continuous
 62
     7
370
    15
100
AcDbCircle
 10
819.7007023014
 20
609.9761640412
 30
0.0
 40
236.0000000000001
100
AcDbArc
 50
75.3520760779
 51
82.1479239221
  0
ARC
  5
1D9
330
1F
100
AcDbEntity
  8
0
  6
Continuous
 62
     7
370
    15
100
AcDbCircle
 10
819.7007023014
 20
609.9761640412
 30
0.0
 40
236.0000000000001
100
AcDbArc
 50
30.3520760779
 51
37.1479239221
  0
ARC
  5
1DA
330
1F
100
AcDbEntity
  8
0
  6
Continuous
 62
     7
370
    15
100
AcDbCircle
 10
819.7007023014
 20
609.9761640412
 30
0.0
 40
236.0000000000001
100
AcDbArc
 50
345.3520760779
 51
352.1479239221
  0
ARC
  5
1DB
330
1F
100
AcDbEntity
  8
0
  6
Continuous
 62
     8
370
     0
100
AcDbCircle
 10
819.7007023014
 20
609.9761640412
 30
0.0
 40
233.261467228243
100
AcDbArc
 50
210.3499581172
 51
217.1500418828
  0
ARC
  5
1DC
330
1F
100
AcDbEntity
  8
0
  6
Continuous
 62
     8
370
     0
100
AcDbCircle
 10
819.7007023014
 20
609.9761640412
 30
0.0
 40
233.261467228243
100
AcDbArc
 50
187.8499581172
 51
194.6500418828
  0
ARC
  5
1DD
330
1F
100
AcDbEntity
  8
0
  6
Continuous
 62
     8
370
     0
100
AcDbCircle
 10
819.7007023014
 20
609.9761640412
 30
0.0
 40
233.261467228243
100
AcDbArc
 50
165.3499581172
 51
172.1500418828
  0
ARC
  5
1DE
330
1F
100
AcDbEntity
  8
0
  6
Continuous
 62
     8
370
     0
100
AcDbCircle
 10
819.7007023014
 20
609.9761640412
 30
0.0
 40
233.261467228243
100
AcDbArc
 50
120.3499581172
 51
127.1500418828
  0
ARC
  5
1DF
330
1F
100
AcDbEntity
  8
0
  6
Continuous
 62
     8
370
     0
100
AcDbCircle
 10
819.7007023014
 20
609.9761640412
 30
0.0
 40
233.261467228243
100
AcDbArc
 50
97.8499581172
 51
104.6500418828
  0
ARC
  5
1E0
330
1F
100
AcDbEntity
  8
0
  6
Continuous
 62
     8
370
     0
100
AcDbCircle
 10
819.7007023014
 20
609.9761640412
 30
0.0
 40
233.2614672282431
100
AcDbArc
 50
75.3499581172
 51
82.1500418828
  0
ARC
  5
1E1
330
1F
100
AcDbEntity
  8
0
  6
Continuous
 62
     8
370
     0
100
AcDbCircle
 10
819.7007023014
 20
609.9761640412
 30
0.0
 40
233.2614672282429
100
AcDbArc
 50
30.3499581172
 51
37.1500418828
  0
ARC
  5
1E2
330
1F
100
AcDbEntity
  8
0
  6
Continuous
 62
     8
370
     0
100
AcDbCircle
 10
819.7007023014
 20
609.9761640412
 30
0.0
 40
233.261467228243
100
AcDbArc
 50
345.3499581172
 51
352.1500418828
  0
ARC
  5
1E3
330
1F
100
AcDbEntity
  8
0
  6
Continuous
 62
     8
370
     0
100
AcDbCircle
 10
819.7007023014
 20
609.9761640412
 30
0.0
 40
233.261467228243
100
AcDbArc
 50
300.3499581172
 51
307.1500418828
  0
ARC
  5
1E4
330
1F
100
AcDbEntity
  8
0
  6
Continuous
 62
     8
370
     0
100
AcDbCircle
 10
819.7007023014
 20
609.9761640412
 30
0.0
 40
233.2614672282429
100
AcDbArc
 50
277.8499581172
 51
284.6500418828
  0
ARC
  5
1E5
330
1F
100
AcDbEntity
  8
0
  6
Continuous
 62
     8
370
     0
100
AcDbCircle
 10
819.7007023014
 20
609.9761640412
 30
0.0
 40
233.2614672282429
100
AcDbArc
 50
255.3499581172
 51
262.1500418828
  0
INSERT
  5
25A
330
1F
100
AcDbEntity
  8
FORMAT
100
AcDbBlockReference
  2
SW_CENTERMARKSYMBOL_0
 10
773.8544766276
 20
840.4607049359
 30
0.0
  0
LINE
  5
25B
330
1F
100
AcDbEntity
  8
0
  6
Continuous
 62
     7
370
    15
100
AcDbLine
 10
-62.1122670675
 20
233.3264684728
 30
0.0
 11
-87.112273028
 21
233.3264684728
 31
0.0
  0
LINE
  5
25C
330
1F
100
AcDbEntity
  8
0
  6
Continuous
 62
     7
370
    15
100
AcDbLine
 10
-87.112273028
 20
-286.6735124537
 30
0.0
 11
-62.1122670675
 21
-286.6735124537
 31
0.0
  0
LINE
  5
25D
330
1F
100
AcDbEntity
  8
0
  6
Continuous
 62
     7
370
    15
100
AcDbLine
 10
272.8877412771
 20
233.3264684728
 30
0.0
 11
247.8877409046
 21
233.3264684728
 31
0.0
  0
LINE
  5
25E
330
1F
100
AcDbEntity
  8
0
  6
Continuous
 62
     7
370
    15
100
AcDbLine
 10
247.8877409046
 20
-286.6735124537
 30
0.0
 11
272.8877412771
 21
-286.6735124537
 31
0.0
  0
LINE
  5
25F
330
1F
100
AcDbEntity
  8
0
  6
Continuous
 62
     7
370
    15
100
AcDbLine
 10
112.8877448534
 20
-38.6735220948
 30
0.0
 11
115.3877424692
 21
-38.6735220948
 31
0.0
  0
LINE
  5
260
330
1F
100
AcDbEntity
  8
0
  6
Continuous
 62
     7
370
    15
100
AcDbLine
 10
115.3877424692
 20
-14.6735218862
 30
0.0
 11
112.8877448534
 21
-14.6735218862
 31
0.0
  0
LINE
  5
261
330
1F
100
AcDbEntity
  8
0
  6
Continuous
 62
     7
370
    15
100
AcDbLine
 10
106.6481518244
 20
206.5879440358
 30
0.0
 11
106.1867075657
 21
201.3135886243
 31
0.0
  0
LINE
  5
262
330
1F
100
AcDbEntity
  8
0
  6
Continuous
 62
     7
370
    15
100
AcDbLine
 10
106.1867075657
 20
-254.6606326052
 30
0.0
 11
106.6481518244
 21
-259.9349880168
 31
0.0
  0
LINE
  5
263
330
1F
100
AcDbEntity
  8
0
  6
Continuous
 62
     7
370
    15
100
AcDbLine
 10
116.624598453
 20
-16.2812174806
 30
0.0
 11
115.3877424692
 21
-18.4235220352
 31
0.0
  0
LINE
  5
264
330
1F
100
AcDbEntity
  8
0
  6
Continuous
 62
     7
370
    15
100
AcDbLine
 10
115.3877424692
 20
-34.9235219458
 30
0.0
 11
116.624598453
 21
-37.0658265003
 31
0.0
  0
LINE
  5
265
330
1F
100
AcDbEntity
  8
0
  6
Continuous
 62
     7
370
    15
100
AcDbLine
 10
124.5508837198
 20
-37.0658265003
 30
0.0
 11
125.7877397036
 21
-34.9235219458
 31
0.0
  0
LINE
  5
266
330
1F
100
AcDbEntity
  8
0
  6
Continuous
 62
     7
370
    15
100
AcDbLine
 10
125.7877397036
 20
-18.4235220352
 30
0.0
 11
124.5508837198
 21
-16.2812174806
 31
0.0
  0
LINE
  5
267
330
1F
100
AcDbEntity
  8
0
  6
Continuous
 62
     7
370
    15
100
AcDbLine
 10
105.6699352955
 20
-20.6735219383
 30
0.0
 11
-62.1122670675
 21
-20.6735219383
 31
0.0
  0
LINE
  5
268
330
1F
100
AcDbEntity
  8
0
  6
Continuous
 62
     7
370
    15
100
AcDbLine
 10
-62.1122670675
 20
-32.6735220426
 30
0.0
 11
105.6700247025
 21
-32.6735220426
 31
0.0
  0
LINE
  5
269
330
1F
100
AcDbEntity
  8
0
  6
Continuous
 62
     7
370
    15
100
AcDbLine
 10
165.8877405023
 20
-20.6735219383
 30
0.0
 11
125.7877397036
 21
-20.6735219383
 31
0.0
  0
LINE
  5
26A
330
1F
100
AcDbEntity
  8
0
  6
Continuous
 62
     7
370
    15
100
AcDbLine
 10
125.7877397036
 20
-32.6735220426
 30
0.0
 11
165.8877405023
 21
-32.6735220426
 31
0.0
  0
LINE
  5
26B
330
1F
100
AcDbEntity
  8
0
  6
Continuous
 62
     7
370
    15
100
AcDbLine
 10
-62.1122670675
 20
-179.2325341651
 30
0.0
 11
-58.1122589613
 21
-179.2325341651
 31
0.0
  0
LINE
  5
26C
330
1F
100
AcDbEntity
  8
0
  6
Continuous
 62
     7
370
    15
100
AcDbLine
 10
-58.1122589613
 20
-135.2325269529
 30
0.0
 11
-62.1122670675
 21
-135.2325269529
 31
0.0
  0
LINE
  5
26D
330
1F
100
AcDbEntity
  8
0
  6
Continuous
 62
     7
370
    15
100
AcDbLine
 10
243.8877421116
 20
-179.2325341651
 30
0.0
 11
247.8877409046
 21
-179.2325341651
 31
0.0
  0
LINE
  5
26E
330
1F
100
AcDbEntity
  8
0
  6
Continuous
 62
     7
370
    15
100
AcDbLine
 10
247.8877409046
 20
-135.2325269529
 30
0.0
 11
243.8877421116
 21
-135.2325269529
 31
0.0
  0
ARC
  5
26F
330
1F
100
AcDbEntity
  8
0
  6
Continuous
 62
     7
370
    15
100
AcDbCircle
 10
100.2449041023
 20
190.7670678907
 30
0.0
 40
4.999999999999982
100
AcDbArc
 50
273.0
 51
343.2760339648
  0
ARC
  5
270
330
1F
100
AcDbEntity
  8
0
  6
Continuous
 62
     7
370
    15
100
AcDbCircle
 10
100.2449041023
 20
-244.1141118716
 30
0.0
 40
5.000000000000008
100
AcDbArc
 50
16.7258596189
 51
87.0
  0
LINE
  5
271
330
1F
100
AcDbEntity
  8
0
  6
Continuous
 62
     7
370
    15
100
AcDbLine
 10
243.0877416079
 20
-175.2325260588
 30
0.0
 11
243.8877421116
 21
-175.2325260588
 31
0.0
  0
LINE
  5
272
330
1F
100
AcDbEntity
  8
0
  6
Continuous
 62
     7
370
    15
100
AcDbLine
 10
243.8877421116
 20
-139.2325276086
 30
0.0
 11
243.0877416079
 21
-139.2325276086
 31
0.0
  0
LINE
  5
273
330
1F
100
AcDbEntity
  8
0
  6
Continuous
 62
     7
370
    15
100
AcDbLine
 10
-57.3122454191
 20
-139.2325276086
 30
0.0
 11
-58.1122589613
 21
-139.2325276086
 31
0.0
  0
LINE
  5
274
330
1F
100
AcDbEntity
  8
0
  6
Continuous
 62
     7
370
    15
100
AcDbLine
 10
-58.1122589613
 20
-175.2325260588
 30
0.0
 11
-57.3122454191
 21
-175.2325260588
 31
0.0
  0
LINE
  5
275
330
1F
100
AcDbEntity
  8
0
  6
Continuous
 62
     7
370
    15
100
AcDbLine
 10
100.5065786337
 20
185.7739275745
 30
0.0
 11
75.2569037174
 21
184.4506448558
 31
0.0
  0
LINE
  5
276
330
1F
100
AcDbEntity
  8
0
  6
Continuous
 62
     7
370
    15
100
AcDbLine
 10
75.2569037174
 20
-237.7976888367
 30
0.0
 11
100.5065786337
 21
-239.1209715554
 31
0.0
  0
ARC
  5
277
330
1F
100
AcDbEntity
  8
0
  6
Continuous
 62
     7
370
    15
100
AcDbCircle
 10
75.3877412771
 20
181.9540665928
 30
0.0
 40
2.500000000000019
100
AcDbArc
 50
93.0
 51
180.0
  0
ARC
  5
278
330
1F
100
AcDbEntity
  8
0
  6
Continuous
 62
     7
370
    15
100
AcDbCircle
 10
75.3877412771
 20
-235.3011105737
 30
0.0
 40
2.500000000000019
100
AcDbArc
 50
180.0
 51
267.0
  0
LINE
  5
279
330
1F
100
AcDbEntity
  8
0
  6
Continuous
 62
     7
370
    15
100
AcDbLine
 10
-36.7015254999
 20
-175.3871405074
 30
0.0
 11
-36.6122675444
 21
-175.2325260588
 31
0.0
  0
LINE
  5
27A
330
1F
100
AcDbEntity
  8
0
  6
Continuous
 62
     7
370
    15
100
AcDbLine
 10
380.3877430653
 20
-145.2325248667
 30
0.0
 11
272.8877412771
 21
-145.2325248667
 31
0.0
  0
LINE
  5
27B
330
1F
100
AcDbEntity
  8
0
  6
Continuous
 62
     7
370
    15
100
AcDbLine
 10
272.8877412771
 20
-169.2325288006
 30
0.0
 11
380.3877430653
 21
-169.2325288006
 31
0.0
  0
LINE
  5
27C
330
1F
100
AcDbEntity
  8
0
  6
Continuous
 62
     7
370
    15
100
AcDbLine
 10
106.2367754673
 20
-145.2325248667
 30
0.0
 11
-36.6122675444
 21
-145.2325248667
 31
0.0
  0
LINE
  5
27D
330
1F
100
AcDbEntity
  8
0
  6
Continuous
 62
     7
370
    15
100
AcDbLine
 10
222.3877395188
 20
-145.2325248667
 30
0.0
 11
112.8877448534
 21
-145.2325248667
 31
0.0
  0
LINE
  5
27E
330
1F
100
AcDbEntity
  8
0
  6
Continuous
 62
     7
370
    15
100
AcDbLine
 10
-36.6122675444
 20
-169.2325288006
 30
0.0
 11
222.3877395188
 21
-169.2325288006
 31
0.0
  0
LINE
  5
27F
330
1F
100
AcDbEntity
  8
0
  6
Continuous
 62
     7
370
    15
100
AcDbLine
 10
-87.112273028
 20
-145.2325248667
 30
0.0
 11
-194.612259915
 21
-145.2325248667
 31
0.0
  0
LINE
  5
280
330
1F
100
AcDbEntity
  8
0
  6
Continuous
 62
     7
370
    15
100
AcDbLine
 10
-194.612259915
 20
-169.2325288006
 30
0.0
 11
-87.112273028
 21
-169.2325288006
 31
0.0
  0
LINE
  5
281
330
1F
100
AcDbEntity
  8
0
  6
Continuous
 62
     7
370
    15
100
AcDbLine
 10
223.9954369759
 20
-136.4479178139
 30
0.0
 11
222.3877395188
 21
-139.2325276086
 31
0.0
  0
LINE
  5
282
330
1F
100
AcDbEntity
  8
0
  6
Continuous
 62
     7
370
    15
100
AcDbLine
 10
222.3877395188
 20
-175.2325260588
 30
0.0
 11
223.9954369759
 21
-178.0171358534
 31
0.0
  0
LINE
  5
283
330
1F
100
AcDbEntity
  8
0
  6
Continuous
 62
     7
370
    15
100
AcDbLine
 10
-36.6122675444
 20
-139.2325276086
 30
0.0
 11
-36.7015254999
 21
-139.07791316
 31
0.0
  0
LINE
  5
284
330
1F
100
AcDbEntity
  8
0
  6
Continuous
 62
     7
370
    15
100
AcDbLine
 10
-62.1122670675
 20
-222.6735168645
 30
0.0
 11
72.8877382969
 21
-222.6735168645
 31
0.0
  0
ARC
  5
285
330
1F
100
AcDbEntity
  8
0
  6
Continuous
 62
     7
370
    15
100
AcDbCircle
 10
109.6367347992
 20
-259.6735219905
 30
0.0
 40
3.000000000000002
100
AcDbArc
 50
185.0
 51
270.0
  0
LINE
  5
286
330
1F
100
AcDbEntity
  8
0
  6
Continuous
 62
     7
370
    15
100
AcDbLine
 10
109.6367287134
 20
-262.673523421
 30
0.0
 11
112.8877448534
 21
-262.673523421
 31
0.0
  0
LINE
  5
287
330
1F
100
AcDbEntity
  8
0
  6
Continuous
 62
     7
370
    15
100
AcDbLine
 10
222.3877395188
 20
154.3264722875
 30
0.0
 11
112.8877448534
 21
154.3264722875
 31
0.0
  0
LINE
  5
288
330
1F
100
AcDbEntity
  8
0
  6
Continuous
 62
     7
370
    15
100
AcDbLine
 10
112.8877448534
 20
-207.6735162684
 30
0.0
 11
247.8877409046
 21
-207.6735162684
 31
0.0
  0
LINE
  5
289
330
1F
100
AcDbEntity
  8
0
  6
Continuous
 62
     7
370
    15
100
AcDbLine
 10
112.8877448534
 20
118.3041817001
 30
0.0
 11
115.3877424692
 21
118.3041817001
 31
0.0
  0
LINE
  5
28A
330
1F
100
AcDbEntity
  8
0
  6
Continuous
 62
     7
370
    15
100
AcDbLine
 10
115.3877424692
 20
142.304185634
 30
0.0
 11
112.8877448534
 21
142.304185634
 31
0.0
  0
LINE
  5
28B
330
1F
100
AcDbEntity
  8
0
  6
Continuous
 62
     7
370
    15
100
AcDbLine
 10
112.8877448534
 20
-195.6512296149
 30
0.0
 11
115.3877424692
 21
-195.6512296149
 31
0.0
  0
LINE
  5
28C
330
1F
100
AcDbEntity
  8
0
  6
Continuous
 62
     7
370
    15
100
AcDbLine
 10
115.3877424692
 20
-171.651225681
 30
0.0
 11
112.8877448534
 21
-171.651225681
 31
0.0
  0
LINE
  5
28D
330
1F
100
AcDbEntity
  8
0
  6
Continuous
 62
     7
370
    15
100
AcDbLine
 10
125.1691179966
 20
120.982695227
 30
0.0
 11
125.7877397036
 21
122.0541781238
 31
0.0
  0
LINE
  5
28E
330
1F
100
AcDbEntity
  8
0
  6
Continuous
 62
     7
370
    15
100
AcDbLine
 10
125.7877397036
 20
138.5541892103
 30
0.0
 11
125.1691179966
 21
139.6256721071
 31
0.0
  0
LINE
  5
28F
330
1F
100
AcDbEntity
  8
0
  6
Continuous
 62
     7
370
    15
100
AcDbLine
 10
116.0047101473
 20
139.622796183
 30
0.0
 11
115.3877424692
 21
138.5541892103
 31
0.0
  0
LINE
  5
290
330
1F
100
AcDbEntity
  8
0
  6
Continuous
 62
     7
370
    15
100
AcDbLine
 10
115.3877424692
 20
122.0541781238
 30
0.0
 11
116.0047101473
 21
120.9855711511
 31
0.0
  0
LINE
  5
291
330
1F
100
AcDbEntity
  8
0
  6
Continuous
 62
     7
370
    15
100
AcDbLine
 10
125.1707720255
 20
-192.9698401639
 30
0.0
 11
125.7877397036
 21
-191.9012331912
 31
0.0
  0
LINE
  5
292
330
1F
100
AcDbEntity
  8
0
  6
Continuous
 62
     7
370
    15
100
AcDbLine
 10
125.7877397036
 20
-175.4012221047
 30
0.0
 11
125.1707720255
 21
-174.332615132
 31
0.0
  0
LINE
  5
293
330
1F
100
AcDbEntity
  8
0
  6
Continuous
 62
     7
370
    15
100
AcDbLine
 10
116.0063641762
 20
-174.3297392079
 30
0.0
 11
115.3877424692
 21
-175.4012221047
 31
0.0
  0
LINE
  5
294
330
1F
100
AcDbEntity
  8
0
  6
Continuous
 62
     7
370
    15
100
AcDbLine
 10
115.3877424692
 20
-191.9012331912
 30
0.0
 11
116.0063641762
 21
-192.972716088
 31
0.0
  0
LINE
  5
295
330
1F
100
AcDbEntity
  8
0
  6
Continuous
 62
     7
370
    15
100
AcDbLine
 10
106.0364889597
 20
136.3041883758
 30
0.0
 11
-62.1122670675
 21
136.3041883758
 31
0.0
  0
LINE
  5
296
330
1F
100
AcDbEntity
  8
0
  6
Continuous
 62
     7
370
    15
100
AcDbLine
 10
-62.1122670675
 20
124.3041789583
 30
0.0
 11
105.2965419983
 21
124.3041789583
 31
0.0
  0
LINE
  5
297
330
1F
100
AcDbEntity
  8
0
  6
Continuous
 62
     7
370
    15
100
AcDbLine
 10
165.8877405023
 20
136.3041883758
 30
0.0
 11
125.7877397036
 21
136.3041883758
 31
0.0
  0
LINE
  5
298
330
1F
100
AcDbEntity
  8
0
  6
Continuous
 62
     7
370
    15
100
AcDbLine
 10
125.7877397036
 20
124.3041789583
 30
0.0
 11
165.8877405023
 21
124.3041789583
 31
0.0
  0
LINE
  5
299
330
1F
100
AcDbEntity
  8
0
  6
Continuous
 62
     7
370
    15
100
AcDbLine
 10
165.8877405023
 20
-177.6512229392
 30
0.0
 11
125.7877397036
 21
-177.6512229392
 31
0.0
  0
LINE
  5
29A
330
1F
100
AcDbEntity
  8
0
  6
Continuous
 62
     7
370
    15
100
AcDbLine
 10
125.7877397036
 20
-189.6512323567
 30
0.0
 11
165.8877405023
 21
-189.6512323567
 31
0.0
  0
LINE
  5
29B
330
1F
100
AcDbEntity
  8
0
  6
Continuous
 62
     7
370
    15
100
AcDbLine
 10
105.2963035797
 20
-177.6512229392
 30
0.0
 11
-58.1122589613
 21
-177.6512229392
 31
0.0
  0
LINE
  5
29C
330
1F
100
AcDbEntity
  8
0
  6
Continuous
 62
     7
370
    15
100
AcDbLine
 10
-62.1122670675
 20
-189.6512323567
 30
0.0
 11
106.0374128317
 21
-189.6512323567
 31
0.0
  0
LINE
  5
29D
330
1F
100
AcDbEntity
  8
0
  6
Continuous
 62
     7
370
    15
100
AcDbLine
 10
243.8877421116
 20
146.7218434861
 30
0.0
 11
247.8877409046
 21
146.7218434861
 31
0.0
  0
LINE
  5
29E
330
1F
100
AcDbEntity
  8
0
  6
Continuous
 62
     7
370
    15
100
AcDbLine
 10
247.8877409046
 20
190.7218432477
 30
0.0
 11
243.8877421116
 21
190.7218432477
 31
0.0
  0
LINE
  5
29F
330
1F
100
AcDbEntity
  8
0
  6
Continuous
 62
     7
370
    15
100
AcDbLine
 10
-62.1122670675
 20
146.7218434861
 30
0.0
 11
-58.1122589613
 21
146.7218434861
 31
0.0
  0
LINE
  5
2A0
330
1F
100
AcDbEntity
  8
0
  6
Continuous
 62
     7
370
    15
100
AcDbLine
 10
-58.1122589613
 20
190.7218432477
 30
0.0
 11
-62.1122670675
 21
190.7218432477
 31
0.0
  0
LINE
  5
2A1
330
1F
100
AcDbEntity
  8
0
  6
Continuous
 62
     7
370
    15
100
AcDbLine
 10
-57.3122454191
 20
186.7218351415
 30
0.0
 11
-58.1122589613
 21
186.7218351415
 31
0.0
  0
LINE
  5
2A2
330
1F
100
AcDbEntity
  8
0
  6
Continuous
 62
     7
370
    15
100
AcDbLine
 10
-58.1122589613
 20
150.7218366912
 30
0.0
 11
-57.3122454191
 21
150.7218366912
 31
0.0
  0
LINE
  5
2A3
330
1F
100
AcDbEntity
  8
0
  6
Continuous
 62
     7
370
    15
100
AcDbLine
 10
243.0877416079
 20
150.7218366912
 30
0.0
 11
243.8877421116
 21
150.7218366912
 31
0.0
  0
LINE
  5
2A4
330
1F
100
AcDbEntity
  8
0
  6
Continuous
 62
     7
370
    15
100
AcDbLine
 10
243.8877421116
 20
186.7218351415
 30
0.0
 11
243.0877416079
 21
186.7218351415
 31
0.0
  0
LINE
  5
2A5
330
1F
100
AcDbEntity
  8
0
  6
Continuous
 62
     7
370
    15
100
AcDbLine
 10
380.3877430653
 20
180.7218378833
 30
0.0
 11
272.8877412771
 21
180.7218378833
 31
0.0
  0
LINE
  5
2A6
330
1F
100
AcDbEntity
  8
0
  6
Continuous
 62
     7
370
    15
100
AcDbLine
 10
272.8877412771
 20
156.7218339494
 30
0.0
 11
380.3877430653
 21
156.7218339494
 31
0.0
  0
LINE
  5
2A7
330
1F
100
AcDbEntity
  8
0
  6
Continuous
 62
     7
370
    15
100
AcDbLine
 10
-87.112273028
 20
180.7218378833
 30
0.0
 11
-194.612259915
 21
180.7218378833
 31
0.0
  0
LINE
  5
2A8
330
1F
100
AcDbEntity
  8
0
  6
Continuous
 62
     7
370
    15
100
AcDbLine
 10
-194.612259915
 20
156.7218339494
 30
0.0
 11
-87.112273028
 21
156.7218339494
 31
0.0
  0
LINE
  5
2A9
330
1F
100
AcDbEntity
  8
0
  6
Continuous
 62
     7
370
    15
100
AcDbLine
 10
222.3877395188
 20
180.7218378833
 30
0.0
 11
-36.6122675444
 21
180.7218378833
 31
0.0
  0
LINE
  5
2AA
330
1F
100
AcDbEntity
  8
0
  6
Continuous
 62
     7
370
    15
100
AcDbLine
 10
112.8877448534
 20
156.7218339494
 30
0.0
 11
222.3877395188
 21
156.7218339494
 31
0.0
  0
LINE
  5
2AB
330
1F
100
AcDbEntity
  8
0
  6
Continuous
 62
     7
370
    15
100
AcDbLine
 10
-36.6122675444
 20
156.7218339494
 30
0.0
 11
105.9371876215
 21
156.7218339494
 31
0.0
  0
LINE
  5
2AC
330
1F
100
AcDbEntity
  8
0
  6
Continuous
 62
     7
370
    15
100
AcDbLine
 10
-36.6122675444
 20
186.7218351415
 30
0.0
 11
-37.471945336
 21
188.210848575
 31
0.0
  0
LINE
  5
2AD
330
1F
100
AcDbEntity
  8
0
  6
Continuous
 62
     7
370
    15
100
AcDbLine
 10
-37.4731076265
 20
149.2307817987
 30
0.0
 11
-36.6122675444
 21
150.7218366912
 31
0.0
  0
ARC
  5
2AE
330
1F
100
AcDbEntity
  8
0
  6
Continuous
 62
     7
370
    15
100
AcDbCircle
 10
109.6367347992
 20
206.3264780095
 30
0.0
 40
3.000000000000028
100
AcDbArc
 50
90.0
 51
175.0
  0
LINE
  5
2AF
330
1F
100
AcDbEntity
  8
0
  6
Continuous
 62
     7
370
    15
100
AcDbLine
 10
112.8877448534
 20
209.3264794401
 30
0.0
 11
109.6367287134
 21
209.3264794401
 31
0.0
  0
LINE
  5
2B0
330
1F
100
AcDbEntity
  8
0
  6
Continuous
 62
     7
370
    15
100
AcDbLine
 10
112.8877448534
 20
183.326471453
 30
0.0
 11
115.3877424692
 21
183.326471453
 31
0.0
  0
LINE
  5
2B1
330
1F
100
AcDbEntity
  8
0
  6
Continuous
 62
     7
370
    15
100
AcDbLine
 10
115.3877424692
 20
207.3264753869
 30
0.0
 11
112.8877448534
 21
207.3264753869
 31
0.0
  0
LINE
  5
2B2
330
1F
100
AcDbEntity
  8
0
  6
Continuous
 62
     7
370
    15
100
AcDbLine
 10
112.8877448534
 20
-260.6735193679
 30
0.0
 11
115.3877424692
 21
-260.6735193679
 31
0.0
  0
LINE
  5
2B3
330
1F
100
AcDbEntity
  8
0
  6
Continuous
 62
     7
370
    15
100
AcDbLine
 10
115.3877424692
 20
-236.6735154339
 30
0.0
 11
112.8877448534
 21
-236.6735154339
 31
0.0
  0
LINE
  5
2B4
330
1F
100
AcDbEntity
  8
0
  6
Continuous
 62
     7
370
    15
100
AcDbLine
 10
115.8207553124
 20
204.3264842084
 30
0.0
 11
115.3877424692
 21
203.5764789632
 31
0.0
  0
LINE
  5
2B5
330
1F
100
AcDbEntity
  8
0
  6
Continuous
 62
     7
370
    15
100
AcDbLine
 10
115.3877424692
 20
187.0764827779
 30
0.0
 11
115.8207553124
 21
186.3264775327
 31
0.0
  0
LINE
  5
2B6
330
1F
100
AcDbEntity
  8
0
  6
Continuous
 62
     7
370
    15
100
AcDbLine
 10
125.3547268604
 20
186.3264775327
 30
0.0
 11
125.7877397036
 21
187.0764827779
 31
0.0
  0
LINE
  5
2B7
330
1F
100
AcDbEntity
  8
0
  6
Continuous
 62
     7
370
    15
100
AcDbLine
 10
125.7877397036
 20
203.5764789632
 30
0.0
 11
125.3547268604
 21
204.3264842084
 31
0.0
  0
LINE
  5
2B8
330
1F
100
AcDbEntity
  8
0
  6
Continuous
 62
     7
370
    15
100
AcDbLine
 10
125.3547268604
 20
-257.6735281893
 30
0.0
 11
125.7877397036
 21
-256.9235229441
 31
0.0
  0
LINE
  5
2B9
330
1F
100
AcDbEntity
  8
0
  6
Continuous
 62
     7
370
    15
100
AcDbLine
 10
125.7877397036
 20
-240.4235267588
 30
0.0
 11
125.3547268604
 21
-239.6735215136
 31
0.0
  0
LINE
  5
2BA
330
1F
100
AcDbEntity
  8
0
  6
Continuous
 62
     7
370
    15
100
AcDbLine
 10
115.8207553124
 20
-239.6735215136
 30
0.0
 11
115.3877424692
 21
-240.4235267588
 31
0.0
  0
LINE
  5
2BB
330
1F
100
AcDbEntity
  8
0
  6
Continuous
 62
     7
370
    15
100
AcDbLine
 10
115.3877424692
 20
-256.9235229441
 30
0.0
 11
115.8207553124
 21
-257.6735281893
 31
0.0
  0
LINE
  5
2BC
330
1F
100
AcDbEntity
  8
0
  6
Continuous
 62
     7
370
    15
100
AcDbLine
 10
165.8877405023
 20
201.3264781288
 30
0.0
 11
125.7877397036
 21
201.3264781288
 31
0.0
  0
LINE
  5
2BD
330
1F
100
AcDbEntity
  8
0
  6
Continuous
 62
     7
370
    15
100
AcDbLine
 10
125.7877397036
 20
189.3264836124
 30
0.0
 11
165.8877405023
 21
189.3264836124
 31
0.0
  0
LINE
  5
2BE
330
1F
100
AcDbEntity
  8
0
  6
Continuous
 62
     7
370
    15
100
AcDbLine
 10
106.1878251528
 20
201.3264781288
 30
0.0
 11
-62.1122670675
 21
201.3264781288
 31
0.0
  0
LINE
  5
2BF
330
1F
100
AcDbEntity
  8
0
  6
Continuous
 62
     7
370
    15
100
AcDbLine
 10
-58.1122589613
 20
189.3264836124
 30
0.0
 11
-57.3122454191
 21
189.3264836124
 31
0.0
  0
LINE
  5
2C0
330
1F
100
AcDbEntity
  8
0
  6
Continuous
 62
     7
370
    15
100
AcDbLine
 10
-38.217778256
 20
189.3264836124
 30
0.0
 11
105.0328808521
 21
189.3264836124
 31
0.0
  0
LINE
  5
2C1
330
1F
100
AcDbEntity
  8
0
  6
Continuous
 62
     7
370
    15
100
AcDbLine
 10
105.0328808521
 20
-242.6735275933
 30
0.0
 11
-62.1122670675
 21
-242.6735275933
 31
0.0
  0
LINE
  5
2C2
330
1F
100
AcDbEntity
  8
0
  6
Continuous
 62
     7
370
    15
100
AcDbLine
 10
-62.1122670675
 20
-254.6735221097
 30
0.0
 11
106.1878251528
 21
-254.6735221097
 31
0.0
  0
LINE
  5
2C3
330
1F
100
AcDbEntity
  8
0
  6
Continuous
 62
     7
370
    15
100
AcDbLine
 10
165.8877405023
 20
-242.6735275933
 30
0.0
 11
125.7877397036
 21
-242.6735275933
 31
0.0
  0
LINE
  5
2C4
330
1F
100
AcDbEntity
  8
0
  6
Continuous
 62
     7
370
    15
100
AcDbLine
 10
125.7877397036
 20
-254.6735221097
 30
0.0
 11
165.8877405023
 21
-254.6735221097
 31
0.0
  0
LINE
  5
2C5
330
1F
100
AcDbEntity
  8
0
  6
Continuous
 62
     7
370
    15
100
AcDbLine
 10
243.8877421116
 20
-244.0688872286
 30
0.0
 11
247.8877409046
 21
-244.0688872286
 31
0.0
  0
LINE
  5
2C6
330
1F
100
AcDbEntity
  8
0
  6
Continuous
 62
     7
370
    15
100
AcDbLine
 10
243.0877416079
 20
-240.0688791224
 30
0.0
 11
243.8877421116
 21
-240.0688791224
 31
0.0
  0
LINE
  5
2C7
330
1F
100
AcDbEntity
  8
0
  6
Continuous
 62
     7
370
    15
100
AcDbLine
 10
-58.1122589613
 20
-240.0688791224
 30
0.0
 11
-57.3122454191
 21
-240.0688791224
 31
0.0
  0
LINE
  5
2C8
330
1F
100
AcDbEntity
  8
0
  6
Continuous
 62
     7
370
    15
100
AcDbLine
 10
-87.112273028
 20
-210.0688779303
 30
0.0
 11
-194.612259915
 21
-210.0688779303
 31
0.0
  0
LINE
  5
2C9
330
1F
100
AcDbEntity
  8
0
  6
Continuous
 62
     7
370
    15
100
AcDbLine
 10
-194.612259915
 20
-234.0688818642
 30
0.0
 11
-87.112273028
 21
-234.0688818642
 31
0.0
  0
LINE
  5
2CA
330
1F
100
AcDbEntity
  8
0
  6
Continuous
 62
     7
370
    15
100
AcDbLine
 10
222.3877395188
 20
-210.0688779303
 30
0.0
 11
112.8877448534
 21
-210.0688779303
 31
0.0
  0
LINE
  5
2CB
330
1F
100
AcDbEntity
  8
0
  6
Continuous
 62
     7
370
    15
100
AcDbLine
 10
-36.6122675444
 20
-234.0688818642
 30
0.0
 11
72.8877382969
 21
-234.0688818642
 31
0.0
  0
LINE
  5
2CC
330
1F
100
AcDbEntity
  8
0
  6
Continuous
 62
     7
370
    15
100
AcDbLine
 10
112.8877448534
 20
-234.0688818642
 30
0.0
 11
222.3877395188
 21
-234.0688818642
 31
0.0
  0
LINE
  5
2CD
330
1F
100
AcDbEntity
  8
0
  6
Continuous
 62
     7
370
    15
100
AcDbLine
 10
380.3877430653
 20
-210.0688779303
 30
0.0
 11
272.8877412771
 21
-210.0688779303
 31
0.0
  0
LINE
  5
2CE
330
1F
100
AcDbEntity
  8
0
  6
Continuous
 62
     7
370
    15
100
AcDbLine
 10
272.8877412771
 20
-234.0688818642
 30
0.0
 11
380.3877430653
 21
-234.0688818642
 31
0.0
  0
LINE
  5
2CF
330
1F
100
AcDbEntity
  8
0
  6
Continuous
 62
     7
370
    15
100
AcDbLine
 10
-37.471945336
 20
-241.5578925559
 30
0.0
 11
-36.6122675444
 21
-240.0688791224
 31
0.0
  0
LINE
  5
2D0
330
1F
100
AcDbEntity
  8
0
  6
Continuous
 62
     7
370
    15
100
AcDbLine
 10
-87.112273028
 20
115.8854848197
 30
0.0
 11
-194.612259915
 21
115.8854848197
 31
0.0
  0
LINE
  5
2D1
330
1F
100
AcDbEntity
  8
0
  6
Continuous
 62
     7
370
    15
100
AcDbLine
 10
-194.612259915
 20
91.8854808858
 30
0.0
 11
-87.112273028
 21
91.8854808858
 31
0.0
  0
LINE
  5
2D2
330
1F
100
AcDbEntity
  8
0
  6
Continuous
 62
     7
370
    15
100
AcDbLine
 10
380.3877430653
 20
115.8854848197
 30
0.0
 11
272.8877412771
 21
115.8854848197
 31
0.0
  0
LINE
  5
2D3
330
1F
100
AcDbEntity
  8
0
  6
Continuous
 62
     7
370
    15
100
AcDbLine
 10
272.8877412771
 20
91.8854808858
 30
0.0
 11
380.3877430653
 21
91.8854808858
 31
0.0
  0
LINE
  5
2D4
330
1F
100
AcDbEntity
  8
0
  6
Continuous
 62
     7
370
    15
100
AcDbLine
 10
-62.1122670675
 20
-286.6735124537
 30
0.0
 11
-62.1122670675
 21
233.3264684728
 31
0.0
  0
LINE
  5
2D5
330
1F
100
AcDbEntity
  8
0
  6
Continuous
 62
     7
370
    15
100
AcDbLine
 10
-87.112273028
 20
-286.6735124537
 30
0.0
 11
-87.112273028
 21
233.3264684728
 31
0.0
  0
LINE
  5
2D6
330
1F
100
AcDbEntity
  8
0
  6
Continuous
 62
     7
370
    15
100
AcDbLine
 10
247.8877409046
 20
-286.6735124537
 30
0.0
 11
247.8877409046
 21
233.3264684728
 31
0.0
  0
LINE
  5
2D7
330
1F
100
AcDbEntity
  8
0
  6
Continuous
 62
     7
370
    15
100
AcDbLine
 10
272.8877412771
 20
-286.6735124537
 30
0.0
 11
272.8877412771
 21
233.3264684728
 31
0.0
  0
SPLINE
  5
2D8
330
1F
100
AcDbEntity
  8
0
  6
Continuous
 62
     7
370
    15
100
AcDbSpline
210
0.0
220
0.0
230
1.0
 70
     8
 71
     3
 72
    20
 73
    16
 74
     0
 42
0.00000001
 43
0.00000001
 12
1.0
 22
0.0
 32
0.0
 13
1.0
 23
0.0
 33
0.0
 40
0.0
 40
0.0
 40
0.0
 40
0.0
 40
0.1250000000000026
 40
0.1250000000000026
 40
0.2500000000000053
 40
0.2500000000000053
 40
0.3750000000000079
 40
0.3750000000000079
 40
0.5000000000000105
 40
0.5000000000000105
 40
0.6250000000000132
 40
0.6250000000000132
 40
0.7500000000000158
 40
0.7500000000000158
 40
1.0
 40
1.0
 40
1.0
 40
1.0
 10
106.6481507049077
 20
160.4569528428309
 30
0.0
 10
106.6643530060933
 20
160.5921916546471
 30
0.0
 10
106.6974105440119
 20
160.727171258074
 30
0.0
 10
106.7962877949484
 20
160.9960132701303
 30
0.0
 10
106.8629540435431
 20
161.1311521174072
 30
0.0
 10
107.0272444699798
 20
161.3927324537269
 30
0.0
 10
107.1238513296101
 20
161.5181819231132
 30
0.0
 10
107.3455094847879
 20
161.7573090723251
 30
0.0
 10
107.4720074729287
 20
161.8718807874583
 30
0.0
 10
107.7449449219968
 20
162.0791878136095
 30
0.0
 10
107.8918338319516
 20
162.1728141301201
 30
0.0
 10
108.2066033354893
 20
162.3385991177996
 30
0.0
 10
108.3748491654427
 20
162.4104814591849
 30
0.0
 10
108.8910106056873
 20
162.5829738576284
 30
0.0
 10
109.262263737956
 20
162.6446995010746
 30
0.0
 10
109.6367347991829
 20
162.6446995010746
 30
0.0
  0
SPLINE
  5
2D9
330
1F
100
AcDbEntity
  8
0
  6
Continuous
 62
     7
370
    15
100
AcDbSpline
210
0.0
220
0.0
230
1.0
 70
     8
 71
     3
 72
    22
 73
    18
 74
     0
 42
0.00000001
 43
0.00000001
 12
1.0
 22
0.0
 32
0.0
 13
1.0
 23
0.0
 33
0.0
 40
0.0
 40
0.0
 40
0.0
 40
0.0
 40
0.125
 40
0.125
 40
0.25
 40
0.25
 40
0.375
 40
0.375
 40
0.5
 40
0.5
 40
0.625
 40
0.625
 40
0.75
 40
0.75
 40
0.875
 40
0.875
 40
1.0
 40
1.0
 40
1.0
 40
1.0
 10
109.6367347991829
 20
-147.6582106260021
 30
0.0
 10
109.4494556238546
 20
-147.658210626002
 30
0.0
 10
109.2651619286295
 20
-147.6476386986139
 30
0.0
 10
108.9022855674815
 20
-147.606621034584
 30
0.0
 10
108.7222245863989
 20
-147.5758102885289
 30
0.0
 10
108.3752080121393
 20
-147.495916375244
 30
0.0
 10
108.2101108511629
 20
-147.4474724829895
 30
0.0
 10
107.8962904383193
 20
-147.3355836043408
 30
0.0
 10
107.7461951445296
 20
-147.2713469502308
 30
0.0
 10
107.4728088972
 20
-147.1336352143126
 30
0.0
 10
107.3488735129472
 20
-147.0601752351029
 30
0.0
 10
107.1264159976741
 20
-146.9060701169221
 30
0.0
 10
107.02763249166
 20
-146.8248554728444
 30
0.0
 10
106.8641272714191
 20
-146.6636104790743
 30
0.0
 10
106.7981383972239
 20
-146.58284546641
 30
0.0
 10
106.6980112375298
 20
-146.4224688263643
 30
0.0
 10
106.6643589720657
 20
-146.343194009832
 30
0.0
 10
106.6481507049077
 20
-146.2673864671918
 30
0.0
  0
LINE
  5
2DA
330
1F
100
AcDbEntity
  8
0
  6
Continuous
 62
     7
370
    15
100
AcDbLine
 10
109.6367287134
 20
162.6447027973
 30
0.0
 11
112.8877448534
 21
162.6447027973
 31
0.0
  0
LINE
  5
2DB
330
1F
100
AcDbEntity
  8
0
  6
Continuous
 62
     7
370
    15
100
AcDbLine
 10
112.8877448534
 20
-147.6582103917
 30
0.0
 11
109.6367287134
 21
-147.6582103917
 31
0.0
  0
LINE
  5
2DC
330
1F
100
AcDbEntity
  8
0
  6
Continuous
 62
     7
370
    15
100
AcDbLine
 10
112.8877448534
 20
162.6447027973
 30
0.0
 11
112.8877448534
 21
-147.6582103917
 31
0.0
  0
LINE
  5
2DD
330
1F
100
AcDbEntity
  8
0
  6
Continuous
 62
     7
370
    15
100
AcDbLine
 10
115.3877424692
 20
-38.6735220948
 30
0.0
 11
115.3877424692
 21
-14.6735218862
 31
0.0
  0
SPLINE
  5
2DE
330
1F
100
AcDbEntity
  8
0
  6
Continuous
 62
     7
370
    15
100
AcDbSpline
210
0.0
220
0.0
230
1.0
 70
     8
 71
     3
 72
    15
 73
    11
 74
     0
 42
0.00000001
 43
0.00000001
 12
1.0
 22
0.0
 32
0.0
 13
1.0
 23
0.0
 33
0.0
 40
0.0
 40
0.0
 40
0.0
 40
0.0
 40
0.0426191823553395
 40
0.1805083530608748
 40
0.3188374899399685
 40
0.4567301888984664
 40
0.5951560991387992
 40
0.7340218567911494
 40
0.8724502429995072
 40
1.0
 40
1.0
 40
1.0
 40
1.0
 10
105.9371876215062
 20
156.7381507209139
 30
0.0
 10
105.9438626088965
 20
156.7334773571458
 30
0.0
 10
105.9721337045378
 20
156.7136838944276
 30
0.0
 10
106.0334709853964
 20
156.8339979687443
 30
0.0
 10
106.1196999991112
 20
157.0963092534571
 30
0.0
 10
106.2153795319253
 20
157.5142306022652
 30
0.0
 10
106.3183856059409
 20
158.0733261621674
 30
0.0
 10
106.4274016288941
 20
158.7681154498033
 30
0.0
 10
106.5377813076212
 20
159.5585681292536
 30
0.0
 10
106.6123786744122
 20
160.1657737157996
 30
0.0
 10
106.6481518243871
 20
160.4569590142565
 30
0.0
  0
SPLINE
  5
2DF
330
1F
100
AcDbEntity
  8
0
  6
Continuous
 62
     7
370
    15
100
AcDbSpline
210
0.0
220
0.0
230
1.0
 70
     8
 71
     3
 72
    11
 73
     7
 74
     0
 42
0.00000001
 43
0.00000001
 12
1.0
 22
0.0
 32
0.0
 13
1.0
 23
0.0
 33
0.0
 40
0.0
 40
0.0
 40
0.0
 40
0.0
 40
0.269026995416851
 40
0.5389093259109415
 40
0.8079342949016844
 40
0.9999999999999999
 40
0.9999999999999999
 40
0.9999999999999999
 40
0.9999999999999999
 10
106.6481518243871
 20
-146.2673881599111
 30
0.0
 10
106.6092118182987
 20
-146.0979969181547
 30
0.0
 10
106.5312080016202
 20
-145.7586758780162
 30
0.0
 10
106.4179989168934
 20
-145.4368686824016
 30
0.0
 10
106.3187460214242
 20
-145.2517039722791
 30
0.0
 10
106.2608795452525
 20
-145.2496412523595
 30
0.0
 10
106.2367754673085
 20
-145.2487820336027
 30
0.0
  0
SPLINE
  5
2E0
330
1F
100
AcDbEntity
  8
0
  6
Continuous
 62
     7
370
    15
100
AcDbSpline
210
0.0
220
0.0
230
1.0
 70
     8
 71
     3
 72
    27
 73
    23
 74
     0
 42
0.00000001
 43
0.00000001
 12
1.0
 22
0.0
 32
0.0
 13
1.0
 23
0.0
 33
0.0
 40
0.0
 40
0.0
 40
0.0
 40
0.0
 40
0.0066324991222831
 40
0.0606224932864637
 40
0.1146120132690165
 40
0.1685879674936972
 40
0.2225637632188951
 40
0.2764058173759529
 40
0.3302472031159843
 40
0.3838968953822399
 40
0.4375459524895571
 40
0.4910268636302072
 40
0.5445077803211423
 40
0.5979129632745023
 40
0.651318808653348
 40
0.7047705779434392
 40
0.7582234867386142
 40
0.8118256270048343
 40
0.8654284576645269
 40
0.9192246325508642
 40
0.973020131598076
 40
1.0
 40
1.0
 40
1.0
 40
1.0
 10
105.6700247024617
 20
-32.66422325236627
 30
0.0
 10
105.673655971208
 20
-32.66723750541598
 30
0.0
 10
105.7068465621351
 20
-32.69478843786251
 30
0.0
 10
105.7694292022224
 20
-32.58174418034091
 30
0.0
 10
105.8546501968115
 20
-32.32042903950673
 30
0.0
 10
105.9341892778298
 20
-31.87696351019932
 30
0.0
 10
106.0060814190777
 20
-31.29241636583936
 30
0.0
 10
106.0679850856376
 20
-30.57194318428008
 30
0.0
 10
106.1186294359895
 20
-29.74386523266648
 30
0.0
 10
106.1562681070802
 20
-28.82698273616987
 30
0.0
 10
106.1804031818323
 20
-27.85191162387224
 30
0.0
 10
106.1899381438755
 20
-26.84356860887402
 30
0.0
 10
106.1852674649761
 20
-25.83201789862683
 30
0.0
 10
106.1659417774779
 20
-24.84537069836151
 30
0.0
 10
106.1330760131078
 20
-23.90969227402417
 30
0.0
 10
106.0870014458482
 20
-23.05369780142083
 30
0.0
 10
106.0293386916193
 20
-22.29692915223123
 30
0.0
 10
105.9612389000957
 20
-21.66654464972128
 30
0.0
 10
105.8847515598161
 20
-21.17149031697436
 30
0.0
 10
105.801686456736
 20
-20.84406252521072
 30
0.0
 10
105.72908650157
 20
-20.67819065184153
 30
0.0
 10
105.6847456361999
 20
-20.69099449035209
 30
0.0
 10
105.6699352954945
 20
-20.69527111438939
 30
0.0
  0
SPLINE
  5
2E1
330
1F
100
AcDbEntity
  8
0
  6
Continuous
 62
     7
370
    15
100
AcDbSpline
210
0.0
220
0.0
230
1.0
 70
     8
 71
     3
 72
    27
 73
    23
 74
     0
 42
0.00000001
 43
0.00000001
 12
1.0
 22
0.0
 32
0.0
 13
1.0
 23
0.0
 33
0.0
 40
0.0
 40
0.0
 40
0.0
 40
0.0
 40
0.0175287641215704
 40
0.0710576526287288
 40
0.1247883596419781
 40
0.1785203594134574
 40
0.2324360310957839
 40
0.2863507886721327
 40
0.3403504877920357
 40
0.3943491612493281
 40
0.4482976350251073
 40
0.5022462527461743
 40
0.5560370955583762
 40
0.6098278157243685
 40
0.663425060332485
 40
0.7170218281109532
 40
0.7704700510101885
 40
0.8239178867954637
 40
0.8773232854451691
 40
0.930728702063584
 40
0.9842123695033257
 40
1.0
 40
1.0
 40
1.0
 40
1.0
 10
105.2965419982991
 20
124.3232524445849
 30
0.0
 10
105.3031631219196
 20
124.3181493582483
 30
0.0
 10
105.330003662358
 20
124.2974625982621
 30
0.0
 10
105.3874571108097
 20
124.4324532217655
 30
0.0
 10
105.4666997772618
 20
124.7315485826998
 30
0.0
 10
105.5521253820169
 20
125.1980211309041
 30
0.0
 10
105.640486213831
 20
125.8098944362065
 30
0.0
 10
105.7294640500741
 20
126.549169635496
 30
0.0
 10
105.8163581623835
 20
127.3982138161367
 30
0.0
 10
105.8988632469586
 20
128.3292574269341
 30
0.0
 10
105.9743929953677
 20
129.3181651005813
 30
0.0
 10
106.0411790753423
 20
130.3340413710611
 30
0.0
 10
106.097018685115
 20
131.3486822547386
 30
0.0
 10
106.1408524926605
 20
132.3325700426445
 30
0.0
 10
106.1710784811828
 20
133.2568269319671
 30
0.0
 10
106.187470427756
 20
134.0973669379989
 30
0.0
 10
106.1891237831015
 20
134.8278773359276
 30
0.0
 10
106.1765499456841
 20
135.4315264890535
 30
0.0
 10
106.1497670718066
 20
135.8906329443954
 30
0.0
 10
106.1091164311294
 20
136.1830378994052
 30
0.0
 10
106.0705191086675
 20
136.3130915095035
 30
0.0
 10
106.0428052327554
 20
136.291157055095
 30
0.0
 10
106.036488959702
 20
136.2861579707461
 30
0.0
  0
SPLINE
  5
2E2
330
1F
100
AcDbEntity
  8
0
  6
Continuous
 62
     7
370
    15
100
AcDbSpline
210
0.0
220
0.0
230
1.0
 70
     8
 71
     3
 72
    27
 73
    23
 74
     0
 42
0.00000001
 43
0.00000001
 12
1.0
 22
0.0
 32
0.0
 13
1.0
 23
0.0
 33
0.0
 40
0.0
 40
0.0
 40
0.0
 40
0.0
 40
0.0647797194440857
 40
0.1314355688302833
 40
0.1963399037053598
 40
0.2631177600265849
 40
0.3281948363651213
 40
0.3951517629445009
 40
0.460364998592852
 40
0.4939490994136284
 40
0.5275326722319799
 40
0.5927255636349146
 40
0.6263024112864327
 40
0.6598799841124015
 40
0.7249092421417191
 40
0.7584041405607568
 40
0.7918986565318024
 40
0.8566960258958982
 40
0.8900708448504029
 40
0.9234455160034993
 40
0.9880424642775335
 40
1.0
 40
1.0
 40
1.0
 40
1.0
 10
105.2258806919179
 20
190.3063988736468
 30
0.0
 10
105.2433580415906
 20
190.5017860317654
 30
0.0
 10
105.2788189144626
 20
190.8982190896704
 30
0.0
 10
105.3460258426514
 20
191.6525521057054
 30
0.0
 10
105.4219645305552
 20
192.5080779123656
 30
0.0
 10
105.5042802408068
 20
193.4390182971387
 30
0.0
 10
105.5916744614851
 20
194.4320926240557
 30
0.0
 10
105.6802549298016
 20
195.4430576785059
 30
0.0
 10
105.7541033871589
 20
196.2899086070074
 30
0.0
 10
105.8114284743234
 20
196.9494781848433
 30
0.0
 10
105.867281046266
 20
197.5933621653016
 30
0.0
 10
105.9204476923204
 20
198.2084217785969
 30
0.0
 10
105.9696749991314
 20
198.7793357809311
 30
0.0
 10
106.0158880158849
 20
199.3164627107371
 30
0.0
 10
106.0573254756039
 20
199.7993018422501
 30
0.0
 10
106.093001669904
 20
200.215842542375
 30
0.0
 10
106.1245685571173
 20
200.5849140884469
 30
0.0
 10
106.1497909864681
 20
200.880175757239
 30
0.0
 10
106.1682748557242
 20
201.0970712881053
 30
0.0
 10
106.1814522934256
 20
201.2514997935541
 30
0.0
 10
106.1892950408954
 20
201.3438944137025
 30
0.0
 10
106.1870828969644
 20
201.3176827864479
 30
0.0
 10
106.1867373680196
 20
201.3135886243182
 30
0.0
  0
SPLINE
  5
2E3
330
1F
100
AcDbEntity
  8
0
  6
Continuous
 62
     7
370
    15
100
AcDbSpline
210
0.0
220
0.0
230
1.0
 70
     8
 71
     3
 72
    26
 73
    22
 74
     0
 42
0.00000001
 43
0.00000001
 12
1.0
 22
0.0
 32
0.0
 13
1.0
 23
0.0
 33
0.0
 40
0.0
 40
0.0
 40
0.0
 40
0.0
 40
0.0545235862976993
 40
0.1190398702372125
 40
0.1854244718958407
 40
0.2500006218125476
 40
0.3164400518887388
 40
0.3811994281031095
 40
0.4478235749721598
 40
0.5128153973379146
 40
0.5796810259446692
 40
0.6448568112778535
 40
0.6784183420619508
 40
0.7119799636465787
 40
0.7772098159346309
 40
0.8108039790774566
 40
0.8443984312853808
 40
0.9095211125217136
 40
0.9430642690106876
 40
0.9766072112109752
 40
1.0
 40
1.0
 40
1.0
 40
1.0
 10
106.1867373680195
 20
-254.6606326052351
 30
0.0
 10
106.186209473084
 20
-254.6544847458821
 30
0.0
 10
106.1850569343591
 20
-254.6410622909537
 30
0.0
 10
106.1659221386948
 20
-254.4162155661377
 30
0.0
 10
106.133470104354
 20
-254.0362304054739
 30
0.0
 10
106.0873118726146
 20
-253.4961989920327
 30
0.0
 10
106.029902036732
 20
-252.8266816265024
 30
0.0
 10
105.9616498056123
 20
-252.0328397591431
 30
0.0
 10
105.8854808964828
 20
-251.1504760265255
 30
0.0
 10
105.8021342310384
 20
-250.1889139135146
 30
0.0
 10
105.7153149046008
 20
-249.1915444680699
 30
0.0
 10
105.6409306345228
 20
-248.3409811134684
 30
0.0
 10
105.5819836555006
 20
-247.6693767348726
 30
0.0
 10
105.5237567681433
 20
-247.0071597168587
 30
0.0
 10
105.4670578178581
 20
-246.364939373575
 30
0.0
 10
105.4133760995914
 20
-245.7586579541608
 30
0.0
 10
105.3621309593137
 20
-245.1808403317496
 30
0.0
 10
105.3148576116961
 20
-244.6496284650179
 30
0.0
 10
105.2728892017823
 20
-244.179351066175
 30
0.0
 10
105.2466046633542
 20
-243.8849989020188
 30
0.0
 10
105.2319158023371
 20
-243.7208752151486
 30
0.0
 10
105.2258806919179
 20
-243.6534428545637
 30
0.0
  0
SPLINE
  5
2E4
330
1F
100
AcDbEntity
  8
0
  6
Continuous
 62
     7
370
    15
100
AcDbSpline
210
0.0
220
0.0
230
1.0
 70
     8
 71
     3
 72
    27
 73
    23
 74
     0
 42
0.00000001
 43
0.00000001
 12
1.0
 22
0.0
 32
0.0
 13
1.0
 23
0.0
 33
0.0
 40
0.0
 40
0.0
 40
0.0
 40
0.0
 40
0.0016313861286938
 40
0.0554204987368423
 40
0.1092094887027263
 40
0.1628050093339534
 40
0.2164000531508697
 40
0.2698465568665587
 40
0.3232926734807394
 40
0.3766963543243577
 40
0.4301000531361076
 40
0.483582000252215
 40
0.5370648681881226
 40
0.5907162515238715
 40
0.6443687307474221
 40
0.6982107433776902
 40
0.7520537856202675
 40
0.8060280777492234
 40
0.8600025951951453
 40
0.9139897708426288
 40
0.9679761817373214
 40
1.0
 40
1.0
 40
1.0
 40
1.0
 10
106.037412831696
 20
-189.6486842581434
 30
0.0
 10
106.0380847947284
 20
-189.6495272366548
 30
0.0
 10
106.0609123312195
 20
-189.6781644113304
 30
0.0
 10
106.0962704648242
 20
-189.5748511429445
 30
0.0
 10
106.1410523380205
 20
-189.3323532309049
 30
0.0
 10
106.1710244089093
 20
-188.9048853066081
 30
0.0
 10
106.1874871131227
 20
-188.3376948956159
 30
0.0
 10
106.1891109804847
 20
-187.6341651090193
 30
0.0
 10
106.1765844853932
 20
-186.8218201791399
 30
0.0
 10
106.1496418197194
 20
-185.9185876877629
 30
0.0
 10
106.1095832312743
 20
-184.9530330346106
 30
0.0
 10
106.05691392903
 20
-183.9501192722927
 30
0.0
 10
105.9934483090536
 20
-182.938034149254
 30
0.0
 10
105.9204876390948
 20
-181.9460383962772
 30
0.0
 10
105.8401745150758
 20
-180.9996597417735
 30
0.0
 10
105.7545678343062
 20
-180.129319360571
 30
0.0
 10
105.6660495580043
 20
-179.3555287940011
 30
0.0
 10
105.5771847663743
 20
-178.7065234461369
 30
0.0
 10
105.4903308112772
 20
-178.1935580673535
 30
0.0
 10
105.4087107710827
 20
-177.8460745302007
 30
0.0
 10
105.3429842790546
 20
-177.6656955912352
 30
0.0
 10
105.3089685205954
 20
-177.6668982243692
 30
0.0
 10
105.29630357972
 20
-177.6673459955854
 30
0.0
  0
LINE
  5
2E5
330
1F
100
AcDbEntity
  8
0
  6
Continuous
 62
     7
370
    15
100
AcDbLine
 10
116.624598453
 20
-16.2812174806
 30
0.0
 11
124.5508837198
 21
-16.2812174806
 31
0.0
  0
SPLINE
  5
2E6
330
1F
100
AcDbEntity
  8
0
  6
Continuous
 62
     7
370
    15
100
AcDbSpline
210
0.0
220
0.0
230
1.0
 70
     8
 71
     3
 72
    16
 73
    12
 74
     0
 42
0.00000001
 43
0.00000001
 12
1.0
 22
0.0
 32
0.0
 13
1.0
 23
0.0
 33
0.0
 40
0.0
 40
0.0
 40
0.0
 40
0.0
 40
0.2499999999999983
 40
0.2499999999999983
 40
0.4999999999999967
 40
0.4999999999999967
 40
0.6249999999999958
 40
0.6249999999999958
 40
0.749999999999995
 40
0.749999999999995
 40
1.0
 40
1.0
 40
1.0
 40
1.0
 10
124.5508809979455
 20
-16.28121714504748
 30
0.0
 10
124.7958025125279
 20
-16.70543365217092
 30
0.0
 10
124.9976622325643
 20
-17.13274305798163
 30
0.0
 10
125.2773035041614
 20
-17.99627374168003
 30
0.0
 10
125.3541626388897
 20
-18.43256127184168
 30
0.0
 10
125.3550068000589
 20
-19.09521250715215
 30
0.0
 10
125.3362177133889
 20
-19.31713556493302
 30
0.0
 10
125.262950221308
 20
-19.75612278392811
 30
0.0
 10
125.2085461696446
 20
-19.97414463237617
 30
0.0
 10
124.9984671112925
 20
-20.62432859659602
 30
0.0
 10
124.7961078181252
 20
-21.05262425582393
 30
0.0
 10
124.5508809979452
 20
-21.47736956775425
 30
0.0
  0
LINE
  5
2E7
330
1F
100
AcDbEntity
  8
0
  6
Continuous
 62
     7
370
    15
100
AcDbLine
 10
116.624598453
 20
-21.4773697355
 30
0.0
 11
124.5508837198
 21
-21.4773697355
 31
0.0
  0
SPLINE
  5
2E8
330
1F
100
AcDbEntity
  8
0
  6
Continuous
 62
     7
370
    15
100
AcDbSpline
210
0.0
220
0.0
230
1.0
 70
     8
 71
     3
 72
    16
 73
    12
 74
     0
 42
0.00000001
 43
0.00000001
 12
1.0
 22
0.0
 32
0.0
 13
1.0
 23
0.0
 33
0.0
 40
0.0
 40
0.0
 40
0.0
 40
0.0
 40
0.2499999999999983
 40
0.2499999999999983
 40
0.4999999999999966
 40
0.4999999999999966
 40
0.6249999999999957
 40
0.6249999999999957
 40
0.7499999999999949
 40
0.7499999999999949
 40
1.0
 40
1.0
 40
1.0
 40
1.0
 10
116.6246015563158
 20
-21.47736956775424
 30
0.0
 10
116.3796800417334
 20
-21.0531530606308
 30
0.0
 10
116.1778203216968
 20
-20.62584365482009
 30
0.0
 10
115.8981790500998
 20
-19.76231297112169
 30
0.0
 10
115.8213199153715
 20
-19.32602544096004
 30
0.0
 10
115.8204757542023
 20
-18.6633742056496
 30
0.0
 10
115.8392648408724
 20
-18.44145114786869
 30
0.0
 10
115.9125323329532
 20
-18.00246392887361
 30
0.0
 10
115.9669363846166
 20
-17.78444208042555
 30
0.0
 10
116.1770154429687
 20
-17.1342581162057
 30
0.0
 10
116.379374736136
 20
-16.7059624569778
 30
0.0
 10
116.624601556316
 20
-16.28121714504748
 30
0.0
  0
SPLINE
  5
2E9
330
1F
100
AcDbEntity
  8
0
  6
Continuous
 62
     7
370
    15
100
AcDbSpline
210
0.0
220
0.0
230
1.0
 70
     8
 71
     3
 72
    16
 73
    12
 74
     0
 42
0.00000001
 43
0.00000001
 12
1.0
 22
0.0
 32
0.0
 13
1.0
 23
0.0
 33
0.0
 40
0.0
 40
0.0
 40
0.0
 40
0.0
 40
0.2499999999999999
 40
0.2499999999999999
 40
0.4999999999999999
 40
0.4999999999999999
 40
0.6249999999999999
 40
0.6249999999999999
 40
0.7499999999999998
 40
0.7499999999999998
 40
1.0
 40
1.0
 40
1.0
 40
1.0
 10
116.6246015563161
 20
-31.86967441316749
 30
0.0
 10
116.3806262597856
 20
-31.02451919440267
 30
0.0
 10
116.1759323042947
 20
-30.15869129759256
 30
0.0
 10
115.8960785319692
 20
-28.42280595641257
 30
0.0
 10
115.8206699576781
 20
-27.55016582064279
 30
0.0
 10
115.8207960969108
 20
-26.23296088386966
 30
0.0
 10
115.8394875631044
 20
-25.79253474005202
 30
0.0
 10
115.9136624201614
 20
-24.90900369688178
 30
0.0
 10
115.9688386684821
 20
-24.46989671838472
 30
0.0
 10
116.1801757085577
 20
-23.16829359426961
 30
0.0
 10
116.3821387729272
 20
-22.31728528730269
 30
0.0
 10
116.6246015563162
 20
-21.47736956775424
 30
0.0
  0
SPLINE
  5
2EA
330
1F
100
AcDbEntity
  8
0
  6
Continuous
 62
     7
370
    15
100
AcDbSpline
210
0.0
220
0.0
230
1.0
 70
     8
 71
     3
 72
    16
 73
    12
 74
     0
 42
0.00000001
 43
0.00000001
 12
1.0
 22
0.0
 32
0.0
 13
1.0
 23
0.0
 33
0.0
 40
0.0
 40
0.0
 40
0.0
 40
0.0
 40
0.2499999999999984
 40
0.2499999999999984
 40
0.4999999999999969
 40
0.4999999999999969
 40
0.624999999999996
 40
0.624999999999996
 40
0.7499999999999951
 40
0.7499999999999951
 40
1.0
 40
1.0
 40
1.0
 40
1.0
 10
116.6246015563158
 20
-37.0658268358741
 30
0.0
 10
116.3796800417334
 20
-36.64161032875068
 30
0.0
 10
116.1778203216969
 20
-36.21430092293998
 30
0.0
 10
115.8981790500999
 20
-35.35077023924163
 30
0.0
 10
115.8213199153715
 20
-34.91448270908
 30
0.0
 10
115.8204757542023
 20
-34.25183147376958
 30
0.0
 10
115.8392648408724
 20
-34.02990841598866
 30
0.0
 10
115.9125323329532
 20
-33.59092119699358
 30
0.0
 10
115.9669363846166
 20
-33.37289934854555
 30
0.0
 10
116.1770154429687
 20
-32.72271538432572
 30
0.0
 10
116.3793747361359
 20
-32.29441972509782
 30
0.0
 10
116.624601556316
 20
-31.86967441316752
 30
0.0
  0
SPLINE
  5
2EB
330
1F
100
AcDbEntity
  8
0
  6
Continuous
 62
     7
370
    15
100
AcDbSpline
210
0.0
220
0.0
230
1.0
 70
     8
 71
     3
 72
    16
 73
    12
 74
     0
 42
0.00000001
 43
0.00000001
 12
1.0
 22
0.0
 32
0.0
 13
1.0
 23
0.0
 33
0.0
 40
0.0
 40
0.0
 40
0.0
 40
0.0
 40
0.2500000000000001
 40
0.2500000000000001
 40
0.5000000000000001
 40
0.5000000000000001
 40
0.6250000000000001
 40
0.6250000000000001
 40
0.7500000000000002
 40
0.7500000000000002
 40
1.0
 40
1.0
 40
1.0
 40
1.0
 10
124.5508809979451
 20
-31.86967441316754
 30
0.0
 10
124.7948562944755
 20
-31.02451919440273
 30
0.0
 10
124.9995502499665
 20
-30.15869129759258
 30
0.0
 10
125.279404022292
 20
-28.42280595641258
 30
0.0
 10
125.3548125965831
 20
-27.5501658206428
 30
0.0
 10
125.3546864573504
 20
-26.23296088386967
 30
0.0
 10
125.3359949911568
 20
-25.79253474005204
 30
0.0
 10
125.2618201340998
 20
-24.90900369688179
 30
0.0
 10
125.206643885779
 20
-24.46989671838467
 30
0.0
 10
124.9953068457035
 20
-23.16829359426955
 30
0.0
 10
124.793343781334
 20
-22.31728528730264
 30
0.0
 10
124.550880997945
 20
-21.4773695677542
 30
0.0
  0
LINE
  5
2EC
330
1F
100
AcDbEntity
  8
0
  6
Continuous
 62
     7
370
    15
100
AcDbLine
 10
116.624598453
 20
-31.8696742454
 30
0.0
 11
124.5508837198
 21
-31.8696742454
 31
0.0
  0
SPLINE
  5
2ED
330
1F
100
AcDbEntity
  8
0
  6
Continuous
 62
     7
370
    15
100
AcDbSpline
210
0.0
220
0.0
230
1.0
 70
     8
 71
     3
 72
    16
 73
    12
 74
     0
 42
0.00000001
 43
0.00000001
 12
1.0
 22
0.0
 32
0.0
 13
1.0
 23
0.0
 33
0.0
 40
0.0
 40
0.0
 40
0.0
 40
0.0
 40
0.2500000000000034
 40
0.2500000000000034
 40
0.5000000000000069
 40
0.5000000000000069
 40
0.6250000000000051
 40
0.6250000000000051
 40
0.7500000000000034
 40
0.7500000000000034
 40
1.0
 40
1.0
 40
1.0
 40
1.0
 10
124.5508809979454
 20
-31.86967441316749
 30
0.0
 10
124.7958025125279
 20
-32.29389092029091
 30
0.0
 10
124.9976622325643
 20
-32.7212003261016
 30
0.0
 10
125.2773035041614
 20
-33.58473100979997
 30
0.0
 10
125.3541626388897
 20
-34.02101853996162
 30
0.0
 10
125.3550068000589
 20
-34.68366977527206
 30
0.0
 10
125.3362177133888
 20
-34.90559283305291
 30
0.0
 10
125.262950221308
 20
-35.34458005204799
 30
0.0
 10
125.2085461696447
 20
-35.56260190049605
 30
0.0
 10
124.9984671112926
 20
-36.21278586471588
 30
0.0
 10
124.7961078181252
 20
-36.64108152394377
 30
0.0
 10
124.5508809979452
 20
-37.06582683587409
 30
0.0
  0
LINE
  5
2EE
330
1F
100
AcDbEntity
  8
0
  6
Continuous
 62
     7
370
    15
100
AcDbLine
 10
125.7877397036
 20
-26.6735219905
 30
0.0
 11
125.7877397036
 21
-18.4235220352
 31
0.0
  0
LINE
  5
2EF
330
1F
100
AcDbEntity
  8
0
  6
Continuous
 62
     7
370
    15
100
AcDbLine
 10
125.7877397036
 20
-34.9235219458
 30
0.0
 11
125.7877397036
 21
-26.6735219905
 31
0.0
  0
LINE
  5
2F0
330
1F
100
AcDbEntity
  8
0
  6
Continuous
 62
     7
370
    15
100
AcDbLine
 10
116.624598453
 20
-37.0658265003
 30
0.0
 11
124.5508837198
 21
-37.0658265003
 31
0.0
  0
LINE
  5
2F1
330
1F
100
AcDbEntity
  8
0
  6
Continuous
 62
     7
370
    15
100
AcDbLine
 10
165.8877405023
 20
-26.6735219905
 30
0.0
 11
165.8877405023
 21
-20.6735219383
 31
0.0
  0
LINE
  5
2F2
330
1F
100
AcDbEntity
  8
0
  6
Continuous
 62
     7
370
    15
100
AcDbLine
 10
165.8877405023
 20
-32.6735220426
 30
0.0
 11
165.8877405023
 21
-26.6735219905
 31
0.0
  0
LINE
  5
2F3
330
1F
100
AcDbEntity
  8
0
  6
Continuous
 62
     7
370
    15
100
AcDbLine
 10
-58.1122589613
 20
-179.2325341651
 30
0.0
 11
-58.1122589613
 21
-135.2325269529
 31
0.0
  0
LINE
  5
2F4
330
1F
100
AcDbEntity
  8
0
  6
Continuous
 62
     7
370
    15
100
AcDbLine
 10
243.8877421116
 20
-179.2325341651
 30
0.0
 11
243.8877421116
 21
-135.2325269529
 31
0.0
  0
SPLINE
  5
2F5
330
1F
100
AcDbEntity
  8
0
  6
Continuous
 62
     7
370
    15
100
AcDbSpline
210
0.0
220
0.0
230
1.0
 70
     8
 71
     3
 72
    12
 73
     8
 74
     0
 42
0.00000001
 43
0.00000001
 12
1.0
 22
0.0
 32
0.0
 13
1.0
 23
0.0
 33
0.0
 40
0.0
 40
0.0
 40
0.0
 40
0.0
 40
0.285500472558771
 40
0.4324865679566219
 40
0.5794704510340223
 40
0.8655375824185036
 40
1.0
 40
1.0
 40
1.0
 40
1.0
 10
105.2258806919179
 20
-243.6534428545637
 30
0.0
 10
105.2050519857163
 20
-243.4848239026724
 30
0.0
 10
105.1734998990267
 20
-243.2293937412358
 30
0.0
 10
105.1194213136003
 20
-242.989160438014
 30
0.0
 10
105.0714502146374
 20
-242.7991800950833
 30
0.0
 10
105.037181126752
 20
-242.68763488811
 30
0.0
 10
105.0343856430043
 20
-242.6783342674353
 30
0.0
 10
105.0334917997441
 20
-242.6753604361219
 30
0.0
  0
SPLINE
  5
2F6
330
1F
100
AcDbEntity
  8
0
  6
Continuous
 62
     7
370
    15
100
AcDbSpline
210
0.0
220
0.0
230
1.0
 70
     8
 71
     3
 72
    12
 73
     8
 74
     0
 42
0.00000001
 43
0.00000001
 12
1.0
 22
0.0
 32
0.0
 13
1.0
 23
0.0
 33
0.0
 40
0.0
 40
0.0
 40
0.0
 40
0.0
 40
0.0131732419087311
 40
0.1608267344151477
 40
0.4372084972296718
 40
0.7212354366372211
 40
0.9999999999999999
 40
0.9999999999999999
 40
0.9999999999999999
 40
0.9999999999999999
 10
105.0334917997441
 20
189.328316455205
 30
0.0
 10
105.0333134569317
 20
189.3277332702769
 30
0.0
 10
105.0311361423175
 20
189.3206134034895
 30
0.0
 10
105.0427579340479
 20
189.3580779054529
 30
0.0
 10
105.0826745107731
 20
189.4948870633712
 30
0.0
 10
105.1643231328502
 20
189.8108553196876
 30
0.0
 10
105.2054898151056
 20
190.1422505916655
 30
0.0
 10
105.2258806919179
 20
190.3063988736468
 30
0.0
  0
LINE
  5
2F7
330
1F
100
AcDbEntity
  8
0
  6
Continuous
 62
     7
370
    15
100
AcDbLine
 10
-57.3122454191
 20
-150.3376477906
 30
0.0
 11
-57.3122454191
 21
-159.9373036572
 31
0.0
  0
LINE
  5
2F8
330
1F
100
AcDbEntity
  8
0
  6
Continuous
 62
     7
370
    15
100
AcDbLine
 10
-57.3122454191
 20
-140.7379844734
 30
0.0
 11
-57.3122454191
 21
-150.3376477906
 31
0.0
  0
LINE
  5
2F9
330
1F
100
AcDbEntity
  8
0
  6
Continuous
 62
     7
370
    15
100
AcDbLine
 10
-57.3122454191
 20
-140.7379844734
 30
0.0
 11
-38.2199538256
 21
-140.7379844734
 31
0.0
  0
SPLINE
  5
2FA
330
1F
100
AcDbEntity
  8
0
  6
Continuous
 62
     7
370
    15
100
AcDbSpline
210
0.0
220
0.0
230
1.0
 70
     8
 71
     3
 72
    12
 73
     8
 74
     0
 42
0.00000001
 43
0.00000001
 12
1.0
 22
0.0
 32
0.0
 13
1.0
 23
0.0
 33
0.0
 40
0.0
 40
0.0
 40
0.0
 40
0.0
 40
0.2499999999999978
 40
0.2499999999999978
 40
0.4999999999999956
 40
0.4999999999999956
 40
1.0
 40
1.0
 40
1.0
 40
1.0
 10
-36.6122587228693
 20
-150.3376446049184
 30
0.0
 10
-36.61225872286936
 20
-149.5260701029337
 30
0.0
 10
-36.64959583405938
 20
-148.7118960251067
 30
0.0
 10
-36.79798052048486
 20
-147.0784158189121
 30
0.0
 10
-36.90826129627015
 20
-146.2676487529588
 30
0.0
 10
-37.33089326850017
 20
-143.8627660789024
 30
0.0
 10
-37.73487060264238
 20
-142.2901934322717
 30
0.0
 10
-38.21995387745606
 20
-140.7379814128292
 30
0.0
  0
SPLINE
  5
2FB
330
1F
100
AcDbEntity
  8
0
  6
Continuous
 62
     7
370
    15
100
AcDbSpline
210
0.0
220
0.0
230
1.0
 70
     8
 71
     3
 72
    12
 73
     8
 74
     0
 42
0.00000001
 43
0.00000001
 12
1.0
 22
0.0
 32
0.0
 13
1.0
 23
0.0
 33
0.0
 40
0.0
 40
0.0
 40
0.0
 40
0.0
 40
0.2500000000000014
 40
0.2500000000000014
 40
0.5000000000000028
 40
0.5000000000000028
 40
1.0
 40
1.0
 40
1.0
 40
1.0
 10
-38.21995387745606
 20
-159.9373077970076
 30
0.0
 10
-37.97599102990281
 20
-159.1566540743765
 30
0.0
 10
-37.75201653508495
 20
-158.3688301351537
 30
0.0
 10
-37.35459183059611
 20
-156.7750581985413
 30
0.0
 10
-37.18289288559748
 20
-155.9755627378711
 30
0.0
 10
-36.76320830273686
 20
-153.5715052364572
 30
0.0
 10
-36.61225872286924
 20
-151.9598298114485
 30
0.0
 10
-36.6122587228693
 20
-150.3376446049184
 30
0.0
  0
LINE
  5
2FC
330
1F
100
AcDbEntity
  8
0
  6
Continuous
 62
     7
370
    15
100
AcDbLine
 10
-57.3122454191
 20
-159.9373036572
 30
0.0
 11
-38.2199538256
 21
-159.9373036572
 31
0.0
  0
SPLINE
  5
2FD
330
1F
100
AcDbEntity
  8
0
  6
Continuous
 62
     7
370
    15
100
AcDbSpline
210
0.0
220
0.0
230
1.0
 70
     8
 71
     3
 72
    14
 73
    10
 74
     0
 42
0.00000001
 43
0.00000001
 12
1.0
 22
0.0
 32
0.0
 13
1.0
 23
0.0
 33
0.0
 40
0.0
 40
0.0
 40
0.0
 40
0.0
 40
0.1250000000000009
 40
0.1250000000000009
 40
0.2500000000000018
 40
0.2500000000000018
 40
0.4999999999999988
 40
0.4999999999999988
 40
1.0
 40
1.0
 40
1.0
 40
1.0
 10
-36.6122587228693
 20
-168.1845804656213
 30
0.0
 10
-36.61225872286936
 20
-167.8346214996117
 30
0.0
 10
-36.62168782829142
 20
-167.4829117593541
 30
0.0
 10
-36.65908980557883
 20
-166.7827646629979
 30
0.0
 10
-36.68702239754926
 20
-166.4339046356359
 30
0.0
 10
-36.79731388032801
 20
-165.3908072275377
 30
0.0
 10
-36.90622792830353
 20
-164.7000605986087
 30
0.0
 10
-37.32629797611162
 20
-162.6400889332846
 30
0.0
 10
-37.73041874031893
 20
-161.2830843826197
 30
0.0
 10
-38.21995387745594
 20
-159.9373077970075
 30
0.0
  0
LINE
  5
2FE
330
1F
100
AcDbEntity
  8
0
  6
Continuous
 62
     7
370
    15
100
AcDbLine
 10
-36.6122675444
 20
-168.1845748374
 30
0.0
 11
-36.6122675444
 21
-150.3376477906
 31
0.0
  0
LINE
  5
2FF
330
1F
100
AcDbEntity
  8
0
  6
Continuous
 62
     7
370
    15
100
AcDbLine
 10
-57.3122454191
 20
-168.1845748374
 30
0.0
 11
-57.3122454191
 21
-176.4318460175
 31
0.0
  0
SPLINE
  5
300
330
1F
100
AcDbEntity
  8
0
  6
Continuous
 62
     7
370
    15
100
AcDbSpline
210
0.0
220
0.0
230
1.0
 70
     8
 71
     3
 72
    10
 73
     6
 74
     0
 42
0.00000001
 43
0.00000001
 12
1.0
 22
0.0
 32
0.0
 13
1.0
 23
0.0
 33
0.0
 40
0.0
 40
0.0
 40
0.0
 40
0.0
 40
0.5
 40
0.5
 40
1.0
 40
1.0
 40
1.0
 40
1.0
 10
-38.21995387745589
 20
-176.431853134235
 30
0.0
 10
-37.72919305939629
 20
-175.0827070403652
 30
0.0
 10
-37.32487920816405
 20
-173.7237064479323
 30
0.0
 10
-36.76548053455067
 20
-170.9772944674438
 30
0.0
 10
-36.6122587228693
 20
-169.5896707059884
 30
0.0
 10
-36.6122587228693
 20
-168.1845804656213
 30
0.0
  0
LINE
  5
301
330
1F
100
AcDbEntity
  8
0
  6
Continuous
 62
     7
370
    15
100
AcDbLine
 10
-57.3122454191
 20
-176.4318460175
 30
0.0
 11
-38.2199538256
 21
-176.4318460175
 31
0.0
  0
LINE
  5
302
330
1F
100
AcDbEntity
  8
0
  6
Continuous
 62
     7
370
    15
100
AcDbLine
 10
-57.3122454191
 20
-159.9373036572
 30
0.0
 11
-57.3122454191
 21
-168.1845748374
 31
0.0
  0
SPLINE
  5
303
330
1F
100
AcDbEntity
  8
0
  6
Continuous
 62
     7
370
    15
100
AcDbSpline
210
0.0
220
0.0
230
1.0
 70
     8
 71
     3
 72
    14
 73
    10
 74
     0
 42
0.00000001
 43
0.00000001
 12
1.0
 22
0.0
 32
0.0
 13
1.0
 23
0.0
 33
0.0
 40
0.0
 40
0.0
 40
0.0
 40
0.0
 40
0.1249999999999992
 40
0.1249999999999992
 40
0.2499999999999983
 40
0.2499999999999983
 40
0.4999999999999965
 40
0.4999999999999965
 40
1.0
 40
1.0
 40
1.0
 40
1.0
 10
222.3877412771306
 20
-141.6440694819367
 30
0.0
 10
222.3877412771306
 20
-141.8645593580626
 30
0.0
 10
222.3971703825527
 20
-142.0861523006464
 30
0.0
 10
222.43457235984
 20
-142.5272764367293
 30
0.0
 10
222.4625049518105
 20
-142.7470739321197
 30
0.0
 10
222.5727964345893
 20
-143.4042721771632
 30
0.0
 10
222.6817104825648
 20
-143.8394735962996
 30
0.0
 10
223.1017805303728
 20
-145.13734832284
 30
0.0
 10
223.5059012945802
 20
-145.9923221750319
 30
0.0
 10
223.9954364317172
 20
-146.8402219046434
 30
0.0
  0
SPLINE
  5
304
330
1F
100
AcDbEntity
  8
0
  6
Continuous
 62
     7
370
    15
100
AcDbSpline
210
0.0
220
0.0
230
1.0
 70
     8
 71
     3
 72
    12
 73
     8
 74
     0
 42
0.00000001
 43
0.00000001
 12
1.0
 22
0.0
 32
0.0
 13
1.0
 23
0.0
 33
0.0
 40
0.0
 40
0.0
 40
0.0
 40
0.0
 40
0.2500000000000001
 40
0.2500000000000001
 40
0.5000000000000002
 40
0.5000000000000002
 40
1.0
 40
1.0
 40
1.0
 40
1.0
 10
223.9954364317173
 20
-146.8402219046434
 30
0.0
 10
223.7514735841641
 20
-147.685333998886
 30
0.0
 10
223.5274990893462
 20
-148.5382083526095
 30
0.0
 10
223.1300743848575
 20
-150.2635776169176
 30
0.0
 10
222.9583754398587
 20
-151.1290872065307
 30
0.0
 10
222.5386908569981
 20
-153.7316471006303
 30
0.0
 10
222.3877412771306
 20
-155.4763981396412
 30
0.0
 10
222.3877412771306
 20
-157.2325267500567
 30
0.0
  0
LINE
  5
305
330
1F
100
AcDbEntity
  8
0
  6
Continuous
 62
     7
370
    15
100
AcDbLine
 10
222.3877395188
 20
-141.6440719315
 30
0.0
 11
222.3877395188
 21
-157.2325193831
 31
0.0
  0
LINE
  5
306
330
1F
100
AcDbEntity
  8
0
  6
Continuous
 62
     7
370
    15
100
AcDbLine
 10
243.0877416079
 20
-141.6440719315
 30
0.0
 11
243.0877416079
 21
-136.4479178139
 31
0.0
  0
LINE
  5
307
330
1F
100
AcDbEntity
  8
0
  6
Continuous
 62
     7
370
    15
100
AcDbLine
 10
243.0877416079
 20
-146.8402185985
 30
0.0
 11
223.9954369759
 21
-146.8402185985
 31
0.0
  0
SPLINE
  5
308
330
1F
100
AcDbEntity
  8
0
  6
Continuous
 62
     7
370
    15
100
AcDbSpline
210
0.0
220
0.0
230
1.0
 70
     8
 71
     3
 72
    10
 73
     6
 74
     0
 42
0.00000001
 43
0.00000001
 12
1.0
 22
0.0
 32
0.0
 13
1.0
 23
0.0
 33
0.0
 40
0.0
 40
0.0
 40
0.0
 40
0.0
 40
0.5
 40
0.5
 40
1.0
 40
1.0
 40
1.0
 40
1.0
 10
223.9954364317171
 20
-136.4479170592301
 30
0.0
 10
223.5046756136576
 20
-137.2979397304733
 30
0.0
 10
223.1003617624253
 20
-138.1541711786834
 30
0.0
 10
222.5409630888119
 20
-139.884534153158
 30
0.0
 10
222.3877412771306
 20
-140.7587994842089
 30
0.0
 10
222.3877412771306
 20
-141.6440694819367
 30
0.0
  0
LINE
  5
309
330
1F
100
AcDbEntity
  8
0
  6
Continuous
 62
     7
370
    15
100
AcDbLine
 10
243.0877416079
 20
-136.4479178139
 30
0.0
 11
223.9954369759
 21
-136.4479178139
 31
0.0
  0
LINE
  5
30A
330
1F
100
AcDbEntity
  8
0
  6
Continuous
 62
     7
370
    15
100
AcDbLine
 10
243.0877416079
 20
-146.8402185985
 30
0.0
 11
243.0877416079
 21
-141.6440719315
 31
0.0
  0
LINE
  5
30B
330
1F
100
AcDbEntity
  8
0
  6
Continuous
 62
     7
370
    15
100
AcDbLine
 10
243.0877416079
 20
-167.6248276183
 30
0.0
 11
243.0877416079
 21
-157.2325193831
 31
0.0
  0
LINE
  5
30C
330
1F
100
AcDbEntity
  8
0
  6
Continuous
 62
     7
370
    15
100
AcDbLine
 10
243.0877416079
 20
-167.6248276183
 30
0.0
 11
223.9954369759
 21
-167.6248276183
 31
0.0
  0
SPLINE
  5
30D
330
1F
100
AcDbEntity
  8
0
  6
Continuous
 62
     7
370
    15
100
AcDbSpline
210
0.0
220
0.0
230
1.0
 70
     8
 71
     3
 72
    12
 73
     8
 74
     0
 42
0.00000001
 43
0.00000001
 12
1.0
 22
0.0
 32
0.0
 13
1.0
 23
0.0
 33
0.0
 40
0.0
 40
0.0
 40
0.0
 40
0.0
 40
0.2499999999999981
 40
0.2499999999999981
 40
0.4999999999999962
 40
0.4999999999999962
 40
1.0
 40
1.0
 40
1.0
 40
1.0
 10
222.3877412771306
 20
-157.2325267500567
 30
0.0
 10
222.3877412771305
 20
-158.111112744234
 30
0.0
 10
222.4250783883206
 20
-158.9925129605441
 30
0.0
 10
222.5734630747461
 20
-160.7608691957621
 30
0.0
 10
222.6837438505313
 20
-161.6385810841283
 30
0.0
 10
223.1063758227614
 20
-164.2420342851574
 30
0.0
 10
223.5103531569036
 20
-165.9444538397114
 30
0.0
 10
223.9954364317173
 20
-167.6248315954699
 30
0.0
  0
LINE
  5
30E
330
1F
100
AcDbEntity
  8
0
  6
Continuous
 62
     7
370
    15
100
AcDbLine
 10
243.0877416079
 20
-157.2325193831
 30
0.0
 11
243.0877416079
 21
-146.8402185985
 31
0.0
  0
SPLINE
  5
30F
330
1F
100
AcDbEntity
  8
0
  6
Continuous
 62
     7
370
    15
100
AcDbSpline
210
0.0
220
0.0
230
1.0
 70
     8
 71
     3
 72
    10
 73
     6
 74
     0
 42
0.00000001
 43
0.00000001
 12
1.0
 22
0.0
 32
0.0
 13
1.0
 23
0.0
 33
0.0
 40
0.0
 40
0.0
 40
0.0
 40
0.0
 40
0.5
 40
0.5
 40
1.0
 40
1.0
 40
1.0
 40
1.0
 10
223.9954364317171
 20
-167.6248315954699
 30
0.0
 10
223.5046756136575
 20
-168.4748542667132
 30
0.0
 10
223.1003617624253
 20
-169.3310857149232
 30
0.0
 10
222.5409630888119
 20
-171.0614486893978
 30
0.0
 10
222.3877412771305
 20
-171.9357140204486
 30
0.0
 10
222.3877412771305
 20
-172.8209840181765
 30
0.0
  0
LINE
  5
310
330
1F
100
AcDbEntity
  8
0
  6
Continuous
 62
     7
370
    15
100
AcDbLine
 10
222.3877395188
 20
-157.2325193831
 30
0.0
 11
222.3877395188
 21
-172.8209817359
 31
0.0
  0
LINE
  5
311
330
1F
100
AcDbEntity
  8
0
  6
Continuous
 62
     7
370
    15
100
AcDbLine
 10
243.0877416079
 20
-178.0171358534
 30
0.0
 11
243.0877416079
 21
-172.8209817359
 31
0.0
  0
LINE
  5
312
330
1F
100
AcDbEntity
  8
0
  6
Continuous
 62
     7
370
    15
100
AcDbLine
 10
243.0877416079
 20
-178.0171358534
 30
0.0
 11
223.9954369759
 21
-178.0171358534
 31
0.0
  0
SPLINE
  5
313
330
1F
100
AcDbEntity
  8
0
  6
Continuous
 62
     7
370
    15
100
AcDbSpline
210
0.0
220
0.0
230
1.0
 70
     8
 71
     3
 72
    14
 73
    10
 74
     0
 42
0.00000001
 43
0.00000001
 12
1.0
 22
0.0
 32
0.0
 13
1.0
 23
0.0
 33
0.0
 40
0.0
 40
0.0
 40
0.0
 40
0.0
 40
0.1250000000000022
 40
0.1250000000000022
 40
0.2500000000000045
 40
0.2500000000000045
 40
0.500000000000002
 40
0.500000000000002
 40
1.0
 40
1.0
 40
1.0
 40
1.0
 10
222.3877412771305
 20
-172.8209840181765
 30
0.0
 10
222.3877412771305
 20
-173.0414738943024
 30
0.0
 10
222.3971703825527
 20
-173.2630668368862
 30
0.0
 10
222.43457235984
 20
-173.7041909729691
 30
0.0
 10
222.4625049518105
 20
-173.9239884683595
 30
0.0
 10
222.5727964345893
 20
-174.581186713403
 30
0.0
 10
222.6817104825648
 20
-175.0163881325394
 30
0.0
 10
223.1017805303728
 20
-176.3142628590797
 30
0.0
 10
223.5059012945802
 20
-177.1692367112716
 30
0.0
 10
223.9954364317172
 20
-178.0171364408831
 30
0.0
  0
LINE
  5
314
330
1F
100
AcDbEntity
  8
0
  6
Continuous
 62
     7
370
    15
100
AcDbLine
 10
243.0877416079
 20
-172.8209817359
 30
0.0
 11
243.0877416079
 21
-167.6248276183
 31
0.0
  0
SPLINE
  5
315
330
1F
100
AcDbEntity
  8
0
  6
Continuous
 62
     7
370
    15
100
AcDbSpline
210
0.0
220
0.0
230
1.0
 70
     8
 71
     3
 72
    10
 73
     6
 74
     0
 42
0.00000001
 43
0.00000001
 12
1.0
 22
0.0
 32
0.0
 13
1.0
 23
0.0
 33
0.0
 40
0.0
 40
0.0
 40
0.0
 40
0.0
 40
0.5
 40
0.5
 40
1.0
 40
1.0
 40
1.0
 40
1.0
 10
-38.21995387745583
 20
-140.7379814128292
 30
0.0
 10
-37.72919305939623
 20
-140.5167479862836
 30
0.0
 10
-37.32487920816405
 20
-140.2938986157762
 30
0.0
 10
-36.76548053455067
 20
-139.8435410630173
 30
0.0
 10
-36.6122587228693
 20
-139.6159980557049
 30
0.0
 10
-36.6122587228693
 20
-139.3855908893538
 30
0.0
  0
LINE
  5
316
330
1F
100
AcDbEntity
  8
0
  6
Continuous
 62
     7
370
    15
100
AcDbLine
 10
-36.6122675444
 20
-150.3376477906
 30
0.0
 11
-36.6122675444
 21
-139.3855923363
 31
0.0
  0
LINE
  5
317
330
1F
100
AcDbEntity
  8
0
  6
Continuous
 62
     7
370
    15
100
AcDbLine
 10
72.8877382969
 20
181.9540596059
 30
0.0
 11
72.8877382969
 21
180.7218378833
 31
0.0
  0
LINE
  5
318
330
1F
100
AcDbEntity
  8
0
  6
Continuous
 62
     7
370
    15
100
AcDbLine
 10
72.8877382969
 20
156.7218339494
 30
0.0
 11
72.8877382969
 21
136.3041883758
 31
0.0
  0
LINE
  5
319
330
1F
100
AcDbEntity
  8
0
  6
Continuous
 62
     7
370
    15
100
AcDbLine
 10
72.8877382969
 20
124.3041789583
 30
0.0
 11
72.8877382969
 21
-20.6735219383
 31
0.0
  0
LINE
  5
31A
330
1F
100
AcDbEntity
  8
0
  6
Continuous
 62
     7
370
    15
100
AcDbLine
 10
72.8877382969
 20
-32.6735220426
 30
0.0
 11
72.8877382969
 21
-145.2325248667
 31
0.0
  0
LINE
  5
31B
330
1F
100
AcDbEntity
  8
0
  6
Continuous
 62
     7
370
    15
100
AcDbLine
 10
72.8877382969
 20
-169.2325288006
 30
0.0
 11
72.8877382969
 21
-177.6512229392
 31
0.0
  0
LINE
  5
31C
330
1F
100
AcDbEntity
  8
0
  6
Continuous
 62
     7
370
    15
100
AcDbLine
 10
72.8877382969
 20
-189.6512323567
 30
0.0
 11
72.8877382969
 21
-235.3011035868
 31
0.0
  0
SPLINE
  5
31D
330
1F
100
AcDbEntity
  8
0
  6
Continuous
 62
     7
370
    15
100
AcDbSpline
210
0.0
220
0.0
230
1.0
 70
     8
 71
     3
 72
    11
 73
     7
 74
     0
 42
0.00000001
 43
0.00000001
 12
1.0
 22
0.0
 32
0.0
 13
1.0
 23
0.0
 33
0.0
 40
0.0
 40
0.0
 40
0.0
 40
0.0
 40
0.1974039509074118
 40
0.3953495665940949
 40
0.6976464417465948
 40
1.0
 40
1.0
 40
1.0
 40
1.0
 10
-36.70194273242141
 20
-175.3869020888013
 30
0.0
 10
-36.75003831804677
 20
-175.4567315639696
 30
0.0
 10
-36.84636146074325
 20
-175.5965821222608
 30
0.0
 10
-37.13141149487151
 20
-175.841623442635
 30
0.0
 10
-37.56441344167025
 20
-176.1212160178854
 30
0.0
 10
-38.00142670829279
 20
-176.3282962133808
 30
0.0
 10
-38.21995382556106
 20
-176.4318460175199
 30
0.0
  0
LINE
  5
31E
330
1F
100
AcDbEntity
  8
0
  6
Continuous
 62
     7
370
    15
100
AcDbLine
 10
-36.6122675444
 20
-175.2325260588
 30
0.0
 11
-36.6122675444
 21
-168.1845748374
 31
0.0
  0
LINE
  5
31F
330
1F
100
AcDbEntity
  8
0
  6
Continuous
 62
     7
370
    15
100
AcDbLine
 10
-57.3122454191
 20
-138.0332001993
 30
0.0
 11
-57.3122454191
 21
-139.3855923363
 31
0.0
  0
LINE
  5
320
330
1F
100
AcDbEntity
  8
0
  6
Continuous
 62
     7
370
    15
100
AcDbLine
 10
-57.3122454191
 20
-138.0332001993
 30
0.0
 11
-38.2199538256
 21
-138.0332001993
 31
0.0
  0
SPLINE
  5
321
330
1F
100
AcDbEntity
  8
0
  6
Continuous
 62
     7
370
    15
100
AcDbSpline
210
0.0
220
0.0
230
1.0
 70
     8
 71
     3
 72
    14
 73
    10
 74
     0
 42
0.00000001
 43
0.00000001
 12
1.0
 22
0.0
 32
0.0
 13
1.0
 23
0.0
 33
0.0
 40
0.0
 40
0.0
 40
0.0
 40
0.0
 40
0.1249999999999966
 40
0.1249999999999966
 40
0.2499999999999932
 40
0.2499999999999932
 40
0.4999999999999948
 40
0.4999999999999948
 40
1.0
 40
1.0
 40
1.0
 40
1.0
 10
-36.6122587228693
 20
-139.3855908893538
 30
0.0
 10
-36.61225872286936
 20
-139.3282045013618
 30
0.0
 10
-36.62168782829153
 20
-139.2705310208246
 30
0.0
 10
-36.65908980557883
 20
-139.1557206663962
 30
0.0
 10
-36.68702239754914
 20
-139.0985144827303
 30
0.0
 10
-36.79731388032795
 20
-138.9274670217748
 30
0.0
 10
-36.90622792830353
 20
-138.8141981591311
 30
0.0
 10
-37.32629797611162
 20
-138.4764033182482
 30
0.0
 10
-37.73041874031887
 20
-138.2538812593358
 30
0.0
 10
-38.21995387745594
 20
-138.0332003658783
 30
0.0
  0
LINE
  5
322
330
1F
100
AcDbEntity
  8
0
  6
Continuous
 62
     7
370
    15
100
AcDbLine
 10
-57.3122454191
 20
-139.3855923363
 30
0.0
 11
-57.3122454191
 21
-140.7379844734
 31
0.0
  0
LINE
  5
323
330
1F
100
AcDbEntity
  8
0
  6
Continuous
 62
     7
370
    15
100
AcDbLine
 10
380.3877430653
 20
-169.2325288006
 30
0.0
 11
380.3877430653
 21
-145.2325248667
 31
0.0
  0
LINE
  5
324
330
1F
100
AcDbEntity
  8
0
  6
Continuous
 62
     7
370
    15
100
AcDbLine
 10
-194.612259915
 20
-169.2325288006
 30
0.0
 11
-194.612259915
 21
-145.2325248667
 31
0.0
  0
LINE
  5
325
330
1F
100
AcDbEntity
  8
0
  6
Continuous
 62
     7
370
    15
100
AcDbLine
 10
222.3877395188
 20
-139.2325276086
 30
0.0
 11
222.3877395188
 21
-141.6440719315
 31
0.0
  0
LINE
  5
326
330
1F
100
AcDbEntity
  8
0
  6
Continuous
 62
     7
370
    15
100
AcDbLine
 10
222.3877395188
 20
-172.8209817359
 30
0.0
 11
222.3877395188
 21
-175.2325260588
 31
0.0
  0
LINE
  5
327
330
1F
100
AcDbEntity
  8
0
  6
Continuous
 62
     7
370
    15
100
AcDbLine
 10
-36.6122675444
 20
-139.3855923363
 30
0.0
 11
-36.6122675444
 21
-139.2325276086
 31
0.0
  0
LINE
  5
328
330
1F
100
AcDbEntity
  8
0
  6
Continuous
 62
     7
370
    15
100
AcDbLine
 10
112.8877448534
 20
-169.2325288006
 30
0.0
 11
112.8877448534
 21
-262.673523421
 31
0.0
  0
LINE
  5
329
330
1F
100
AcDbEntity
  8
0
  6
Continuous
 62
     7
370
    15
100
AcDbLine
 10
115.3877424692
 20
121.8189036897
 30
0.0
 11
115.3877424692
 21
142.304185634
 31
0.0
  0
LINE
  5
32A
330
1F
100
AcDbEntity
  8
0
  6
Continuous
 62
     7
370
    15
100
AcDbLine
 10
115.3877424692
 20
118.3041817001
 30
0.0
 11
115.3877424692
 21
121.8189036897
 31
0.0
  0
LINE
  5
32B
330
1F
100
AcDbEntity
  8
0
  6
Continuous
 62
     7
370
    15
100
AcDbLine
 10
115.3877424692
 20
-195.6512296149
 30
0.0
 11
115.3877424692
 21
-171.651225681
 31
0.0
  0
SPLINE
  5
32C
330
1F
100
AcDbEntity
  8
0
  6
Continuous
 62
     7
370
    15
100
AcDbSpline
210
0.0
220
0.0
230
1.0
 70
     8
 71
     3
 72
    16
 73
    12
 74
     0
 42
0.00000001
 43
0.00000001
 12
1.0
 22
0.0
 32
0.0
 13
1.0
 23
0.0
 33
0.0
 40
0.0
 40
0.0
 40
0.0
 40
0.0
 40
0.2500000000000048
 40
0.2500000000000048
 40
0.5000000000000095
 40
0.5000000000000095
 40
0.6250000000000071
 40
0.6250000000000071
 40
0.7500000000000048
 40
0.7500000000000048
 40
1.0
 40
1.0
 40
1.0
 40
1.0
 10
124.5508809979455
 20
122.9557142046041
 30
0.0
 10
124.7958025125278
 20
122.7361235820233
 30
0.0
 10
124.9976622325643
 20
122.5149319572728
 30
0.0
 10
125.2773035041614
 20
122.0679355833297
 30
0.0
 10
125.3541626388897
 20
121.8420965394367
 30
0.0
 10
125.3550068000589
 20
121.4990830195185
 30
0.0
 10
125.3362177133889
 20
121.3842071917164
 30
0.0
 10
125.262950221308
 20
121.1569706860513
 30
0.0
 10
125.2085461696447
 20
121.0441142727978
 30
0.0
 10
124.9984671112926
 20
120.707554287277
 30
0.0
 10
124.7961078181253
 20
120.4858521401912
 30
0.0
 10
124.5508809979453
 20
120.2659877881
 30
0.0
  0
SPLINE
  5
32D
330
1F
100
AcDbEntity
  8
0
  6
Continuous
 62
     7
370
    15
100
AcDbSpline
210
0.0
220
0.0
230
1.0
 70
     8
 71
     3
 72
    16
 73
    12
 74
     0
 42
0.00000001
 43
0.00000001
 12
1.0
 22
0.0
 32
0.0
 13
1.0
 23
0.0
 33
0.0
 40
0.0
 40
0.0
 40
0.0
 40
0.0
 40
0.2499999999999971
 40
0.2499999999999971
 40
0.4999999999999942
 40
0.4999999999999942
 40
0.6249999999999976
 40
0.6249999999999976
 40
0.7500000000000009
 40
0.7500000000000009
 40
1.0
 40
1.0
 40
1.0
 40
1.0
 10
124.5508809979454
 20
132.9939098494578
 30
0.0
 10
124.7958025125278
 20
132.1743864891206
 30
0.0
 10
124.9976622325643
 20
131.3488881073429
 30
0.0
 10
125.2773035041614
 20
129.6806749289883
 30
0.0
 10
125.3541626388897
 20
128.8378321428464
 30
0.0
 10
125.3550068000589
 20
127.5576882588288
 30
0.0
 10
125.3362177133888
 20
127.1289658329097
 30
0.0
 10
125.262950221308
 20
126.2809076484333
 30
0.0
 10
125.2085461696447
 20
125.8597217802108
 30
0.0
 10
124.9984671112925
 20
124.6036628144529
 30
0.0
 10
124.7961078181252
 20
123.7762591373815
 30
0.0
 10
124.5508809979453
 20
122.955714204604
 30
0.0
  0
SPLINE
  5
32E
330
1F
100
AcDbEntity
  8
0
  6
Continuous
 62
     7
370
    15
100
AcDbSpline
210
0.0
220
0.0
230
1.0
 70
     8
 71
     3
 72
    16
 73
    12
 74
     0
 42
0.00000001
 43
0.00000001
 12
1.0
 22
0.0
 32
0.0
 13
1.0
 23
0.0
 33
0.0
 40
0.0
 40
0.0
 40
0.0
 40
0.0
 40
0.2499999999999972
 40
0.2499999999999972
 40
0.4999999999999944
 40
0.4999999999999944
 40
0.6249999999999958
 40
0.6249999999999958
 40
0.7499999999999972
 40
0.7499999999999972
 40
1.0
 40
1.0
 40
1.0
 40
1.0
 10
124.5508809979451
 20
132.9939098494577
 30
0.0
 10
124.7948562944755
 20
133.5915248358016
 30
0.0
 10
124.9995502499665
 20
134.2037576129765
 30
0.0
 10
125.279404022292
 20
135.4312139090872
 30
0.0
 10
125.3548125965831
 20
136.0482636666256
 30
0.0
 10
125.3546864573504
 20
136.9796682096303
 30
0.0
 10
125.3359949911568
 20
137.2910965225356
 30
0.0
 10
125.2618201340998
 20
137.9158473145501
 30
0.0
 10
125.2066438857791
 20
138.2263428367116
 30
0.0
 10
124.9953068457035
 20
139.1467152321871
 30
0.0
 10
124.793343781334
 20
139.7484689768895
 30
0.0
 10
124.5508809979451
 20
140.3423790778074
 30
0.0
  0
SPLINE
  5
32F
330
1F
100
AcDbEntity
  8
0
  6
Continuous
 62
     7
370
    15
100
AcDbSpline
210
0.0
220
0.0
230
1.0
 70
     8
 71
     3
 72
    10
 73
     6
 74
     0
 42
0.00000001
 43
0.00000001
 12
1.0
 22
0.0
 32
0.0
 13
1.0
 23
0.0
 33
0.0
 40
0.0
 40
0.0
 40
0.0
 40
0.0
 40
0.1326313793274105
 40
0.566272437656685
 40
0.9999999999999999
 40
0.9999999999999999
 40
0.9999999999999999
 40
0.9999999999999999
 10
125.1622336601338
 20
139.6216934970217
 30
0.0
 10
125.1461126447281
 20
139.6540765988371
 30
0.0
 10
125.0772836335424
 20
139.7923369267993
 30
0.0
 10
124.8749525158668
 20
140.0333395243275
 30
0.0
 10
124.6589138338021
 20
140.2393551640237
 30
0.0
 10
124.5508837198338
 20
140.342373257001
 30
0.0
  0
LINE
  5
330
330
1F
100
AcDbEntity
  8
0
  6
Continuous
 62
     7
370
    15
100
AcDbLine
 10
125.7877397036
 20
136.1378169111
 30
0.0
 11
125.7877397036
 21
138.5541892103
 31
0.0
  0
LINE
  5
331
330
1F
100
AcDbEntity
  8
0
  6
Continuous
 62
     7
370
    15
100
AcDbLine
 10
125.7877397036
 20
122.0541781238
 30
0.0
 11
125.7877397036
 21
136.1378169111
 31
0.0
  0
LINE
  5
332
330
1F
100
AcDbEntity
  8
0
  6
Continuous
 62
     7
370
    15
100
AcDbLine
 10
116.624598453
 20
132.9939103177
 30
0.0
 11
124.5508837198
 21
132.9939103177
 31
0.0
  0
LINE
  5
333
330
1F
100
AcDbEntity
  8
0
  6
Continuous
 62
     7
370
    15
100
AcDbLine
 10
116.624598453
 20
122.9557132772
 30
0.0
 11
124.5508837198
 21
122.9557132772
 31
0.0
  0
SPLINE
  5
334
330
1F
100
AcDbEntity
  8
0
  6
Continuous
 62
     7
370
    15
100
AcDbSpline
210
0.0
220
0.0
230
1.0
 70
     8
 71
     3
 72
    16
 73
    12
 74
     0
 42
0.00000001
 43
0.00000001
 12
1.0
 22
0.0
 32
0.0
 13
1.0
 23
0.0
 33
0.0
 40
0.0
 40
0.0
 40
0.0
 40
0.0
 40
0.2500000000000048
 40
0.2500000000000048
 40
0.5000000000000095
 40
0.5000000000000095
 40
0.6250000000000071
 40
0.6250000000000071
 40
0.7500000000000048
 40
0.7500000000000048
 40
1.0
 40
1.0
 40
1.0
 40
1.0
 10
116.6246015563158
 20
122.955714204604
 30
0.0
 10
116.3796800417334
 20
123.7752375649414
 30
0.0
 10
116.1778203216969
 20
124.6007359467188
 30
0.0
 10
115.8981790500998
 20
126.2689491250735
 30
0.0
 10
115.8213199153715
 20
127.1117919112156
 30
0.0
 10
115.8204757542023
 20
128.3919357952329
 30
0.0
 10
115.8392648408724
 20
128.8206582211522
 30
0.0
 10
115.9125323329533
 20
129.6687164056285
 30
0.0
 10
115.9669363846166
 20
130.089902273851
 30
0.0
 10
116.1770154429687
 20
131.3459612396089
 30
0.0
 10
116.379374736136
 20
132.1733649166804
 30
0.0
 10
116.624601556316
 20
132.9939098494578
 30
0.0
  0
SPLINE
  5
335
330
1F
100
AcDbEntity
  8
0
  6
Continuous
 62
     7
370
    15
100
AcDbSpline
210
0.0
220
0.0
230
1.0
 70
     8
 71
     3
 72
    16
 73
    12
 74
     0
 42
0.00000001
 43
0.00000001
 12
1.0
 22
0.0
 32
0.0
 13
1.0
 23
0.0
 33
0.0
 40
0.0
 40
0.0
 40
0.0
 40
0.0
 40
0.2499999999999972
 40
0.2499999999999972
 40
0.4999999999999944
 40
0.4999999999999944
 40
0.6249999999999958
 40
0.6249999999999958
 40
0.7499999999999972
 40
0.7499999999999972
 40
1.0
 40
1.0
 40
1.0
 40
1.0
 10
116.6246015563161
 20
132.9939098494578
 30
0.0
 10
116.3806262597856
 20
133.5915248358016
 30
0.0
 10
116.1759323042947
 20
134.2037576129765
 30
0.0
 10
115.8960785319692
 20
135.4312139090872
 30
0.0
 10
115.8206699576781
 20
136.0482636666256
 30
0.0
 10
115.8207960969108
 20
136.9796682096303
 30
0.0
 10
115.8394875631044
 20
137.2910965225356
 30
0.0
 10
115.9136624201615
 20
137.9158473145501
 30
0.0
 10
115.9688386684822
 20
138.2263428367117
 30
0.0
 10
116.1801757085577
 20
139.1467152321871
 30
0.0
 10
116.3821387729272
 20
139.7484689768895
 30
0.0
 10
116.6246015563162
 20
140.3423790778074
 30
0.0
  0
SPLINE
  5
336
330
1F
100
AcDbEntity
  8
0
  6
Continuous
 62
     7
370
    15
100
AcDbSpline
210
0.0
220
0.0
230
1.0
 70
     8
 71
     3
 72
    16
 73
    12
 74
     0
 42
0.00000001
 43
0.00000001
 12
1.0
 22
0.0
 32
0.0
 13
1.0
 23
0.0
 33
0.0
 40
0.0
 40
0.0
 40
0.0
 40
0.0
 40
0.2500000000000029
 40
0.2500000000000029
 40
0.5000000000000058
 40
0.5000000000000058
 40
0.6250000000000062
 40
0.6250000000000062
 40
0.7500000000000067
 40
0.7500000000000067
 40
1.0
 40
1.0
 40
1.0
 40
1.0
 10
116.6246015563158
 20
120.2659877881
 30
0.0
 10
116.3796800417334
 20
120.4855784106808
 30
0.0
 10
116.1778203216969
 20
120.7067700354313
 30
0.0
 10
115.8981790500999
 20
121.1537664093744
 30
0.0
 10
115.8213199153715
 20
121.3796054532675
 30
0.0
 10
115.8204757542023
 20
121.7226189731856
 30
0.0
 10
115.8392648408724
 20
121.8374948009878
 30
0.0
 10
115.9125323329532
 20
122.0647313066528
 30
0.0
 10
115.9669363846166
 20
122.1775877199064
 30
0.0
 10
116.1770154429686
 20
122.5141477054271
 30
0.0
 10
116.379374736136
 20
122.735849852513
 30
0.0
 10
116.624601556316
 20
122.9557142046041
 30
0.0
  0
SPLINE
  5
337
330
1F
100
AcDbEntity
  8
0
  6
Continuous
 62
     7
370
    15
100
AcDbSpline
210
0.0
220
0.0
230
1.0
 70
     8
 71
     3
 72
    10
 73
     6
 74
     0
 42
0.00000001
 43
0.00000001
 12
1.0
 22
0.0
 32
0.0
 13
1.0
 23
0.0
 33
0.0
 40
0.0
 40
0.0
 40
0.0
 40
0.0
 40
0.4890196813942188
 40
0.9779002660241853
 40
0.9999999999999999
 40
0.9999999999999999
 40
0.9999999999999999
 40
0.9999999999999999
 10
116.6245984529576
 20
140.342373257001
 30
0.0
 10
116.504712406438
 20
140.2260859873879
 30
0.0
 10
116.2649744137874
 20
139.9935445249141
 30
0.0
 10
116.0614518683977
 20
139.7521965468184
 30
0.0
 10
116.0089050308632
 20
139.6271037213766
 30
0.0
 10
116.0066323970876
 20
139.6216934970217
 30
0.0
  0
SPLINE
  5
338
330
1F
100
AcDbEntity
  8
0
  6
Continuous
 62
     7
370
    15
100
AcDbSpline
210
0.0
220
0.0
230
1.0
 70
     8
 71
     3
 72
    16
 73
    12
 74
     0
 42
0.00000001
 43
0.00000001
 12
1.0
 22
0.0
 32
0.0
 13
1.0
 23
0.0
 33
0.0
 40
0.0
 40
0.0
 40
0.0
 40
0.0
 40
0.2500000000000048
 40
0.2500000000000048
 40
0.5000000000000095
 40
0.5000000000000095
 40
0.6250000000000071
 40
0.6250000000000071
 40
0.7500000000000048
 40
0.7500000000000048
 40
1.0
 40
1.0
 40
1.0
 40
1.0
 10
124.5508809979455
 20
-173.6130317690201
 30
0.0
 10
124.7958025125279
 20
-173.832622391601
 30
0.0
 10
124.9976622325644
 20
-174.0538140163515
 30
0.0
 10
125.2773035041614
 20
-174.5008103902946
 30
0.0
 10
125.3541626388898
 20
-174.7266494341877
 30
0.0
 10
125.3550068000589
 20
-175.0696629541058
 30
0.0
 10
125.3362177133888
 20
-175.184538781908
 30
0.0
 10
125.262950221308
 20
-175.4117752875731
 30
0.0
 10
125.2085461696446
 20
-175.5246317008267
 30
0.0
 10
124.9984671112926
 20
-175.8611916863474
 30
0.0
 10
124.7961078181253
 20
-176.0828938334332
 30
0.0
 10
124.5508809979453
 20
-176.3027581855244
 30
0.0
  0
SPLINE
  5
339
330
1F
100
AcDbEntity
  8
0
  6
Continuous
 62
     7
370
    15
100
AcDbSpline
210
0.0
220
0.0
230
1.0
 70
     8
 71
     3
 72
    10
 73
     6
 74
     0
 42
0.00000001
 43
0.00000001
 12
1.0
 22
0.0
 32
0.0
 13
1.0
 23
0.0
 33
0.0
 40
0.0
 40
0.0
 40
0.0
 40
0.0
 40
0.4890196813942188
 40
0.9779002660241853
 40
0.9999999999999999
 40
0.9999999999999999
 40
0.9999999999999999
 40
0.9999999999999999
 10
124.5508837198338
 20
-193.6894172379179
 30
0.0
 10
124.6707697663535
 20
-193.5731299683048
 30
0.0
 10
124.9105077590042
 20
-193.340588505831
 30
0.0
 10
125.1140303043937
 20
-193.0992405277352
 30
0.0
 10
125.1665771419282
 20
-192.9741477022935
 30
0.0
 10
125.1688497757039
 20
-192.9687374779386
 30
0.0
  0
SPLINE
  5
33A
330
1F
100
AcDbEntity
  8
0
  6
Continuous
 62
     7
370
    15
100
AcDbSpline
210
0.0
220
0.0
230
1.0
 70
     8
 71
     3
 72
    16
 73
    12
 74
     0
 42
0.00000001
 43
0.00000001
 12
1.0
 22
0.0
 32
0.0
 13
1.0
 23
0.0
 33
0.0
 40
0.0
 40
0.0
 40
0.0
 40
0.0
 40
0.2499999999999972
 40
0.2499999999999972
 40
0.4999999999999944
 40
0.4999999999999944
 40
0.6249999999999958
 40
0.6249999999999958
 40
0.7499999999999972
 40
0.7499999999999972
 40
1.0
 40
1.0
 40
1.0
 40
1.0
 10
124.5508809979451
 20
-193.6894230587276
 30
0.0
 10
124.7948562944755
 20
-193.0918080723839
 30
0.0
 10
124.9995502499665
 20
-192.4795752952089
 30
0.0
 10
125.279404022292
 20
-191.2521189990982
 30
0.0
 10
125.3548125965831
 20
-190.6350692415598
 30
0.0
 10
125.3546864573504
 20
-189.7036646985552
 30
0.0
 10
125.3359949911568
 20
-189.3922363856499
 30
0.0
 10
125.2618201340998
 20
-188.7674855936354
 30
0.0
 10
125.2066438857791
 20
-188.4569900714738
 30
0.0
 10
124.9953068457035
 20
-187.5366176759983
 30
0.0
 10
124.7933437813339
 20
-186.934863931296
 30
0.0
 10
124.550880997945
 20
-186.3409538303781
 30
0.0
  0
SPLINE
  5
33B
330
1F
100
AcDbEntity
  8
0
  6
Continuous
 62
     7
370
    15
100
AcDbSpline
210
0.0
220
0.0
230
1.0
 70
     8
 71
     3
 72
    16
 73
    12
 74
     0
 42
0.00000001
 43
0.00000001
 12
1.0
 22
0.0
 32
0.0
 13
1.0
 23
0.0
 33
0.0
 40
0.0
 40
0.0
 40
0.0
 40
0.0
 40
0.2499999999999962
 40
0.2499999999999962
 40
0.4999999999999925
 40
0.4999999999999925
 40
0.6249999999999943
 40
0.6249999999999943
 40
0.7499999999999962
 40
0.7499999999999962
 40
1.0
 40
1.0
 40
1.0
 40
1.0
 10
124.5508809979455
 20
-176.3027581855244
 30
0.0
 10
124.7958025125278
 20
-177.1222815458617
 30
0.0
 10
124.9976622325644
 20
-177.9477799276393
 30
0.0
 10
125.2773035041615
 20
-179.6159931059939
 30
0.0
 10
125.3541626388898
 20
-180.4588358921359
 30
0.0
 10
125.3550068000589
 20
-181.7389797761534
 30
0.0
 10
125.3362177133888
 20
-182.1677022020725
 30
0.0
 10
125.262950221308
 20
-183.0157603865489
 30
0.0
 10
125.2085461696446
 20
-183.4369462547714
 30
0.0
 10
124.9984671112925
 20
-184.6930052205293
 30
0.0
 10
124.7961078181252
 20
-185.5204088976008
 30
0.0
 10
124.5508809979452
 20
-186.3409538303782
 30
0.0
  0
LINE
  5
33C
330
1F
100
AcDbEntity
  8
0
  6
Continuous
 62
     7
370
    15
100
AcDbLine
 10
125.7877397036
 20
-189.484860892
 30
0.0
 11
125.7877397036
 21
-175.4012221047
 31
0.0
  0
LINE
  5
33D
330
1F
100
AcDbEntity
  8
0
  6
Continuous
 62
     7
370
    15
100
AcDbLine
 10
125.7877397036
 20
-191.9012331912
 30
0.0
 11
125.7877397036
 21
-189.484860892
 31
0.0
  0
LINE
  5
33E
330
1F
100
AcDbEntity
  8
0
  6
Continuous
 62
     7
370
    15
100
AcDbLine
 10
116.624598453
 20
-176.3027572581
 30
0.0
 11
124.5508837198
 21
-176.3027572581
 31
0.0
  0
LINE
  5
33F
330
1F
100
AcDbEntity
  8
0
  6
Continuous
 62
     7
370
    15
100
AcDbLine
 10
116.624598453
 20
-186.3409542987
 30
0.0
 11
124.5508837198
 21
-186.3409542987
 31
0.0
  0
SPLINE
  5
340
330
1F
100
AcDbEntity
  8
0
  6
Continuous
 62
     7
370
    15
100
AcDbSpline
210
0.0
220
0.0
230
1.0
 70
     8
 71
     3
 72
    16
 73
    12
 74
     0
 42
0.00000001
 43
0.00000001
 12
1.0
 22
0.0
 32
0.0
 13
1.0
 23
0.0
 33
0.0
 40
0.0
 40
0.0
 40
0.0
 40
0.0
 40
0.2499999999999995
 40
0.2499999999999995
 40
0.499999999999999
 40
0.499999999999999
 40
0.6249999999999988
 40
0.6249999999999988
 40
0.7499999999999984
 40
0.7499999999999984
 40
1.0
 40
1.0
 40
1.0
 40
1.0
 10
116.6246015563158
 20
-186.3409538303782
 30
0.0
 10
116.3796800417334
 20
-185.5214304700408
 30
0.0
 10
116.1778203216969
 20
-184.6959320882633
 30
0.0
 10
115.8981790500999
 20
-183.0277189099086
 30
0.0
 10
115.8213199153715
 20
-182.1848761237666
 30
0.0
 10
115.8204757542023
 20
-180.9047322397491
 30
0.0
 10
115.8392648408724
 20
-180.4760098138299
 30
0.0
 10
115.9125323329532
 20
-179.6279516293537
 30
0.0
 10
115.9669363846166
 20
-179.2067657611311
 30
0.0
 10
116.1770154429687
 20
-177.9507067953732
 30
0.0
 10
116.3793747361361
 20
-177.1233031183017
 30
0.0
 10
116.624601556316
 20
-176.3027581855243
 30
0.0
  0
SPLINE
  5
341
330
1F
100
AcDbEntity
  8
0
  6
Continuous
 62
     7
370
    15
100
AcDbSpline
210
0.0
220
0.0
230
1.0
 70
     8
 71
     3
 72
    16
 73
    12
 74
     0
 42
0.00000001
 43
0.00000001
 12
1.0
 22
0.0
 32
0.0
 13
1.0
 23
0.0
 33
0.0
 40
0.0
 40
0.0
 40
0.0
 40
0.0
 40
0.2499999999999958
 40
0.2499999999999958
 40
0.4999999999999917
 40
0.4999999999999917
 40
0.6249999999999923
 40
0.6249999999999923
 40
0.749999999999993
 40
0.749999999999993
 40
1.0
 40
1.0
 40
1.0
 40
1.0
 10
116.6246015563161
 20
-193.6894230587276
 30
0.0
 10
116.3806262597857
 20
-193.0918080723838
 30
0.0
 10
116.1759323042947
 20
-192.4795752952089
 30
0.0
 10
115.8960785319692
 20
-191.2521189990982
 30
0.0
 10
115.8206699576781
 20
-190.6350692415598
 30
0.0
 10
115.8207960969107
 20
-189.7036646985552
 30
0.0
 10
115.8394875631044
 20
-189.3922363856499
 30
0.0
 10
115.9136624201615
 20
-188.7674855936353
 30
0.0
 10
115.9688386684822
 20
-188.4569900714738
 30
0.0
 10
116.1801757085577
 20
-187.5366176759984
 30
0.0
 10
116.3821387729272
 20
-186.934863931296
 30
0.0
 10
116.6246015563162
 20
-186.3409538303782
 30
0.0
  0
SPLINE
  5
342
330
1F
100
AcDbEntity
  8
0
  6
Continuous
 62
     7
370
    15
100
AcDbSpline
210
0.0
220
0.0
230
1.0
 70
     8
 71
     3
 72
    10
 73
     6
 74
     0
 42
0.00000001
 43
0.00000001
 12
1.0
 22
0.0
 32
0.0
 13
1.0
 23
0.0
 33
0.0
 40
0.0
 40
0.0
 40
0.0
 40
0.0
 40
0.1326313793274105
 40
0.566272437656685
 40
0.9999999999999999
 40
0.9999999999999999
 40
0.9999999999999999
 40
0.9999999999999999
 10
116.0132485126576
 20
-192.9687374779386
 30
0.0
 10
116.0293695280633
 20
-193.001120579754
 30
0.0
 10
116.0981985392491
 20
-193.1393809077162
 30
0.0
 10
116.3005296569247
 20
-193.3803835052444
 30
0.0
 10
116.5165683389893
 20
-193.5863991449406
 30
0.0
 10
116.6245984529576
 20
-193.6894172379179
 30
0.0
  0
SPLINE
  5
343
330
1F
100
AcDbEntity
  8
0
  6
Continuous
 62
     7
370
    15
100
AcDbSpline
210
0.0
220
0.0
230
1.0
 70
     8
 71
     3
 72
    16
 73
    12
 74
     0
 42
0.00000001
 43
0.00000001
 12
1.0
 22
0.0
 32
0.0
 13
1.0
 23
0.0
 33
0.0
 40
0.0
 40
0.0
 40
0.0
 40
0.0
 40
0.250000000000001
 40
0.250000000000001
 40
0.500000000000002
 40
0.500000000000002
 40
0.6250000000000014
 40
0.6250000000000014
 40
0.750000000000001
 40
0.750000000000001
 40
1.0
 40
1.0
 40
1.0
 40
1.0
 10
116.6246015563158
 20
-176.3027581855244
 30
0.0
 10
116.3796800417334
 20
-176.0831675629436
 30
0.0
 10
116.1778203216969
 20
-175.8619759381931
 30
0.0
 10
115.8981790500999
 20
-175.41497956425
 30
0.0
 10
115.8213199153715
 20
-175.1891405203568
 30
0.0
 10
115.8204757542023
 20
-174.8461270004387
 30
0.0
 10
115.8392648408724
 20
-174.7312511726365
 30
0.0
 10
115.9125323329533
 20
-174.5040146669715
 30
0.0
 10
115.9669363846166
 20
-174.3911582537178
 30
0.0
 10
116.1770154429687
 20
-174.0545982681971
 30
0.0
 10
116.379374736136
 20
-173.8328961211113
 30
0.0
 10
116.624601556316
 20
-173.6130317690201
 30
0.0
  0
LINE
  5
344
330
1F
100
AcDbEntity
  8
0
  6
Continuous
 62
     7
370
    15
100
AcDbLine
 10
116.624598453
 20
140.342373257
 30
0.0
 11
124.5508837198
 21
140.342373257
 31
0.0
  0
LINE
  5
345
330
1F
100
AcDbEntity
  8
0
  6
Continuous
 62
     7
370
    15
100
AcDbLine
 10
116.624598453
 20
-193.6894172379
 30
0.0
 11
124.5508837198
 21
-193.6894172379
 31
0.0
  0
LINE
  5
346
330
1F
100
AcDbEntity
  8
0
  6
Continuous
 62
     7
370
    15
100
AcDbLine
 10
116.624598453
 20
120.265994077
 30
0.0
 11
124.5508837198
 21
120.265994077
 31
0.0
  0
LINE
  5
347
330
1F
100
AcDbEntity
  8
0
  6
Continuous
 62
     7
370
    15
100
AcDbLine
 10
116.624598453
 20
-173.613038058
 30
0.0
 11
124.5508837198
 21
-173.613038058
 31
0.0
  0
LINE
  5
348
330
1F
100
AcDbEntity
  8
0
  6
Continuous
 62
     7
370
    15
100
AcDbLine
 10
165.8877405023
 20
134.5468199304
 30
0.0
 11
165.8877405023
 21
136.3041883758
 31
0.0
  0
LINE
  5
349
330
1F
100
AcDbEntity
  8
0
  6
Continuous
 62
     7
370
    15
100
AcDbLine
 10
165.8877405023
 20
124.3041789583
 30
0.0
 11
165.8877405023
 21
134.5468199304
 31
0.0
  0
LINE
  5
34A
330
1F
100
AcDbEntity
  8
0
  6
Continuous
 62
     7
370
    15
100
AcDbLine
 10
165.8877405023
 20
-187.8938639113
 30
0.0
 11
165.8877405023
 21
-177.6512229392
 31
0.0
  0
LINE
  5
34B
330
1F
100
AcDbEntity
  8
0
  6
Continuous
 62
     7
370
    15
100
AcDbLine
 10
165.8877405023
 20
-189.6512323567
 30
0.0
 11
165.8877405023
 21
-187.8938639113
 31
0.0
  0
LINE
  5
34C
330
1F
100
AcDbEntity
  8
0
  6
Continuous
 62
     7
370
    15
100
AcDbLine
 10
243.8877421116
 20
146.7218434861
 30
0.0
 11
243.8877421116
 21
190.7218432477
 31
0.0
  0
LINE
  5
34D
330
1F
100
AcDbEntity
  8
0
  6
Continuous
 62
     7
370
    15
100
AcDbLine
 10
-58.1122589613
 20
146.7218434861
 30
0.0
 11
-58.1122589613
 21
190.7218432477
 31
0.0
  0
LINE
  5
34E
330
1F
100
AcDbEntity
  8
0
  6
Continuous
 62
     7
370
    15
100
AcDbLine
 10
243.0877416079
 20
177.7218318036
 30
0.0
 11
243.0877416079
 21
186.7218351415
 31
0.0
  0
LINE
  5
34F
330
1F
100
AcDbEntity
  8
0
  6
Continuous
 62
     7
370
    15
100
AcDbLine
 10
243.0877416079
 20
168.7218433669
 30
0.0
 11
243.0877416079
 21
177.7218318036
 31
0.0
  0
LINE
  5
350
330
1F
100
AcDbEntity
  8
0
  6
Continuous
 62
     7
370
    15
100
AcDbLine
 10
243.0877416079
 20
168.7218433669
 30
0.0
 11
223.9954369759
 21
168.7218433669
 31
0.0
  0
SPLINE
  5
351
330
1F
100
AcDbEntity
  8
0
  6
Continuous
 62
     7
370
    15
100
AcDbSpline
210
0.0
220
0.0
230
1.0
 70
     8
 71
     3
 72
    14
 73
    10
 74
     0
 42
0.00000001
 43
0.00000001
 12
1.0
 22
0.0
 32
0.0
 13
1.0
 23
0.0
 33
0.0
 40
0.0
 40
0.0
 40
0.0
 40
0.0
 40
0.1249999999999971
 40
0.1249999999999971
 40
0.2499999999999941
 40
0.2499999999999941
 40
0.4999999999999952
 40
0.4999999999999952
 40
1.0
 40
1.0
 40
1.0
 40
1.0
 10
222.3877412771306
 20
177.7218369006366
 30
0.0
 10
222.3877412771305
 20
177.3399372326321
 30
0.0
 10
222.3971703825527
 20
176.9561269974782
 30
0.0
 10
222.43457235984
 20
176.1920775813378
 30
0.0
 10
222.4625049518105
 20
175.8113771519453
 30
0.0
 10
222.5727964345893
 20
174.6730764008849
 30
0.0
 10
222.6817104825648
 20
173.9192854314144
 30
0.0
 10
223.1017805303728
 20
171.671300463187
 30
0.0
 10
223.5059012945802
 20
170.1904423120478
 30
0.0
 10
223.9954364317172
 20
168.7218369006366
 30
0.0
  0
SPLINE
  5
352
330
1F
100
AcDbEntity
  8
0
  6
Continuous
 62
     7
370
    15
100
AcDbSpline
210
0.0
220
0.0
230
1.0
 70
     8
 71
     3
 72
    10
 73
     6
 74
     0
 42
0.00000001
 43
0.00000001
 12
1.0
 22
0.0
 32
0.0
 13
1.0
 23
0.0
 33
0.0
 40
0.0
 40
0.0
 40
0.0
 40
0.0
 40
0.5
 40
0.5
 40
1.0
 40
1.0
 40
1.0
 40
1.0
 10
223.9954364317171
 20
186.7218369006366
 30
0.0
 10
223.5046756136575
 20
185.2495544464579
 30
0.0
 10
223.1003617624253
 20
183.7665180751199
 30
0.0
 10
222.5409630888119
 20
180.7694414877938
 30
0.0
 10
222.3877412771305
 20
179.2551695151177
 30
0.0
 10
222.3877412771306
 20
177.7218369006366
 30
0.0
  0
LINE
  5
353
330
1F
100
AcDbEntity
  8
0
  6
Continuous
 62
     7
370
    15
100
AcDbLine
 10
243.0877416079
 20
186.7218351415
 30
0.0
 11
223.9954369759
 21
186.7218351415
 31
0.0
  0
SPLINE
  5
354
330
1F
100
AcDbEntity
  8
0
  6
Continuous
 62
     7
370
    15
100
AcDbSpline
210
0.0
220
0.0
230
1.0
 70
     8
 71
     3
 72
    10
 73
     6
 74
     0
 42
0.00000001
 43
0.00000001
 12
1.0
 22
0.0
 32
0.0
 13
1.0
 23
0.0
 33
0.0
 40
0.0
 40
0.0
 40
0.0
 40
0.0
 40
0.5
 40
0.5
 40
1.0
 40
1.0
 40
1.0
 40
1.0
 10
223.9954364317171
 20
168.7218369006366
 30
0.0
 10
223.5046756136575
 20
167.2495544464579
 30
0.0
 10
223.1003617624253
 20
165.7665180751198
 30
0.0
 10
222.5409630888119
 20
162.7694414877938
 30
0.0
 10
222.3877412771306
 20
161.2551695151177
 30
0.0
 10
222.3877412771306
 20
159.7218369006366
 30
0.0
  0
LINE
  5
355
330
1F
100
AcDbEntity
  8
0
  6
Continuous
 62
     7
370
    15
100
AcDbLine
 10
222.3877395188
 20
177.7218318036
 30
0.0
 11
222.3877395188
 21
159.7218400291
 31
0.0
  0
LINE
  5
356
330
1F
100
AcDbEntity
  8
0
  6
Continuous
 62
     7
370
    15
100
AcDbLine
 10
243.0877416079
 20
150.7218366912
 30
0.0
 11
243.0877416079
 21
159.7218400291
 31
0.0
  0
LINE
  5
357
330
1F
100
AcDbEntity
  8
0
  6
Continuous
 62
     7
370
    15
100
AcDbLine
 10
243.0877416079
 20
150.7218366912
 30
0.0
 11
223.9954369759
 21
150.7218366912
 31
0.0
  0
SPLINE
  5
358
330
1F
100
AcDbEntity
  8
0
  6
Continuous
 62
     7
370
    15
100
AcDbSpline
210
0.0
220
0.0
230
1.0
 70
     8
 71
     3
 72
    14
 73
    10
 74
     0
 42
0.00000001
 43
0.00000001
 12
1.0
 22
0.0
 32
0.0
 13
1.0
 23
0.0
 33
0.0
 40
0.0
 40
0.0
 40
0.0
 40
0.0
 40
0.1250000000000003
 40
0.1250000000000003
 40
0.2500000000000007
 40
0.2500000000000007
 40
0.5000000000000016
 40
0.5000000000000016
 40
1.0
 40
1.0
 40
1.0
 40
1.0
 10
222.3877412771306
 20
159.7218369006366
 30
0.0
 10
222.3877412771305
 20
159.3399372326321
 30
0.0
 10
222.3971703825527
 20
158.9561269974782
 30
0.0
 10
222.4345723598401
 20
158.1920775813377
 30
0.0
 10
222.4625049518105
 20
157.8113771519452
 30
0.0
 10
222.5727964345893
 20
156.6730764008848
 30
0.0
 10
222.6817104825648
 20
155.9192854314144
 30
0.0
 10
223.1017805303728
 20
153.671300463187
 30
0.0
 10
223.5059012945801
 20
152.1904423120478
 30
0.0
 10
223.9954364317172
 20
150.7218369006366
 30
0.0
  0
LINE
  5
359
330
1F
100
AcDbEntity
  8
0
  6
Continuous
 62
     7
370
    15
100
AcDbLine
 10
243.0877416079
 20
159.7218400291
 30
0.0
 11
243.0877416079
 21
168.7218433669
 31
0.0
  0
SPLINE
  5
35A
330
1F
100
AcDbEntity
  8
0
  6
Continuous
 62
     7
370
    15
100
AcDbSpline
210
0.0
220
0.0
230
1.0
 70
     8
 71
     3
 72
    14
 73
    10
 74
     0
 42
0.00000001
 43
0.00000001
 12
1.0
 22
0.0
 32
0.0
 13
1.0
 23
0.0
 33
0.0
 40
0.0
 40
0.0
 40
0.0
 40
0.0
 40
0.124999999999997
 40
0.124999999999997
 40
0.249999999999994
 40
0.249999999999994
 40
0.4999999999999948
 40
0.4999999999999948
 40
1.0
 40
1.0
 40
1.0
 40
1.0
 10
-36.6122587228693
 20
166.3794278023025
 30
0.0
 10
-36.6122587228693
 20
166.8166576553194
 30
0.0
 10
-36.62168782829148
 20
167.2560748812614
 30
0.0
 10
-36.65908980557883
 20
168.1308208994034
 30
0.0
 10
-36.6870223975492
 20
168.5666777663563
 30
0.0
 10
-36.79731388032811
 20
169.8698972026961
 30
0.0
 10
-36.90622792830359
 20
170.7328985153422
 30
0.0
 10
-37.32629797611168
 20
173.3065748486524
 30
0.0
 10
-37.73041874031887
 20
175.0019819045021
 30
0.0
 10
-38.21995387745594
 20
176.6833610256893
 30
0.0
  0
SPLINE
  5
35B
330
1F
100
AcDbEntity
  8
0
  6
Continuous
 62
     7
370
    15
100
AcDbSpline
210
0.0
220
0.0
230
1.0
 70
     8
 71
     3
 72
    10
 73
     6
 74
     0
 42
0.00000001
 43
0.00000001
 12
1.0
 22
0.0
 32
0.0
 13
1.0
 23
0.0
 33
0.0
 40
0.0
 40
0.0
 40
0.0
 40
0.0
 40
0.5
 40
0.5
 40
1.0
 40
1.0
 40
1.0
 40
1.0
 10
-38.21995387745583
 20
176.6833610256893
 30
0.0
 10
-37.72919305939623
 20
177.7177492429008
 30
0.0
 10
-37.32487920816405
 20
178.7596928888733
 30
0.0
 10
-36.76548053455067
 20
180.8653626937477
 30
0.0
 10
-36.6122587228693
 20
181.929251679006
 30
0.0
 10
-36.6122587228693
 20
183.0065321865497
 30
0.0
  0
LINE
  5
35C
330
1F
100
AcDbEntity
  8
0
  6
Continuous
 62
     7
370
    15
100
AcDbLine
 10
-36.6122675444
 20
166.3794255308
 30
0.0
 11
-36.6122675444
 21
183.006528621
 31
0.0
  0
LINE
  5
35D
330
1F
100
AcDbEntity
  8
0
  6
Continuous
 62
     7
370
    15
100
AcDbLine
 10
-57.3122454191
 20
166.3794255308
 30
0.0
 11
-57.3122454191
 21
156.0754960826
 31
0.0
  0
LINE
  5
35E
330
1F
100
AcDbEntity
  8
0
  6
Continuous
 62
     7
370
    15
100
AcDbLine
 10
-57.3122454191
 20
176.6833549789
 30
0.0
 11
-57.3122454191
 21
166.3794255308
 31
0.0
  0
LINE
  5
35F
330
1F
100
AcDbEntity
  8
0
  6
Continuous
 62
     7
370
    15
100
AcDbLine
 10
-57.3122454191
 20
176.6833549789
 30
0.0
 11
-38.2199538256
 21
176.6833549789
 31
0.0
  0
SPLINE
  5
360
330
1F
100
AcDbEntity
  8
0
  6
Continuous
 62
     7
370
    15
100
AcDbSpline
210
0.0
220
0.0
230
1.0
 70
     8
 71
     3
 72
    10
 73
     6
 74
     0
 42
0.00000001
 43
0.00000001
 12
1.0
 22
0.0
 32
0.0
 13
1.0
 23
0.0
 33
0.0
 40
0.0
 40
0.0
 40
0.0
 40
0.0
 40
0.5
 40
0.5
 40
1.0
 40
1.0
 40
1.0
 40
1.0
 10
-38.21995387745583
 20
156.0754945789157
 30
0.0
 10
-37.72919305939623
 20
157.7610834782292
 30
0.0
 10
-37.32487920816405
 20
159.4589843380205
 30
0.0
 10
-36.76548053455067
 20
162.8902817848186
 30
0.0
 10
-36.6122587228693
 20
164.6239437057631
 30
0.0
 10
-36.6122587228693
 20
166.3794278023025
 30
0.0
  0
LINE
  5
361
330
1F
100
AcDbEntity
  8
0
  6
Continuous
 62
     7
370
    15
100
AcDbLine
 10
-57.3122454191
 20
156.0754960826
 30
0.0
 11
-38.2199538256
 21
156.0754960826
 31
0.0
  0
LINE
  5
362
330
1F
100
AcDbEntity
  8
0
  6
Continuous
 62
     7
370
    15
100
AcDbLine
 10
-36.6122675444
 20
152.0947253755
 30
0.0
 11
-36.6122675444
 21
166.3794255308
 31
0.0
  0
SPLINE
  5
363
330
1F
100
AcDbEntity
  8
0
  6
Continuous
 62
     7
370
    15
100
AcDbSpline
210
0.0
220
0.0
230
1.0
 70
     8
 71
     3
 72
    12
 73
     8
 74
     0
 42
0.00000001
 43
0.00000001
 12
1.0
 22
0.0
 32
0.0
 13
1.0
 23
0.0
 33
0.0
 40
0.0
 40
0.0
 40
0.0
 40
0.0
 40
0.2500000000000014
 40
0.2500000000000014
 40
0.5000000000000028
 40
0.5000000000000028
 40
1.0
 40
1.0
 40
1.0
 40
1.0
 10
-38.21995387745606
 20
156.0754945789157
 30
0.0
 10
-37.97599102990281
 20
155.7517752295138
 30
0.0
 10
-37.75201653508495
 20
155.4250825543175
 30
0.0
 10
-37.35459183059611
 20
154.7641815690814
 30
0.0
 10
-37.18289288559748
 20
154.432648979311
 30
0.0
 10
-36.76320830273686
 20
153.435740993451
 30
0.0
 10
-36.61225872286924
 20
152.7674158386405
 30
0.0
 10
-36.6122587228693
 20
152.0947325163894
 30
0.0
  0
LINE
  5
364
330
1F
100
AcDbEntity
  8
0
  6
Continuous
 62
     7
370
    15
100
AcDbLine
 10
-57.3122454191
 20
183.006528621
 30
0.0
 11
-57.3122454191
 21
176.6833549789
 31
0.0
  0
LINE
  5
365
330
1F
100
AcDbEntity
  8
0
  6
Continuous
 62
     7
370
    15
100
AcDbLine
 10
-57.3122454191
 20
189.3297022632
 30
0.0
 11
-57.3122454191
 21
183.006528621
 31
0.0
  0
LINE
  5
366
330
1F
100
AcDbEntity
  8
0
  6
Continuous
 62
     7
370
    15
100
AcDbLine
 10
-57.3122454191
 20
189.3297022632
 30
0.0
 11
-38.2199538256
 21
189.3297022632
 31
0.0
  0
SPLINE
  5
367
330
1F
100
AcDbEntity
  8
0
  6
Continuous
 62
     7
370
    15
100
AcDbSpline
210
0.0
220
0.0
230
1.0
 70
     8
 71
     3
 72
    14
 73
    10
 74
     0
 42
0.00000001
 43
0.00000001
 12
1.0
 22
0.0
 32
0.0
 13
1.0
 23
0.0
 33
0.0
 40
0.0
 40
0.0
 40
0.0
 40
0.0
 40
0.1250000000000021
 40
0.1250000000000021
 40
0.2500000000000042
 40
0.2500000000000042
 40
0.5000000000000036
 40
0.5000000000000036
 40
1.0
 40
1.0
 40
1.0
 40
1.0
 10
-36.6122587228693
 20
183.0065321865497
 30
0.0
 10
-36.61225872286936
 20
183.2748451828907
 30
0.0
 10
-36.62168782829136
 20
183.5445004951316
 30
0.0
 10
-36.65908980557883
 20
184.081302187755
 30
0.0
 10
-36.68702239754914
 20
184.3487726295398
 30
0.0
 10
-36.79731388032795
 20
185.1485137941498
 30
0.0
 10
-36.90622792830347
 20
185.6781081629801
 30
0.0
 10
-37.32629797611156
 20
187.2574852431072
 30
0.0
 10
-37.73041874031883
 20
188.2978985269525
 30
0.0
 10
-38.21995387745594
 20
189.3297033474102
 30
0.0
  0
SPLINE
  5
368
330
1F
100
AcDbEntity
  8
0
  6
Continuous
 62
     7
370
    15
100
AcDbSpline
210
0.0
220
0.0
230
1.0
 70
     8
 71
     3
 72
    12
 73
     8
 74
     0
 42
0.00000001
 43
0.00000001
 12
1.0
 22
0.0
 32
0.0
 13
1.0
 23
0.0
 33
0.0
 40
0.0
 40
0.0
 40
0.0
 40
0.0
 40
0.2499999999999993
 40
0.2499999999999993
 40
0.4999999999999987
 40
0.4999999999999987
 40
1.0
 40
1.0
 40
1.0
 40
1.0
 10
-36.6122587228693
 20
152.0947325163894
 30
0.0
 10
-36.61225872286924
 20
151.7581910228215
 30
0.0
 10
-36.64959583405933
 20
151.4205715442572
 30
0.0
 10
-36.79798052048486
 20
150.7432044424545
 30
0.0
 10
-36.90826129627015
 20
150.4069977742506
 30
0.0
 10
-37.33089326850023
 20
149.4097476080572
 30
0.0
 10
-37.73487060264244
 20
148.7576374863779
 30
0.0
 10
-38.21995387745606
 20
148.113970453863
 30
0.0
  0
LINE
  5
369
330
1F
100
AcDbEntity
  8
0
  6
Continuous
 62
     7
370
    15
100
AcDbLine
 10
-57.3122454191
 20
148.1139695695
 30
0.0
 11
-38.2199538256
 21
148.1139695695
 31
0.0
  0
LINE
  5
36A
330
1F
100
AcDbEntity
  8
0
  6
Continuous
 62
     7
370
    15
100
AcDbLine
 10
-57.3122454191
 20
148.1139695695
 30
0.0
 11
-57.3122454191
 21
152.0947253755
 31
0.0
  0
LINE
  5
36B
330
1F
100
AcDbEntity
  8
0
  6
Continuous
 62
     7
370
    15
100
AcDbLine
 10
-57.3122454191
 20
152.0947253755
 30
0.0
 11
-57.3122454191
 21
156.0754960826
 31
0.0
  0
SPLINE
  5
36C
330
1F
100
AcDbEntity
  8
0
  6
Continuous
 62
     7
370
    15
100
AcDbSpline
210
0.0
220
0.0
230
1.0
 70
    24
 71
     3
 72
    12
 73
     8
 74
     0
 42
0.00000001
 43
0.00000001
 12
1.0
 22
0.0
 32
0.0
 13
1.0
 23
0.0
 33
0.0
 40
0.0
 40
0.0
 40
0.0
 40
0.0
 40
0.2500000000000021
 40
0.2500000000000021
 40
0.5000000000000041
 40
0.5000000000000041
 40
1.0
 40
1.0
 40
1.0
 40
1.0
 10
222.3877412771306
 20
186.7218369006366
 30
0.0
 10
222.3877412771305
 20
186.7218369006366
 30
0.0
 10
222.4250783883206
 20
186.7218369006366
 30
0.0
 10
222.5734630747461
 20
186.7218369006366
 30
0.0
 10
222.6837438505313
 20
186.7218369006366
 30
0.0
 10
223.1063758227615
 20
186.7218369006367
 30
0.0
 10
223.5103531569036
 20
186.7218369006366
 30
0.0
 10
223.9954364317173
 20
186.7218369006366
 30
0.0
  0
LINE
  5
36D
330
1F
100
AcDbEntity
  8
0
  6
Continuous
 62
     7
370
    15
100
AcDbLine
 10
222.3877395188
 20
186.7218351415
 30
0.0
 11
222.3877395188
 21
177.7218318036
 31
0.0
  0
SPLINE
  5
36E
330
1F
100
AcDbEntity
  8
0
  6
Continuous
 62
     7
370
    15
100
AcDbSpline
210
0.0
220
0.0
230
1.0
 70
    24
 71
     3
 72
    12
 73
     8
 74
     0
 42
0.00000001
 43
0.00000001
 12
1.0
 22
0.0
 32
0.0
 13
1.0
 23
0.0
 33
0.0
 40
0.0
 40
0.0
 40
0.0
 40
0.0
 40
0.2500000000000021
 40
0.2500000000000021
 40
0.5000000000000041
 40
0.5000000000000041
 40
1.0
 40
1.0
 40
1.0
 40
1.0
 10
222.3877412771306
 20
150.7218369006366
 30
0.0
 10
222.3877412771305
 20
150.7218369006366
 30
0.0
 10
222.4250783883206
 20
150.7218369006366
 30
0.0
 10
222.5734630747461
 20
150.7218369006366
 30
0.0
 10
222.6837438505313
 20
150.7218369006366
 30
0.0
 10
223.1063758227615
 20
150.7218369006366
 30
0.0
 10
223.5103531569036
 20
150.7218369006366
 30
0.0
 10
223.9954364317173
 20
150.7218369006366
 30
0.0
  0
LINE
  5
36F
330
1F
100
AcDbEntity
  8
0
  6
Continuous
 62
     7
370
    15
100
AcDbLine
 10
222.3877395188
 20
150.7218366912
 30
0.0
 11
222.3877395188
 21
159.7218400291
 31
0.0
  0
LINE
  5
370
330
1F
100
AcDbEntity
  8
0
  6
Continuous
 62
     7
370
    15
100
AcDbLine
 10
380.3877430653
 20
156.9481378845
 30
0.0
 11
380.3877430653
 21
180.7218378833
 31
0.0
  0
LINE
  5
371
330
1F
100
AcDbEntity
  8
0
  6
Continuous
 62
     7
370
    15
100
AcDbLine
 10
380.3877430653
 20
156.7218339494
 30
0.0
 11
380.3877430653
 21
156.9481378845
 31
0.0
  0
LINE
  5
372
330
1F
100
AcDbEntity
  8
0
  6
Continuous
 62
     7
370
    15
100
AcDbLine
 10
-194.612259915
 20
156.9481378845
 30
0.0
 11
-194.612259915
 21
180.7218378833
 31
0.0
  0
LINE
  5
373
330
1F
100
AcDbEntity
  8
0
  6
Continuous
 62
     7
370
    15
100
AcDbLine
 10
-194.612259915
 20
156.7218339494
 30
0.0
 11
-194.612259915
 21
156.9481378845
 31
0.0
  0
SPLINE
  5
374
330
1F
100
AcDbEntity
  8
0
  6
Continuous
 62
     7
370
    15
100
AcDbSpline
210
0.0
220
0.0
230
1.0
 70
     8
 71
     3
 72
     9
 73
     5
 74
     0
 42
0.00000001
 43
0.00000001
 12
1.0
 22
0.0
 32
0.0
 13
1.0
 23
0.0
 33
0.0
 40
0.0
 40
0.0
 40
0.0
 40
0.0
 40
0.8980088387130482
 40
1.0
 40
1.0
 40
1.0
 40
1.0
 10
-38.21995382556106
 20
189.329702263196
 30
0.0
 10
-37.97192413844577
 20
188.9962353855244
 30
0.0
 10
-37.69572453280404
 20
188.6248950787302
 30
0.0
 10
-37.49692944477559
 20
188.2466947528891
 30
0.0
 10
-37.47665410288955
 20
188.2081216624575
 30
0.0
  0
LINE
  5
375
330
1F
100
AcDbEntity
  8
0
  6
Continuous
 62
     7
370
    15
100
AcDbLine
 10
-36.6122675444
 20
183.006528621
 30
0.0
 11
-36.6122675444
 21
186.7218351415
 31
0.0
  0
LINE
  5
376
330
1F
100
AcDbEntity
  8
0
  6
Continuous
 62
     7
370
    15
100
AcDbLine
 10
-36.6122675444
 20
152.0947253755
 30
0.0
 11
-36.6122675444
 21
150.7218366912
 31
0.0
  0
LINE
  5
377
330
1F
100
AcDbEntity
  8
0
  6
Continuous
 62
     7
370
    15
100
AcDbLine
 10
112.8877448534
 20
209.3264794401
 30
0.0
 11
112.8877448534
 21
180.7218378833
 31
0.0
  0
LINE
  5
378
330
1F
100
AcDbEntity
  8
0
  6
Continuous
 62
     7
370
    15
100
AcDbLine
 10
115.3877424692
 20
195.3264808706
 30
0.0
 11
115.3877424692
 21
207.3264753869
 31
0.0
  0
LINE
  5
379
330
1F
100
AcDbEntity
  8
0
  6
Continuous
 62
     7
370
    15
100
AcDbLine
 10
115.3877424692
 20
183.326471453
 30
0.0
 11
115.3877424692
 21
195.3264808706
 31
0.0
  0
LINE
  5
37A
330
1F
100
AcDbEntity
  8
0
  6
Continuous
 62
     7
370
    15
100
AcDbLine
 10
115.3877424692
 20
-260.6735193679
 30
0.0
 11
115.3877424692
 21
-236.6735154339
 31
0.0
  0
LINE
  5
37B
330
1F
100
AcDbEntity
  8
0
  6
Continuous
 62
     7
370
    15
100
AcDbLine
 10
116.624598453
 20
204.3264842084
 30
0.0
 11
124.5508837198
 21
204.3264842084
 31
0.0
  0
SPLINE
  5
37C
330
1F
100
AcDbEntity
  8
0
  6
Continuous
 62
     7
370
    15
100
AcDbSpline
210
0.0
220
0.0
230
1.0
 70
     8
 71
     3
 72
    16
 73
    12
 74
     0
 42
0.00000001
 43
0.00000001
 12
1.0
 22
0.0
 32
0.0
 13
1.0
 23
0.0
 33
0.0
 40
0.0
 40
0.0
 40
0.0
 40
0.0
 40
0.2499999999999999
 40
0.2499999999999999
 40
0.4999999999999998
 40
0.4999999999999998
 40
0.6249999999999998
 40
0.6249999999999998
 40
0.7499999999999999
 40
0.7499999999999999
 40
1.0
 40
1.0
 40
1.0
 40
1.0
 10
124.5508809979454
 20
204.3264780095415
 30
0.0
 10
124.7958025125278
 20
203.5917134657944
 30
0.0
 10
124.9976622325644
 20
202.8515918643782
 30
0.0
 10
125.2773035041615
 20
201.3559128463178
 30
0.0
 10
125.3541626388898
 20
200.6002406773692
 30
0.0
 10
125.3550068000589
 20
199.4524950701132
 30
0.0
 10
125.3362177133888
 20
199.0681130586657
 30
0.0
 10
125.262950221308
 20
198.3077648914928
 30
0.0
 10
125.2085461696447
 20
197.9301399728206
 30
0.0
 10
124.9984671112926
 20
196.8039883125253
 30
0.0
 10
124.7961078181252
 20
196.0621584700814
 30
0.0
 10
124.5508809979452
 20
195.3264780095414
 30
0.0
  0
LINE
  5
37D
330
1F
100
AcDbEntity
  8
0
  6
Continuous
 62
     7
370
    15
100
AcDbLine
 10
116.624598453
 20
195.3264808706
 30
0.0
 11
124.5508837198
 21
195.3264808706
 31
0.0
  0
SPLINE
  5
37E
330
1F
100
AcDbEntity
  8
0
  6
Continuous
 62
     7
370
    15
100
AcDbSpline
210
0.0
220
0.0
230
1.0
 70
     8
 71
     3
 72
    16
 73
    12
 74
     0
 42
0.00000001
 43
0.00000001
 12
1.0
 22
0.0
 32
0.0
 13
1.0
 23
0.0
 33
0.0
 40
0.0
 40
0.0
 40
0.0
 40
0.0
 40
0.2500000000000017
 40
0.2500000000000017
 40
0.5000000000000033
 40
0.5000000000000033
 40
0.6250000000000042
 40
0.6250000000000042
 40
0.750000000000005
 40
0.750000000000005
 40
1.0
 40
1.0
 40
1.0
 40
1.0
 10
116.6246015563158
 20
195.3264780095414
 30
0.0
 10
116.3796800417334
 20
196.0612425532885
 30
0.0
 10
116.1778203216969
 20
196.8013641547047
 30
0.0
 10
115.8981790500999
 20
198.297043172765
 30
0.0
 10
115.8213199153715
 20
199.0527153417137
 30
0.0
 10
115.8204757542023
 20
200.2004609489697
 30
0.0
 10
115.8392648408724
 20
200.5848429604173
 30
0.0
 10
115.9125323329532
 20
201.3451911275901
 30
0.0
 10
115.9669363846166
 20
201.7228160462622
 30
0.0
 10
116.1770154429687
 20
202.8489677065575
 30
0.0
 10
116.3793747361359
 20
203.5907975490015
 30
0.0
 10
116.624601556316
 20
204.3264780095415
 30
0.0
  0
SPLINE
  5
37F
330
1F
100
AcDbEntity
  8
0
  6
Continuous
 62
     7
370
    15
100
AcDbSpline
210
0.0
220
0.0
230
1.0
 70
    24
 71
     3
 72
    11
 73
     7
 74
     0
 42
0.00000001
 43
0.00000001
 12
1.0
 22
0.0
 32
0.0
 13
1.0
 23
0.0
 33
0.0
 40
0.0
 40
0.0
 40
0.0
 40
0.0
 40
0.2663525986627063
 40
0.5156165659569694
 40
0.7648184317252038
 40
0.9999999999999999
 40
0.9999999999999999
 40
0.9999999999999999
 40
0.9999999999999999
 10
116.6245984529576
 20
204.3264842084246
 30
0.0
 10
116.5011965207079
 20
204.3264842084246
 30
0.0
 10
116.2623098687341
 20
204.3264842084247
 30
0.0
 10
116.011513163989
 20
204.3264842084245
 30
0.0
 10
115.8485413552534
 20
204.3264842084246
 30
0.0
 10
115.8330066222659
 20
204.3264842084246
 30
0.0
 10
115.8254640792927
 20
204.3264842084246
 30
0.0
  0
SPLINE
  5
380
330
1F
100
AcDbEntity
  8
0
  6
Continuous
 62
     7
370
    15
100
AcDbSpline
210
0.0
220
0.0
230
1.0
 70
     8
 71
     3
 72
    16
 73
    12
 74
     0
 42
0.00000001
 43
0.00000001
 12
1.0
 22
0.0
 32
0.0
 13
1.0
 23
0.0
 33
0.0
 40
0.0
 40
0.0
 40
0.0
 40
0.0
 40
0.2500000000000001
 40
0.2500000000000001
 40
0.5000000000000001
 40
0.5000000000000001
 40
0.6250000000000001
 40
0.6250000000000001
 40
0.7500000000000002
 40
0.7500000000000002
 40
1.0
 40
1.0
 40
1.0
 40
1.0
 10
116.6246015563158
 20
186.3264780095414
 30
0.0
 10
116.3796800417334
 20
187.0612425532885
 30
0.0
 10
116.1778203216969
 20
187.8013641547048
 30
0.0
 10
115.8981790500999
 20
189.297043172765
 30
0.0
 10
115.8213199153715
 20
190.0527153417137
 30
0.0
 10
115.8204757542023
 20
191.2004609489697
 30
0.0
 10
115.8392648408723
 20
191.5848429604172
 30
0.0
 10
115.9125323329532
 20
192.34519112759
 30
0.0
 10
115.9669363846165
 20
192.7228160462622
 30
0.0
 10
116.1770154429686
 20
193.8489677065576
 30
0.0
 10
116.3793747361359
 20
194.5907975490015
 30
0.0
 10
116.624601556316
 20
195.3264780095415
 30
0.0
  0
SPLINE
  5
381
330
1F
100
AcDbEntity
  8
0
  6
Continuous
 62
     7
370
    15
100
AcDbSpline
210
0.0
220
0.0
230
1.0
 70
    24
 71
     3
 72
    11
 73
     7
 74
     0
 42
0.00000001
 43
0.00000001
 12
1.0
 22
0.0
 32
0.0
 13
1.0
 23
0.0
 33
0.0
 40
0.0
 40
0.0
 40
0.0
 40
0.0
 40
0.2223418845273219
 40
0.4779598272875455
 40
0.7336459942938375
 40
1.0
 40
1.0
 40
1.0
 40
1.0
 10
115.8264326547704
 20
186.3264775327044
 30
0.0
 10
115.8326094001336
 20
186.3264775327044
 30
0.0
 10
115.8458873128997
 20
186.3264775327042
 30
0.0
 10
116.0056229283665
 20
186.3264775327044
 30
0.0
 10
116.2593396625986
 20
186.3264775327044
 30
0.0
 10
116.5011980720382
 20
186.3264775327044
 30
0.0
 10
116.6245984529576
 20
186.3264775327044
 30
0.0
  0
SPLINE
  5
382
330
1F
100
AcDbEntity
  8
0
  6
Continuous
 62
     7
370
    15
100
AcDbSpline
210
0.0
220
0.0
230
1.0
 70
    24
 71
     3
 72
    11
 73
     7
 74
     0
 42
0.00000001
 43
0.00000001
 12
1.0
 22
0.0
 32
0.0
 13
1.0
 23
0.0
 33
0.0
 40
0.0
 40
0.0
 40
0.0
 40
0.0
 40
0.2663525986627063
 40
0.5156165659569694
 40
0.7648184317252038
 40
0.9999999999999999
 40
0.9999999999999999
 40
0.9999999999999999
 40
0.9999999999999999
 10
124.5508837198338
 20
186.3264775327044
 30
0.0
 10
124.6742856520836
 20
186.3264775327044
 30
0.0
 10
124.9131723040573
 20
186.3264775327044
 30
0.0
 10
125.1639690088025
 20
186.3264775327044
 30
0.0
 10
125.3269408175379
 20
186.3264775327044
 30
0.0
 10
125.3424755505255
 20
186.3264775327044
 30
0.0
 10
125.3500180934987
 20
186.3264775327044
 30
0.0
  0
SPLINE
  5
383
330
1F
100
AcDbEntity
  8
0
  6
Continuous
 62
     7
370
    15
100
AcDbSpline
210
0.0
220
0.0
230
1.0
 70
     8
 71
     3
 72
    16
 73
    12
 74
     0
 42
0.00000001
 43
0.00000001
 12
1.0
 22
0.0
 32
0.0
 13
1.0
 23
0.0
 33
0.0
 40
0.0
 40
0.0
 40
0.0
 40
0.0
 40
0.2499999999999983
 40
0.2499999999999983
 40
0.4999999999999967
 40
0.4999999999999967
 40
0.6249999999999958
 40
0.6249999999999958
 40
0.749999999999995
 40
0.749999999999995
 40
1.0
 40
1.0
 40
1.0
 40
1.0
 10
124.5508809979455
 20
195.3264780095415
 30
0.0
 10
124.7958025125279
 20
194.5917134657943
 30
0.0
 10
124.9976622325644
 20
193.8515918643781
 30
0.0
 10
125.2773035041614
 20
192.3559128463179
 30
0.0
 10
125.3541626388898
 20
191.6002406773692
 30
0.0
 10
125.355006800059
 20
190.4524950701132
 30
0.0
 10
125.3362177133889
 20
190.0681130586656
 30
0.0
 10
125.262950221308
 20
189.3077648914928
 30
0.0
 10
125.2085461696447
 20
188.9301399728207
 30
0.0
 10
124.9984671112926
 20
187.8039883125255
 30
0.0
 10
124.7961078181253
 20
187.0621584700815
 30
0.0
 10
124.5508809979453
 20
186.3264780095414
 30
0.0
  0
SPLINE
  5
384
330
1F
100
AcDbEntity
  8
0
  6
Continuous
 62
     7
370
    15
100
AcDbSpline
210
0.0
220
0.0
230
1.0
 70
    24
 71
     3
 72
    11
 73
     7
 74
     0
 42
0.00000001
 43
0.00000001
 12
1.0
 22
0.0
 32
0.0
 13
1.0
 23
0.0
 33
0.0
 40
0.0
 40
0.0
 40
0.0
 40
0.0
 40
0.2223418845273219
 40
0.4779598272875455
 40
0.7336459942938375
 40
1.0
 40
1.0
 40
1.0
 40
1.0
 10
125.3490495180211
 20
204.3264842084246
 30
0.0
 10
125.3428727726579
 20
204.3264842084246
 30
0.0
 10
125.3295948598919
 20
204.3264842084245
 30
0.0
 10
125.1698592444249
 20
204.3264842084247
 30
0.0
 10
124.9161425101929
 20
204.3264842084245
 30
0.0
 10
124.6742841007532
 20
204.3264842084247
 30
0.0
 10
124.5508837198338
 20
204.3264842084246
 30
0.0
  0
LINE
  5
385
330
1F
100
AcDbEntity
  8
0
  6
Continuous
 62
     7
370
    15
100
AcDbLine
 10
125.7877397036
 20
187.0764827779
 30
0.0
 11
125.7877397036
 21
203.5764789632
 31
0.0
  0
LINE
  5
386
330
1F
100
AcDbEntity
  8
0
  6
Continuous
 62
     7
370
    15
100
AcDbLine
 10
116.624598453
 20
186.3264775327
 30
0.0
 11
124.5508837198
 21
186.3264775327
 31
0.0
  0
LINE
  5
387
330
1F
100
AcDbEntity
  8
0
  6
Continuous
 62
     7
370
    15
100
AcDbLine
 10
116.624598453
 20
-239.6735215136
 30
0.0
 11
124.5508837198
 21
-239.6735215136
 31
0.0
  0
SPLINE
  5
388
330
1F
100
AcDbEntity
  8
0
  6
Continuous
 62
     7
370
    15
100
AcDbSpline
210
0.0
220
0.0
230
1.0
 70
     8
 71
     3
 72
    16
 73
    12
 74
     0
 42
0.00000001
 43
0.00000001
 12
1.0
 22
0.0
 32
0.0
 13
1.0
 23
0.0
 33
0.0
 40
0.0
 40
0.0
 40
0.0
 40
0.0
 40
0.2499999999999983
 40
0.2499999999999983
 40
0.4999999999999966
 40
0.4999999999999966
 40
0.6249999999999957
 40
0.6249999999999957
 40
0.7499999999999949
 40
0.7499999999999949
 40
1.0
 40
1.0
 40
1.0
 40
1.0
 10
124.5508809979455
 20
-239.6735219904584
 30
0.0
 10
124.7958025125279
 20
-240.4082865342055
 30
0.0
 10
124.9976622325643
 20
-241.1484081356217
 30
0.0
 10
125.2773035041614
 20
-242.644087153682
 30
0.0
 10
125.3541626388898
 20
-243.3997593226308
 30
0.0
 10
125.355006800059
 20
-244.5475049298867
 30
0.0
 10
125.3362177133889
 20
-244.9318869413342
 30
0.0
 10
125.262950221308
 20
-245.6922351085072
 30
0.0
 10
125.2085461696446
 20
-246.0698600271793
 30
0.0
 10
124.9984671112925
 20
-247.1960116874745
 30
0.0
 10
124.7961078181252
 20
-247.9378415299185
 30
0.0
 10
124.5508809979453
 20
-248.6735219904584
 30
0.0
  0
LINE
  5
389
330
1F
100
AcDbEntity
  8
0
  6
Continuous
 62
     7
370
    15
100
AcDbLine
 10
116.624598453
 20
-248.6735248515
 30
0.0
 11
124.5508837198
 21
-248.6735248515
 31
0.0
  0
SPLINE
  5
38A
330
1F
100
AcDbEntity
  8
0
  6
Continuous
 62
     7
370
    15
100
AcDbSpline
210
0.0
220
0.0
230
1.0
 70
     8
 71
     3
 72
    16
 73
    12
 74
     0
 42
0.00000001
 43
0.00000001
 12
1.0
 22
0.0
 32
0.0
 13
1.0
 23
0.0
 33
0.0
 40
0.0
 40
0.0
 40
0.0
 40
0.0
 40
0.2500000000000034
 40
0.2500000000000034
 40
0.5000000000000069
 40
0.5000000000000069
 40
0.6250000000000051
 40
0.6250000000000051
 40
0.7500000000000034
 40
0.7500000000000034
 40
1.0
 40
1.0
 40
1.0
 40
1.0
 10
116.6246015563158
 20
-248.6735219904585
 30
0.0
 10
116.3796800417334
 20
-247.9387574467113
 30
0.0
 10
116.1778203216969
 20
-247.1986358452951
 30
0.0
 10
115.8981790500999
 20
-245.7029568272347
 30
0.0
 10
115.8213199153715
 20
-244.9472846582861
 30
0.0
 10
115.8204757542023
 20
-243.7995390510301
 30
0.0
 10
115.8392648408724
 20
-243.4151570395826
 30
0.0
 10
115.9125323329532
 20
-242.6548088724097
 30
0.0
 10
115.9669363846166
 20
-242.2771839537376
 30
0.0
 10
116.1770154429687
 20
-241.1510322934422
 30
0.0
 10
116.379374736136
 20
-240.4092024509983
 30
0.0
 10
116.624601556316
 20
-239.6735219904583
 30
0.0
  0
SPLINE
  5
38B
330
1F
100
AcDbEntity
  8
0
  6
Continuous
 62
     7
370
    15
100
AcDbSpline
210
0.0
220
0.0
230
1.0
 70
    24
 71
     3
 72
    13
 73
     9
 74
     0
 42
0.00000001
 43
0.00000001
 12
1.0
 22
0.0
 32
0.0
 13
1.0
 23
0.0
 33
0.0
 40
0.0
 40
0.0
 40
0.0
 40
0.0
 40
0.0202177273900238
 40
0.2756270723546788
 40
0.4558406025497853
 40
0.6360709919441101
 40
0.8180279454828743
 40
1.0
 40
1.0
 40
1.0
 40
1.0
 10
125.3500180934987
 20
-239.6735215136213
 30
0.0
 10
125.3513911875606
 20
-239.6735215136213
 30
0.0
 10
125.3701104970579
 20
-239.6735215136215
 30
0.0
 10
125.3074469233516
 20
-239.6735215136212
 30
0.0
 10
125.1832357274024
 20
-239.6735215136214
 30
0.0
 10
125.0161019766501
 20
-239.6735215136213
 30
0.0
 10
124.8077437471523
 20
-239.6735215136213
 30
0.0
 10
124.6365060974019
 20
-239.6735215136213
 30
0.0
 10
124.5508837198338
 20
-239.6735215136213
 30
0.0
  0
SPLINE
  5
38C
330
1F
100
AcDbEntity
  8
0
  6
Continuous
 62
     7
370
    15
100
AcDbSpline
210
0.0
220
0.0
230
1.0
 70
    24
 71
     3
 72
    13
 73
     9
 74
     0
 42
0.00000001
 43
0.00000001
 12
1.0
 22
0.0
 32
0.0
 13
1.0
 23
0.0
 33
0.0
 40
0.0
 40
0.0
 40
0.0
 40
0.0
 40
0.1803396894263314
 40
0.3606648495279782
 40
0.5425248691375312
 40
0.724367061425254
 40
0.9733583677453949
 40
1.0
 40
1.0
 40
1.0
 40
1.0
 10
124.5508837198338
 20
-257.6735281893415
 30
0.0
 10
124.6357640673955
 20
-257.6735281893415
 30
0.0
 10
124.8055179240126
 20
-257.6735281893415
 30
0.0
 10
125.013829782759
 20
-257.6735281893415
 30
0.0
 10
125.1820650615862
 20
-257.6735281893415
 30
0.0
 10
125.3062511449989
 20
-257.6735281893415
 30
0.0
 10
125.3682914790866
 20
-257.6735281893417
 30
0.0
 10
125.3507454504615
 20
-257.6735281893415
 30
0.0
 10
125.3490495180211
 20
-257.6735281893415
 30
0.0
  0
SPLINE
  5
38D
330
1F
100
AcDbEntity
  8
0
  6
Continuous
 62
     7
370
    15
100
AcDbSpline
210
0.0
220
0.0
230
1.0
 70
     8
 71
     3
 72
    16
 73
    12
 74
     0
 42
0.00000001
 43
0.00000001
 12
1.0
 22
0.0
 32
0.0
 13
1.0
 23
0.0
 33
0.0
 40
0.0
 40
0.0
 40
0.0
 40
0.0
 40
0.2500000000000017
 40
0.2500000000000017
 40
0.5000000000000034
 40
0.5000000000000034
 40
0.6250000000000043
 40
0.6250000000000043
 40
0.7500000000000051
 40
0.7500000000000051
 40
1.0
 40
1.0
 40
1.0
 40
1.0
 10
124.5508809979455
 20
-248.6735219904583
 30
0.0
 10
124.7958025125278
 20
-249.4082865342055
 30
0.0
 10
124.9976622325644
 20
-250.1484081356218
 30
0.0
 10
125.2773035041615
 20
-251.6440871536821
 30
0.0
 10
125.3541626388898
 20
-252.3997593226308
 30
0.0
 10
125.3550068000589
 20
-253.5475049298867
 30
0.0
 10
125.3362177133888
 20
-253.9318869413343
 30
0.0
 10
125.262950221308
 20
-254.6922351085071
 30
0.0
 10
125.2085461696447
 20
-255.0698600271792
 30
0.0
 10
124.9984671112926
 20
-256.1960116874745
 30
0.0
 10
124.7961078181252
 20
-256.9378415299184
 30
0.0
 10
124.5508809979452
 20
-257.6735219904584
 30
0.0
  0
LINE
  5
38E
330
1F
100
AcDbEntity
  8
0
  6
Continuous
 62
     7
370
    15
100
AcDbLine
 10
125.7877397036
 20
-256.9235229441
 30
0.0
 11
125.7877397036
 21
-240.4235267588
 31
0.0
  0
SPLINE
  5
38F
330
1F
100
AcDbEntity
  8
0
  6
Continuous
 62
     7
370
    15
100
AcDbSpline
210
0.0
220
0.0
230
1.0
 70
    24
 71
     3
 72
    13
 73
     9
 74
     0
 42
0.00000001
 43
0.00000001
 12
1.0
 22
0.0
 32
0.0
 13
1.0
 23
0.0
 33
0.0
 40
0.0
 40
0.0
 40
0.0
 40
0.0
 40
0.0202177273900238
 40
0.2756270723546788
 40
0.4558406025497853
 40
0.6360709919441101
 40
0.8180279454828743
 40
1.0
 40
1.0
 40
1.0
 40
1.0
 10
115.8254640792927
 20
-257.6735281893415
 30
0.0
 10
115.8240909852308
 20
-257.6735281893415
 30
0.0
 10
115.8053716757333
 20
-257.6735281893418
 30
0.0
 10
115.8680352494399
 20
-257.6735281893415
 30
0.0
 10
115.9922464453891
 20
-257.6735281893415
 30
0.0
 10
116.1593801961412
 20
-257.6735281893416
 30
0.0
 10
116.3677384256392
 20
-257.6735281893415
 30
0.0
 10
116.5389760753895
 20
-257.6735281893415
 30
0.0
 10
116.6245984529576
 20
-257.6735281893415
 30
0.0
  0
SPLINE
  5
390
330
1F
100
AcDbEntity
  8
0
  6
Continuous
 62
     7
370
    15
100
AcDbSpline
210
0.0
220
0.0
230
1.0
 70
    24
 71
     3
 72
    13
 73
     9
 74
     0
 42
0.00000001
 43
0.00000001
 12
1.0
 22
0.0
 32
0.0
 13
1.0
 23
0.0
 33
0.0
 40
0.0
 40
0.0
 40
0.0
 40
0.0
 40
0.1803396894263314
 40
0.3606648495279782
 40
0.5425248691375312
 40
0.724367061425254
 40
0.9733583677453949
 40
1.0
 40
1.0
 40
1.0
 40
1.0
 10
116.6245984529576
 20
-239.6735215136213
 30
0.0
 10
116.5397181053959
 20
-239.6735215136213
 30
0.0
 10
116.3699642487789
 20
-239.6735215136212
 30
0.0
 10
116.1616523900324
 20
-239.6735215136214
 30
0.0
 10
115.9934171112052
 20
-239.6735215136213
 30
0.0
 10
115.8692310277925
 20
-239.6735215136214
 30
0.0
 10
115.807190693705
 20
-239.6735215136212
 30
0.0
 10
115.82473672233
 20
-239.6735215136213
 30
0.0
 10
115.8264326547704
 20
-239.6735215136213
 30
0.0
  0
SPLINE
  5
391
330
1F
100
AcDbEntity
  8
0
  6
Continuous
 62
     7
370
    15
100
AcDbSpline
210
0.0
220
0.0
230
1.0
 70
     8
 71
     3
 72
    16
 73
    12
 74
     0
 42
0.00000001
 43
0.00000001
 12
1.0
 22
0.0
 32
0.0
 13
1.0
 23
0.0
 33
0.0
 40
0.0
 40
0.0
 40
0.0
 40
0.0
 40
0.2500000000000017
 40
0.2500000000000017
 40
0.5000000000000034
 40
0.5000000000000034
 40
0.6250000000000043
 40
0.6250000000000043
 40
0.7500000000000051
 40
0.7500000000000051
 40
1.0
 40
1.0
 40
1.0
 40
1.0
 10
116.6246015563158
 20
-257.6735219904584
 30
0.0
 10
116.3796800417334
 20
-256.9387574467113
 30
0.0
 10
116.1778203216969
 20
-256.1986358452951
 30
0.0
 10
115.8981790500998
 20
-254.7029568272348
 30
0.0
 10
115.8213199153715
 20
-253.9472846582861
 30
0.0
 10
115.8204757542023
 20
-252.7995390510301
 30
0.0
 10
115.8392648408724
 20
-252.4151570395826
 30
0.0
 10
115.9125323329532
 20
-251.6548088724097
 30
0.0
 10
115.9669363846166
 20
-251.2771839537376
 30
0.0
 10
116.1770154429687
 20
-250.1510322934422
 30
0.0
 10
116.379374736136
 20
-249.4092024509983
 30
0.0
 10
116.624601556316
 20
-248.6735219904583
 30
0.0
  0
LINE
  5
392
330
1F
100
AcDbEntity
  8
0
  6
Continuous
 62
     7
370
    15
100
AcDbLine
 10
116.624598453
 20
-257.6735281893
 30
0.0
 11
124.5508837198
 21
-257.6735281893
 31
0.0
  0
LINE
  5
393
330
1F
100
AcDbEntity
  8
0
  6
Continuous
 62
     7
370
    15
100
AcDbLine
 10
165.8877405023
 20
189.3264836124
 30
0.0
 11
165.8877405023
 21
201.3264781288
 31
0.0
  0
LINE
  5
394
330
1F
100
AcDbEntity
  8
0
  6
Continuous
 62
     7
370
    15
100
AcDbLine
 10
165.8877405023
 20
-254.6735221097
 30
0.0
 11
165.8877405023
 21
-242.6735275933
 31
0.0
  0
LINE
  5
395
330
1F
100
AcDbEntity
  8
0
  6
Continuous
 62
     7
370
    15
100
AcDbLine
 10
243.8877421116
 20
-244.0688872286
 30
0.0
 11
243.8877421116
 21
-207.6735162684
 31
0.0
  0
LINE
  5
396
330
1F
100
AcDbEntity
  8
0
  6
Continuous
 62
     7
370
    15
100
AcDbLine
 10
-58.1122589613
 20
-242.6735275933
 30
0.0
 11
-58.1122589613
 21
-222.6735168645
 31
0.0
  0
LINE
  5
397
330
1F
100
AcDbEntity
  8
0
  6
Continuous
 62
     7
370
    15
100
AcDbLine
 10
243.0877416079
 20
-213.06888401
 30
0.0
 11
243.0877416079
 21
-207.6735162684
 31
0.0
  0
LINE
  5
398
330
1F
100
AcDbEntity
  8
0
  6
Continuous
 62
     7
370
    15
100
AcDbLine
 10
243.0877416079
 20
-222.0688873479
 30
0.0
 11
243.0877416079
 21
-213.06888401
 31
0.0
  0
LINE
  5
399
330
1F
100
AcDbEntity
  8
0
  6
Continuous
 62
     7
370
    15
100
AcDbLine
 10
243.0877416079
 20
-222.0688873479
 30
0.0
 11
223.9954369759
 21
-222.0688873479
 31
0.0
  0
SPLINE
  5
39A
330
1F
100
AcDbEntity
  8
0
  6
Continuous
 62
     7
370
    15
100
AcDbSpline
210
0.0
220
0.0
230
1.0
 70
     8
 71
     3
 72
    14
 73
    10
 74
     0
 42
0.00000001
 43
0.00000001
 12
1.0
 22
0.0
 32
0.0
 13
1.0
 23
0.0
 33
0.0
 40
0.0
 40
0.0
 40
0.0
 40
0.0
 40
0.1249999999999976
 40
0.1249999999999976
 40
0.2499999999999952
 40
0.2499999999999952
 40
0.4999999999999951
 40
0.4999999999999951
 40
1.0
 40
1.0
 40
1.0
 40
1.0
 10
222.3877412771306
 20
-213.0688808815527
 30
0.0
 10
222.3877412771306
 20
-213.4507805495572
 30
0.0
 10
222.3971703825527
 20
-213.8345907847111
 30
0.0
 10
222.43457235984
 20
-214.5986402008516
 30
0.0
 10
222.4625049518105
 20
-214.9793406302441
 30
0.0
 10
222.5727964345893
 20
-216.1176413813045
 30
0.0
 10
222.6817104825648
 20
-216.8714323507749
 30
0.0
 10
223.1017805303728
 20
-219.1194173190023
 30
0.0
 10
223.5059012945802
 20
-220.6002754701416
 30
0.0
 10
223.9954364317172
 20
-222.0688808815527
 30
0.0
  0
SPLINE
  5
39B
330
1F
100
AcDbEntity
  8
0
  6
Continuous
 62
     7
370
    15
100
AcDbSpline
210
0.0
220
0.0
230
1.0
 70
     8
 71
     3
 72
    11
 73
     7
 74
     0
 42
0.00000001
 43
0.00000001
 12
1.0
 22
0.0
 32
0.0
 13
1.0
 23
0.0
 33
0.0
 40
0.0
 40
0.0
 40
0.0
 40
0.0
 40
0.1507706622011568
 40
0.4338032581902395
 40
0.7170178601360345
 40
1.0
 40
1.0
 40
1.0
 40
1.0
 10
223.0025018250069
 20
-207.6735162684126
 30
0.0
 10
222.9424278151145
 20
-207.9414263355269
 30
0.0
 10
222.7695805194705
 20
-208.7122676803841
 30
0.0
 10
222.5759456886539
 20
-209.9999389697576
 30
0.0
 10
222.4171954405601
 20
-211.531695581888
 30
0.0
 10
222.3975554715369
 20
-212.5566281353539
 30
0.0
 10
222.3877395187936
 20
-213.0688840099973
 30
0.0
  0
SPLINE
  5
39C
330
1F
100
AcDbEntity
  8
0
  6
Continuous
 62
     7
370
    15
100
AcDbSpline
210
0.0
220
0.0
230
1.0
 70
     8
 71
     3
 72
    10
 73
     6
 74
     0
 42
0.00000001
 43
0.00000001
 12
1.0
 22
0.0
 32
0.0
 13
1.0
 23
0.0
 33
0.0
 40
0.0
 40
0.0
 40
0.0
 40
0.0
 40
0.5
 40
0.5
 40
1.0
 40
1.0
 40
1.0
 40
1.0
 10
223.9954364317171
 20
-222.0688808815527
 30
0.0
 10
223.5046756136576
 20
-223.5411633357314
 30
0.0
 10
223.1003617624253
 20
-225.0241997070695
 30
0.0
 10
222.5409630888119
 20
-228.0212762943956
 30
0.0
 10
222.3877412771306
 20
-229.5355482670716
 30
0.0
 10
222.3877412771306
 20
-231.0688808815527
 30
0.0
  0
LINE
  5
39D
330
1F
100
AcDbEntity
  8
0
  6
Continuous
 62
     7
370
    15
100
AcDbLine
 10
222.3877395188
 20
-213.06888401
 30
0.0
 11
222.3877395188
 21
-231.0688757846
 31
0.0
  0
LINE
  5
39E
330
1F
100
AcDbEntity
  8
0
  6
Continuous
 62
     7
370
    15
100
AcDbLine
 10
243.0877416079
 20
-240.0688791224
 30
0.0
 11
243.0877416079
 21
-231.0688757846
 31
0.0
  0
LINE
  5
39F
330
1F
100
AcDbEntity
  8
0
  6
Continuous
 62
     7
370
    15
100
AcDbLine
 10
243.0877416079
 20
-240.0688791224
 30
0.0
 11
223.9954369759
 21
-240.0688791224
 31
0.0
  0
SPLINE
  5
3A0
330
1F
100
AcDbEntity
  8
0
  6
Continuous
 62
     7
370
    15
100
AcDbSpline
210
0.0
220
0.0
230
1.0
 70
     8
 71
     3
 72
    14
 73
    10
 74
     0
 42
0.00000001
 43
0.00000001
 12
1.0
 22
0.0
 32
0.0
 13
1.0
 23
0.0
 33
0.0
 40
0.0
 40
0.0
 40
0.0
 40
0.0
 40
0.1249999999999999
 40
0.1249999999999999
 40
0.2499999999999998
 40
0.2499999999999998
 40
0.4999999999999998
 40
0.4999999999999998
 40
1.0
 40
1.0
 40
1.0
 40
1.0
 10
222.3877412771306
 20
-231.0688808815527
 30
0.0
 10
222.3877412771305
 20
-231.4507805495572
 30
0.0
 10
222.3971703825527
 20
-231.8345907847111
 30
0.0
 10
222.43457235984
 20
-232.5986402008515
 30
0.0
 10
222.4625049518105
 20
-232.9793406302441
 30
0.0
 10
222.5727964345893
 20
-234.1176413813044
 30
0.0
 10
222.6817104825648
 20
-234.871432350775
 30
0.0
 10
223.1017805303728
 20
-237.1194173190023
 30
0.0
 10
223.5059012945802
 20
-238.6002754701415
 30
0.0
 10
223.9954364317172
 20
-240.0688808815526
 30
0.0
  0
LINE
  5
3A1
330
1F
100
AcDbEntity
  8
0
  6
Continuous
 62
     7
370
    15
100
AcDbLine
 10
243.0877416079
 20
-231.0688757846
 30
0.0
 11
243.0877416079
 21
-222.0688873479
 31
0.0
  0
SPLINE
  5
3A2
330
1F
100
AcDbEntity
  8
0
  6
Continuous
 62
     7
370
    15
100
AcDbSpline
210
0.0
220
0.0
230
1.0
 70
     8
 71
     3
 72
     9
 73
     5
 74
     0
 42
0.00000001
 43
0.00000001
 12
1.0
 22
0.0
 32
0.0
 13
1.0
 23
0.0
 33
0.0
 40
0.0
 40
0.0
 40
0.0
 40
0.0
 40
0.4214710539873555
 40
1.0
 40
1.0
 40
1.0
 40
1.0
 10
-36.61226754435684
 20
-224.4112902828855
 30
0.0
 10
-36.61322769309685
 20
-224.166925955427
 30
0.0
 10
-36.61550578249575
 20
-223.5871368450085
 30
0.0
 10
-36.65089301267424
 20
-223.0083574802985
 30
0.0
 10
-36.67136554965164
 20
-222.673516864459
 30
0.0
  0
LINE
  5
3A3
330
1F
100
AcDbEntity
  8
0
  6
Continuous
 62
     7
370
    15
100
AcDbLine
 10
-36.6122675444
 20
-224.4112902829
 30
0.0
 11
-36.6122675444
 21
-222.6735168645
 31
0.0
  0
LINE
  5
3A4
330
1F
100
AcDbEntity
  8
0
  6
Continuous
 62
     7
370
    15
100
AcDbLine
 10
-57.3122454191
 20
-224.4112902829
 30
0.0
 11
-57.3122454191
 21
-234.715219731
 31
0.0
  0
LINE
  5
3A5
330
1F
100
AcDbEntity
  8
0
  6
Continuous
 62
     7
370
    15
100
AcDbLine
 10
-57.3122454191
 20
-222.6735168645
 30
0.0
 11
-57.3122454191
 21
-224.4112902829
 31
0.0
  0
SPLINE
  5
3A6
330
1F
100
AcDbEntity
  8
0
  6
Continuous
 62
     7
370
    15
100
AcDbSpline
210
0.0
220
0.0
230
1.0
 70
     8
 71
     3
 72
    10
 73
     6
 74
     0
 42
0.00000001
 43
0.00000001
 12
1.0
 22
0.0
 32
0.0
 13
1.0
 23
0.0
 33
0.0
 40
0.0
 40
0.0
 40
0.0
 40
0.0
 40
0.5
 40
0.5
 40
1.0
 40
1.0
 40
1.0
 40
1.0
 10
-38.21995387745583
 20
-234.7152232032736
 30
0.0
 10
-37.72919305939623
 20
-233.02963430396
 30
0.0
 10
-37.32487920816405
 20
-231.3317334441689
 30
0.0
 10
-36.76548053455067
 20
-227.9004359973707
 30
0.0
 10
-36.6122587228693
 20
-226.1667740764262
 30
0.0
 10
-36.6122587228693
 20
-224.4112899798868
 30
0.0
  0
LINE
  5
3A7
330
1F
100
AcDbEntity
  8
0
  6
Continuous
 62
     7
370
    15
100
AcDbLine
 10
-57.3122454191
 20
-234.715219731
 30
0.0
 11
-38.2199538256
 21
-234.715219731
 31
0.0
  0
LINE
  5
3A8
330
1F
100
AcDbEntity
  8
0
  6
Continuous
 62
     7
370
    15
100
AcDbLine
 10
-36.6122675444
 20
-238.6959904381
 30
0.0
 11
-36.6122675444
 21
-224.4112902829
 31
0.0
  0
SPLINE
  5
3A9
330
1F
100
AcDbEntity
  8
0
  6
Continuous
 62
     7
370
    15
100
AcDbSpline
210
0.0
220
0.0
230
1.0
 70
     8
 71
     3
 72
    12
 73
     8
 74
     0
 42
0.00000001
 43
0.00000001
 12
1.0
 22
0.0
 32
0.0
 13
1.0
 23
0.0
 33
0.0
 40
0.0
 40
0.0
 40
0.0
 40
0.0
 40
0.2500000000000011
 40
0.2500000000000011
 40
0.5000000000000021
 40
0.5000000000000021
 40
1.0
 40
1.0
 40
1.0
 40
1.0
 10
-36.6122587228693
 20
-238.6959852657999
 30
0.0
 10
-36.6122587228693
 20
-238.359443772232
 30
0.0
 10
-36.64959583405938
 20
-238.0218242936677
 30
0.0
 10
-36.79798052048497
 20
-237.344457191865
 30
0.0
 10
-36.90826129627009
 20
-237.0082505236611
 30
0.0
 10
-37.33089326850023
 20
-236.0110003574677
 30
0.0
 10
-37.73487060264238
 20
-235.3588902357884
 30
0.0
 10
-38.21995387745606
 20
-234.7152232032736
 30
0.0
  0
LINE
  5
3AA
330
1F
100
AcDbEntity
  8
0
  6
Continuous
 62
     7
370
    15
100
AcDbLine
 10
-57.3122454191
 20
-238.6959904381
 30
0.0
 11
-57.3122454191
 21
-242.6735275933
 31
0.0
  0
SPLINE
  5
3AB
330
1F
100
AcDbEntity
  8
0
  6
Continuous
 62
     7
370
    15
100
AcDbSpline
210
0.0
220
0.0
230
1.0
 70
     8
 71
     3
 72
    12
 73
     8
 74
     0
 42
0.00000001
 43
0.00000001
 12
1.0
 22
0.0
 32
0.0
 13
1.0
 23
0.0
 33
0.0
 40
0.0
 40
0.0
 40
0.0
 40
0.0
 40
0.2499999999999999
 40
0.2499999999999999
 40
0.4999999999999998
 40
0.4999999999999998
 40
1.0
 40
1.0
 40
1.0
 40
1.0
 10
-38.21995387745606
 20
-242.6767473283261
 30
0.0
 10
-37.97599102990287
 20
-242.3530279789243
 30
0.0
 10
-37.75201653508495
 20
-242.0263353037279
 30
0.0
 10
-37.35459183059606
 20
-241.3654343184918
 30
0.0
 10
-37.18289288559748
 20
-241.0339017287214
 30
0.0
 10
-36.7632083027368
 20
-240.0369937428614
 30
0.0
 10
-36.61225872286936
 20
-239.3686685880511
 30
0.0
 10
-36.6122587228693
 20
-238.6959852657999
 30
0.0
  0
LINE
  5
3AC
330
1F
100
AcDbEntity
  8
0
  6
Continuous
 62
     7
370
    15
100
AcDbLine
 10
-57.3122454191
 20
-234.715219731
 30
0.0
 11
-57.3122454191
 21
-238.6959904381
 31
0.0
  0
LINE
  5
3AD
330
1F
100
AcDbEntity
  8
0
  6
Continuous
 62
     7
370
    15
100
AcDbLine
 10
222.3877395188
 20
-207.6735162684
 30
0.0
 11
222.3877395188
 21
-213.06888401
 31
0.0
  0
SPLINE
  5
3AE
330
1F
100
AcDbEntity
  8
0
  6
Continuous
 62
     7
370
    15
100
AcDbSpline
210
0.0
220
0.0
230
1.0
 70
    24
 71
     3
 72
    12
 73
     8
 74
     0
 42
0.00000001
 43
0.00000001
 12
1.0
 22
0.0
 32
0.0
 13
1.0
 23
0.0
 33
0.0
 40
0.0
 40
0.0
 40
0.0
 40
0.0
 40
0.2499999999999981
 40
0.2499999999999981
 40
0.4999999999999962
 40
0.4999999999999962
 40
1.0
 40
1.0
 40
1.0
 40
1.0
 10
223.9954364317173
 20
-240.0688808815526
 30
0.0
 10
223.7514735841641
 20
-240.0688808815527
 30
0.0
 10
223.5274990893462
 20
-240.0688808815526
 30
0.0
 10
223.1300743848575
 20
-240.0688808815526
 30
0.0
 10
222.9583754398587
 20
-240.0688808815527
 30
0.0
 10
222.5386908569981
 20
-240.0688808815526
 30
0.0
 10
222.3877412771306
 20
-240.0688808815525
 30
0.0
 10
222.3877412771306
 20
-240.0688808815526
 30
0.0
  0
LINE
  5
3AF
330
1F
100
AcDbEntity
  8
0
  6
Continuous
 62
     7
370
    15
100
AcDbLine
 10
222.3877395188
 20
-231.0688757846
 30
0.0
 11
222.3877395188
 21
-240.0688791224
 31
0.0
  0
LINE
  5
3B0
330
1F
100
AcDbEntity
  8
0
  6
Continuous
 62
     7
370
    15
100
AcDbLine
 10
-194.612259915
 20
-234.0688818642
 30
0.0
 11
-194.612259915
 21
-210.0688779303
 31
0.0
  0
LINE
  5
3B1
330
1F
100
AcDbEntity
  8
0
  6
Continuous
 62
     7
370
    15
100
AcDbLine
 10
380.3877430653
 20
-234.0688818642
 30
0.0
 11
380.3877430653
 21
-210.0688779303
 31
0.0
  0
LINE
  5
3B2
330
1F
100
AcDbEntity
  8
0
  6
Continuous
 62
     7
370
    15
100
AcDbLine
 10
-36.6122675444
 20
-240.0688791224
 30
0.0
 11
-36.6122675444
 21
-238.6959904381
 31
0.0
  0
LINE
  5
3B3
330
1F
100
AcDbEntity
  8
0
  6
Continuous
 62
     7
370
    15
100
AcDbLine
 10
-194.612259915
 20
106.2049603513
 30
0.0
 11
-194.612259915
 21
115.8854848197
 31
0.0
  0
LINE
  5
3B4
330
1F
100
AcDbEntity
  8
0
  6
Continuous
 62
     7
370
    15
100
AcDbLine
 10
-194.612259915
 20
91.8854808858
 30
0.0
 11
-194.612259915
 21
106.2049603513
 31
0.0
  0
LINE
  5
3B5
330
1F
100
AcDbEntity
  8
0
  6
Continuous
 62
     7
370
    15
100
AcDbLine
 10
380.3877430653
 20
106.2049603513
 30
0.0
 11
380.3877430653
 21
115.8854848197
 31
0.0
  0
LINE
  5
3B6
330
1F
100
AcDbEntity
  8
0
  6
Continuous
 62
     7
370
    15
100
AcDbLine
 10
380.3877430653
 20
91.8854808858
 30
0.0
 11
380.3877430653
 21
106.2049603513
 31
0.0
  0
LINE
  5
3B7
330
1F
100
AcDbEntity
  8
0
  6
Continuous
 62
     8
370
     0
100
AcDbLine
 10
106.6481518244
 20
160.4569590143
 30
0.0
 11
106.6481518244
 21
-146.2673881599
 31
0.0
  0
LINE
  5
3B8
330
1F
100
AcDbEntity
  8
0
  6
Continuous
 62
     8
370
     0
100
AcDbLine
 10
109.6367287134
 20
162.6447027973
 30
0.0
 11
109.6367287134
 21
-147.6582103917
 31
0.0
  0
LINE
  5
3B9
330
1F
100
AcDbEntity
  8
0
  6
Continuous
 62
     8
370
     0
100
AcDbLine
 10
106.6481518244
 20
206.5879440358
 30
0.0
 11
106.6481518244
 21
180.7218378833
 31
0.0
  0
LINE
  5
3BA
330
1F
100
AcDbEntity
  8
0
  6
Continuous
 62
     8
370
     0
100
AcDbLine
 10
106.6481518244
 20
-169.2325288006
 30
0.0
 11
106.6481518244
 21
-259.9349880168
 31
0.0
  0
LINE
  5
3BB
330
1F
100
AcDbEntity
  8
0
  6
Continuous
 62
     8
370
     0
100
AcDbLine
 10
105.2258806919
 20
-32.6735220426
 30
0.0
 11
105.2258806919
 21
-145.2325248667
 31
0.0
  0
LINE
  5
3BC
330
1F
100
AcDbEntity
  8
0
  6
Continuous
 62
     8
370
     0
100
AcDbLine
 10
105.2258806919
 20
-169.2325288006
 30
0.0
 11
105.2258806919
 21
-177.6512229392
 31
0.0
  0
LINE
  5
3BD
330
1F
100
AcDbEntity
  8
0
  6
Continuous
 62
     8
370
     0
100
AcDbLine
 10
105.2258806919
 20
124.3041789583
 30
0.0
 11
105.2258806919
 21
-20.6735219383
 31
0.0
  0
LINE
  5
3BE
330
1F
100
AcDbEntity
  8
0
  6
Continuous
 62
     8
370
     0
100
AcDbLine
 10
105.2258806919
 20
190.3063988736
 30
0.0
 11
105.2258806919
 21
180.7218378833
 31
0.0
  0
LINE
  5
3BF
330
1F
100
AcDbEntity
  8
0
  6
Continuous
 62
     8
370
     0
100
AcDbLine
 10
105.2258806919
 20
156.7218339494
 30
0.0
 11
105.2258806919
 21
136.3041883758
 31
0.0
  0
LINE
  5
3C0
330
1F
100
AcDbEntity
  8
0
  6
Continuous
 62
     8
370
     0
100
AcDbLine
 10
105.2258806919
 20
-189.6512323567
 30
0.0
 11
105.2258806919
 21
-243.6534428546
 31
0.0
  0
LINE
  5
3C1
330
1F
100
AcDbEntity
  8
0
  6
Continuous
 62
     8
370
     0
100
AcDbLine
 10
100.5065786337
 20
185.7739275745
 30
0.0
 11
100.5065786337
 21
180.7218378833
 31
0.0
  0
LINE
  5
3C2
330
1F
100
AcDbEntity
  8
0
  6
Continuous
 62
     8
370
     0
100
AcDbLine
 10
100.5065786337
 20
156.7218339494
 30
0.0
 11
100.5065786337
 21
136.3041883758
 31
0.0
  0
LINE
  5
3C3
330
1F
100
AcDbEntity
  8
0
  6
Continuous
 62
     8
370
     0
100
AcDbLine
 10
100.5065786337
 20
124.3041789583
 30
0.0
 11
100.5065786337
 21
-20.6735219383
 31
0.0
  0
LINE
  5
3C4
330
1F
100
AcDbEntity
  8
0
  6
Continuous
 62
     8
370
     0
100
AcDbLine
 10
100.5065786337
 20
-32.6735220426
 30
0.0
 11
100.5065786337
 21
-145.2325248667
 31
0.0
  0
LINE
  5
3C5
330
1F
100
AcDbEntity
  8
0
  6
Continuous
 62
     8
370
     0
100
AcDbLine
 10
100.5065786337
 20
-169.2325288006
 30
0.0
 11
100.5065786337
 21
-177.6512229392
 31
0.0
  0
LINE
  5
3C6
330
1F
100
AcDbEntity
  8
0
  6
Continuous
 62
     8
370
     0
100
AcDbLine
 10
100.5065786337
 20
-189.6512323567
 30
0.0
 11
100.5065786337
 21
-239.1209715554
 31
0.0
  0
LINE
  5
3C7
330
1F
100
AcDbEntity
  8
0
  6
Continuous
 62
     8
370
     0
100
AcDbLine
 10
75.2569037174
 20
184.4506448558
 30
0.0
 11
75.2569037174
 21
180.7218378833
 31
0.0
  0
LINE
  5
3C8
330
1F
100
AcDbEntity
  8
0
  6
Continuous
 62
     8
370
     0
100
AcDbLine
 10
75.2569037174
 20
156.7218339494
 30
0.0
 11
75.2569037174
 21
136.3041883758
 31
0.0
  0
LINE
  5
3C9
330
1F
100
AcDbEntity
  8
0
  6
Continuous
 62
     8
370
     0
100
AcDbLine
 10
75.2569037174
 20
124.3041789583
 30
0.0
 11
75.2569037174
 21
-20.6735219383
 31
0.0
  0
LINE
  5
3CA
330
1F
100
AcDbEntity
  8
0
  6
Continuous
 62
     8
370
     0
100
AcDbLine
 10
75.2569037174
 20
-32.6735220426
 30
0.0
 11
75.2569037174
 21
-145.2325248667
 31
0.0
  0
LINE
  5
3CB
330
1F
100
AcDbEntity
  8
0
  6
Continuous
 62
     8
370
     0
100
AcDbLine
 10
75.2569037174
 20
-169.2325288006
 30
0.0
 11
75.2569037174
 21
-177.6512229392
 31
0.0
  0
LINE
  5
3CC
330
1F
100
AcDbEntity
  8
0
  6
Continuous
 62
     8
370
     0
100
AcDbLine
 10
75.2569037174
 20
-189.6512323567
 30
0.0
 11
75.2569037174
 21
-237.7976888367
 31
0.0
  0
LINE
  5
3CD
330
1F
100
AcDbEntity
  8
0
  6
Continuous
 62
     8
370
     0
100
AcDbLine
 10
109.6367287134
 20
-169.2325288006
 30
0.0
 11
109.6367287134
 21
-262.673523421
 31
0.0
  0
LINE
  5
3CE
330
1F
100
AcDbEntity
  8
0
  6
Continuous
 62
     8
370
     0
100
AcDbLine
 10
109.6367287134
 20
209.3264794401
 30
0.0
 11
109.6367287134
 21
180.7218378833
 31
0.0
  0
LINE
  5
3CF
330
1F
100
AcDbEntity
  8
FORMAT
  6
CENTERX2
370
     0
100
AcDbLine
 10
-193.5220289468
 20
-26.6735219905
 30
0.0
 11
390.1534603761
 21
-26.6735219905
 31
0.0
  0
ENDSEC
  0
SECTION
  2
OBJECTS
  0
DICTIONARY
  5
C
330
0
100
AcDbDictionary
281
     1
  3
ACAD_GROUP
350
D
  3
ACAD_LAYOUT
350
1A
  3
ACAD_MLINESTYLE
350
17
  3
ACAD_PLOTSETTINGS
350
19
  3
ACAD_PLOTSTYLENAME
350
E
  0
DICTIONARY
  5
D
102
{ACAD_REACTORS
330
C
102
}
330
C
100
AcDbDictionary
281
     1
  0
DICTIONARY
  5
1A
102
{ACAD_REACTORS
330
C
102
}
330
C
100
AcDbDictionary
281
     1
  3
Layout1
350
1E
  3
Layout2
350
26
  3
Model
350
22
  0
DICTIONARY
  5
17
102
{ACAD_REACTORS
330
C
102
}
330
C
100
AcDbDictionary
281
     1
  3
Standard
350
18
  0
DICTIONARY
  5
19
102
{ACAD_REACTORS
330
C
102
}
330
C
100
AcDbDictionary
281
     1
  0
ACDBDICTIONARYWDFLT
  5
E
102
{ACAD_REACTORS
330
C
102
}
330
C
100
AcDbDictionary
281
     1
  3
Normal
350
F
100
AcDbDictionaryWithDefault
340
F
  0
LAYOUT
  5
1E
102
{ACAD_REACTORS
330
1A
102
}
330
1A
100
AcDbPlotSettings
  1

  2
none_device
  4

  6

 40
0.0
 41
0.0
 42
0.0
 43
0.0
 44
0.0
 45
0.0
 46
0.0
 47
0.0
 48
0.0
 49
0.0
140
0.0
141
0.0
142
1.0
143
1.0
 70
   688
 72
     0
 73
     0
 74
     5
  7

 75
    16
147
1.0
148
0.0
149
0.0
100
AcDbLayout
  1
Layout1
 70
     1
 71
     1
 10
0.0
 20
0.0
 11
420.0
 21
297.0
 12
0.0
 22
0.0
 32
0.0
 14
1.0000000000E+20
 24
1.0000000000E+20
 34
1.0000000000E+20
 15
-1.0000000000E+20
 25
-1.0000000000E+20
 35
-1.0000000000E+20
146
0.0
 13
0.0
 23
0.0
 33
0.0
 16
1.0
 26
0.0
 36
0.0
 17
0.0
 27
1.0
 37
0.0
 76
     0
330
1B
  0
LAYOUT
  5
26
102
{ACAD_REACTORS
330
1A
102
}
330
1A
100
AcDbPlotSettings
  1

  2
none_device
  4

  6

 40
0.0
 41
0.0
 42
0.0
 43
0.0
 44
0.0
 45
0.0
 46
0.0
 47
0.0
 48
0.0
 49
0.0
140
0.0
141
0.0
142
1.0
143
1.0
 70
   688
 72
     0
 73
     0
 74
     5
  7

 75
    16
147
1.0
148
0.0
149
0.0
100
AcDbLayout
  1
Layout2
 70
     1
 71
     2
 10
0.0
 20
0.0
 11
0.0
 21
0.0
 12
0.0
 22
0.0
 32
0.0
 14
0.0
 24
0.0
 34
0.0
 15
0.0
 25
0.0
 35
0.0
146
0.0
 13
0.0
 23
0.0
 33
0.0
 16
1.0
 26
0.0
 36
0.0
 17
0.0
 27
1.0
 37
0.0
 76
     0
330
23
  0
LAYOUT
  5
22
102
{ACAD_REACTORS
330
1A
102
}
330
1A
100
AcDbPlotSettings
  1

  2
none_device
  4

  6

 40
0.0
 41
0.0
 42
0.0
 43
0.0
 44
0.0
 45
0.0
 46
0.0
 47
0.0
 48
0.0
 49
0.0
140
0.0
141
0.0
142
1.0
143
1.0
 70
  1712
 72
     0
 73
     0
 74
     0
  7

 75
     0
147
1.0
148
0.0
149
0.0
100
AcDbLayout
  1
Model
 70
     1
 71
     0
 10
0.0
 20
0.0
 11
841.0
 21
594.0
 12
0.0
 22
0.0
 32
0.0
 14
0.0
 24
0.0
 34
0.0
 15
841.0
 25
594.0
 35
0.0
146
0.0
 13
0.0
 23
0.0
 33
0.0
 16
1.0
 26
0.0
 36
0.0
 17
0.0
 27
1.0
 37
0.0
 76
     0
330
1F
331
29
  0
MLINESTYLE
  5
18
102
{ACAD_REACTORS
330
17
102
}
330
17
100
AcDbMlineStyle
  2
Standard
 70
     0
  3

 62
   256
 51
90.0
 52
90.0
 71
     2
 49
0.5
 62
   256
  6
BYLAYER
 49
-0.5
 62
   256
  6
BYLAYER
  0
ACDBPLACEHOLDER
  5
F
102
{ACAD_REACTORS
330
E
102
}
330
E
  0
ENDSEC
  0
EOF
