  0
SECTION
  2
HEADER
  9
$ACADVER
  1
AC1009
  9
$DWGCODEPAGE
  3
ansi_1252
  9
$INSBASE
 10
0.0
 20
0.0
 30
0.0
  9
$EXTMIN
 10
0.0
 20
0.0
 30
0.0
  9
$EXTMAX
 10
594.0
 20
420.0
 30
0.0
  9
$LIMMIN
 10
0.0
 20
0.0
  9
$LIMMAX
 10
594.0
 20
420.0
  9
$ORTHOMODE
 70
     0
  9
$REGENMODE
 70
     1
  9
$FILLMODE
 70
     1
  9
$QTEXTMODE
 70
     0
  9
$MIRRTEXT
 70
     1
  9
$DRAGMODE
 70
     2
  9
$LTSCALE
 40
1.0
  9
$OSMODE
 70
    37
  9
$ATTMODE
 70
     1
  9
$TEXTSIZE
 40
3.5
  9
$TRACEWID
 40
1.0
  9
$TEXTSTYLE
  7
STANDARD
  9
$CLAYER
  8
0
  9
$CELTYPE
  6
BYLAYER
  9
$CECOLOR
 62
   256
  9
$DIMSCALE
 40
1.0
  9
$DIMASZ
 40
3.302
  9
$DIMEXO
 40
1.0
  9
$DIMDLI
 40
3.75
  9
$DIMRND
 40
0.0
  9
$DIMDLE
 40
0.0
  9
$DIMEXE
 40
1.0
  9
$DIMTP
 40
0.0
  9
$DIMTM
 40
0.0
  9
$DIMTXT
 40
3.5
  9
$DIMCEN
 40
2.5
  9
$DIMTSZ
 40
0.0
  9
$DIMTOL
 70
     0
  9
$DIMLIM
 70
     0
  9
$DIMTIH
 70
     1
  9
$DIMTOH
 70
     1
  9
$DIMSE1
 70
     0
  9
$DIMSE2
 70
     0
  9
$DIMTAD
 70
     1
  9
$DIMZIN
 70
     0
  9
$DIMBLK
  1

  9
$DIMASO
 70
     1
  9
$DIMSHO
 70
     1
  9
$DIMPOST
  1

  9
$DIMAPOST
  1

  9
$DIMALT
 70
     0
  9
$DIMALTD
 70
     3
  9
$DIMALTF
 40
0.0393700787
  9
$DIMLFAC
 40
1.0
  9
$DIMTOFL
 70
     1
  9
$DIMTVP
 40
0.0
  9
$DIMTIX
 70
     0
  9
$DIMSOXD
 70
     0
  9
$DIMSAH
 70
     0
  9
$DIMBLK1
  1

  9
$DIMBLK2
  1

  9
$DIMSTYLE
  2
ISO-25
  9
$DIMCLRD
 70
     0
  9
$DIMCLRE
 70
     0
  9
$DIMCLRT
 70
     0
  9
$DIMTFAC
 40
1.0
  9
$DIMGAP
 40
1.524
  9
$LUNITS
 70
     2
  9
$LUPREC
 70
     2
  9
$SKETCHINC
 40
1.0
  9
$FILLETRAD
 40
10.0
  9
$AUNITS
 70
     0
  9
$AUPREC
 70
     2
  9
$MENU
  1
.
  9
$ELEVATION
 40
0.0
  9
$PELEVATION
 40
0.0
  9
$THICKNESS
 40
0.0
  9
$LIMCHECK
 70
     0
  9
$CHAMFERA
 40
10.0
  9
$CHAMFERB
 40
10.0
  9
$SKPOLY
 70
     0
  9
$TDCREATE
 40
2457816.357407396
  9
$TDUPDATE
 40
2457816.357408299
  9
$TDINDWG
 40
0.0000000116
  9
$TDUSRTIMER
 40
0.0000000116
  9
$USRTIMER
 70
     1
  9
$ANGBASE
 50
0.0
  9
$ANGDIR
 70
     0
  9
$PDMODE
 70
     0
  9
$PDSIZE
 40
-1.0
  9
$PLINEWID
 40
0.0
  9
$COORDS
 70
     1
  9
$SPLFRAME
 70
     0
  9
$SPLINETYPE
 70
     6
  9
$SPLINESEGS
 70
     8
  9
$ATTDIA
 70
     0
  9
$ATTREQ
 70
     1
  9
$HANDLING
 70
     1
  9
$HANDSEED
  5
686
  9
$SURFTAB1
 70
     6
  9
$SURFTAB2
 70
     6
  9
$SURFTYPE
 70
     6
  9
$SURFU
 70
     6
  9
$SURFV
 70
     6
  9
$UCSNAME
  2

  9
$UCSORG
 10
0.0
 20
0.0
 30
0.0
  9
$UCSXDIR
 10
1.0
 20
0.0
 30
0.0
  9
$UCSYDIR
 10
0.0
 20
1.0
 30
0.0
  9
$PUCSNAME
  2

  9
$PUCSORG
 10
0.0
 20
0.0
 30
0.0
  9
$PUCSXDIR
 10
1.0
 20
0.0
 30
0.0
  9
$PUCSYDIR
 10
0.0
 20
1.0
 30
0.0
  9
$USERI1
 70
     0
  9
$USERI2
 70
     0
  9
$USERI3
 70
     0
  9
$USERI4
 70
     0
  9
$USERI5
 70
     0
  9
$USERR1
 40
0.0
  9
$USERR2
 40
0.0
  9
$USERR3
 40
0.0
  9
$USERR4
 40
0.0
  9
$USERR5
 40
0.0
  9
$WORLDVIEW
 70
     1
  9
$SHADEDGE
 70
     3
  9
$SHADEDIF
 70
    70
  9
$TILEMODE
 70
     1
  9
$MAXACTVP
 70
    64
  9
$PLIMCHECK
 70
     0
  9
$PEXTMIN
 10
1.0000000000E+20
 20
1.0000000000E+20
 30
1.0000000000E+20
  9
$PEXTMAX
 10
-1.0000000000E+20
 20
-1.0000000000E+20
 30
-1.0000000000E+20
  9
$PLIMMIN
 10
0.0
 20
0.0
  9
$PLIMMAX
 10
420.0
 20
297.0
  9
$UNITMODE
 70
     0
  9
$VISRETAIN
 70
     1
  9
$PLINEGEN
 70
     0
  9
$PSLTSCALE
 70
     1
  0
ENDSEC
  0
SECTION
  2
TABLES
  0
TABLE
  2
VPORT
 70
     1
  0
VPORT
  2
*ACTIVE
 70
     0
 10
0.0
 20
0.0
 11
1.0
 21
1.0
 12
297.0
 22
210.0
 13
0.0
 23
0.0
 14
10.0
 24
10.0
 15
10.0
 25
10.0
 16
0.0
 26
0.0
 36
1.0
 17
0.0
 27
0.0
 37
0.0
 40
420.0
 41
1.4142857143
 42
50.0
 43
0.0
 44
0.0
 50
0.0
 51
0.0
 71
     0
 72
  2000
 73
     1
 74
     3
 75
     0
 76
     0
 77
     0
 78
     0
  0
ENDTAB
  0
TABLE
  2
LTYPE
 70
     6
  0
LTYPE
  2
CONTINUOUS
 70
     0
  3
Solid line
 72
    65
 73
     0
 40
0.0
  0
LTYPE
  2
HIDDEN
 70
     0
  3
Hidden __ __ __ __ __ __ __ __ __ __ __ __ __ __
 72
    65
 73
     2
 40
1.905
 49
1.27
 49
-0.635
  0
LTYPE
  2
PHANTOM
 70
     0
  3
Phantom ______  __  __  ______  __  __  ______
 72
    65
 73
     6
 40
12.7
 49
6.35
 49
-1.27
 49
1.27
 49
-1.27
 49
1.27
 49
-1.27
  0
LTYPE
  2
CENTER
 70
     0
  3
Center ____ _ ____ _ ____ _ ____ _ ____ _ ____
 72
    65
 73
     4
 40
10.16
 49
6.35
 49
-1.27
 49
1.27
 49
-1.27
  0
LTYPE
  2
CENTERX2
 70
     0
  3
Center (2x) ________  __  ________  __  _____
 72
    65
 73
     4
 40
20.32
 49
12.7
 49
-2.54
 49
2.54
 49
-2.54
  0
LTYPE
  2
DOT2
 70
     0
  3
Dot (.5x) ........................................
 72
    65
 73
     2
 40
0.635
 49
0.0
 49
-0.635
  0
ENDTAB
  0
TABLE
  2
LAYER
 70
     3
  0
LAYER
  2
0
 70
     0
 62
     7
  6
CONTINUOUS
  0
LAYER
  2
FORMAT
 70
     0
 62
     7
  6
CONTINUOUS
  0
LAYER
  2
PROTOTYPE
 70
     0
 62
    -7
  6
CONTINUOUS
  0
ENDTAB
  0
TABLE
  2
STYLE
 70
     1
  0
STYLE
  2
STANDARD
 70
     0
 40
0.0
 41
1.0
 50
0.0
 71
     0
 42
3.5
  3
txt
  4

  0
ENDTAB
  0
TABLE
  2
VIEW
 70
     0
  0
ENDTAB
  0
TABLE
  2
UCS
 70
     0
  0
ENDTAB
  0
TABLE
  2
APPID
 70
     1
  0
APPID
  2
ACAD
 70
     0
  0
ENDTAB
  0
TABLE
  2
DIMSTYLE
 70
     1
  0
DIMSTYLE
  2
ISO-25
 70
     0
  3

  4

  5

  6

  7

 40
1.0
 41
2.5
 42
0.625
 43
3.75
 44
1.25
 45
0.0
 46
0.0
 47
0.0
 48
0.0
140
2.5
141
2.5
142
0.0
143
0.0393700787
144
1.0
145
0.0
146
1.0
147
0.625
 71
     0
 72
     0
 73
     0
 74
     0
 75
     0
 76
     0
 77
     1
 78
     8
170
     0
171
     3
172
     1
173
     0
174
     0
175
     0
176
     0
177
     0
178
     0
  0
ENDTAB
  0
ENDSEC
  0
SECTION
  2
BLOCKS
  0
BLOCK
  8
0
  2
$MODEL_SPACE
 70
     0
 10
0.0
 20
0.0
 30
0.0
  3
$MODEL_SPACE
  1

  0
ENDBLK
  5
21
  8
0
  0
BLOCK
 67
     1
  8
0
  2
$PAPER_SPACE
 70
     0
 10
0.0
 20
0.0
 30
0.0
  3
$PAPER_SPACE
  1

  0
ENDBLK
  5
1D
 67
     1
  8
0
  0
BLOCK
  8
0
  2
SW_CENTERMARKSYMBOL_0
 70
     0
 10
0.0
 20
0.0
 30
0.0
  3
SW_CENTERMARKSYMBOL_0
  1

  0
LINE
  5
2F2
  8
FORMAT
 62
     0
 10
0.0
 20
0.0
 30
0.0
 11
0.0
 21
2.5
 31
0.0
  0
LINE
  5
2F3
  8
FORMAT
 62
     0
 10
0.0
 20
0.0
 30
0.0
 11
-2.5
 21
0.0
 31
0.0
  0
LINE
  5
2F4
  8
FORMAT
 62
     0
 10
0.0
 20
0.0
 30
0.0
 11
0.0
 21
-2.5
 31
0.0
  0
LINE
  5
2F5
  8
FORMAT
 62
     0
 10
0.0
 20
0.0
 30
0.0
 11
2.5
 21
0.0
 31
0.0
  0
LINE
  5
2F6
  8
FORMAT
 62
     0
 10
0.0
 20
5.0
 30
0.0
 11
0.0
 21
317.296235965
 31
0.0
  0
LINE
  5
2F7
  8
FORMAT
 62
     0
 10
-5.0
 20
0.0
 30
0.0
 11
-98.3320342852
 21
0.0
 31
0.0
  0
LINE
  5
2F8
  8
FORMAT
 62
     0
 10
0.0
 20
-5.0
 30
0.0
 11
0.0
 21
-96.7722434475
 31
0.0
  0
LINE
  5
2F9
  8
FORMAT
 62
     0
 10
5.0
 20
0.0
 30
0.0
 11
96.6659355159
 21
0.0
 31
0.0
  0
ENDBLK
  5
2F1
  8
0
  0
ENDSEC
  0
SECTION
  2
ENTITIES
  0
LINE
  5
46
  8
0
  6
CONTINUOUS
 62
     7
 10
-23.5571832111
 20
519.8190354957
 30
0.0
 11
-46.0571841052
 21
519.8190354957
 31
0.0
  0
LINE
  5
47
  8
0
  6
CONTINUOUS
 62
     7
 10
-46.0571841052
 20
341.8190323962
 30
0.0
 11
-33.5571885756
 21
341.8190323962
 31
0.0
  0
LINE
  5
48
  8
0
  6
CONTINUOUS
 62
     7
 10
131.442817981
 20
341.8190323962
 30
0.0
 11
143.9428135106
 21
341.8190323962
 31
0.0
  0
LINE
  5
49
  8
0
  6
CONTINUOUS
 62
     7
 10
143.9428135106
 20
519.8190354957
 30
0.0
 11
121.4428126165
 21
519.8190354957
 31
0.0
  0
LINE
  5
4A
  8
0
  6
CONTINUOUS
 62
     7
 10
22.9428141663
 20
581.2665366782
 30
0.0
 11
22.9428141663
 21
589.519038166
 31
0.0
  0
LINE
  5
4B
  8
0
  6
CONTINUOUS
 62
     7
 10
74.9428152391
 20
589.519038166
 30
0.0
 11
74.9428152391
 21
581.2677287711
 31
0.0
  0
POLYLINE
  5
4C
  8
0
  6
CONTINUOUS
 62
     7
 66
     1
 10
0.0
 20
0.0
 30
0.0
  0
VERTEX
  5
3A5
  8
0
  6
CONTINUOUS
 62
     7
 10
93.4696338424
 20
589.519038166
 30
0.0
  0
VERTEX
  5
3A6
  8
0
  6
CONTINUOUS
 62
     7
 10
93.0308356235
 20
591.7659842624
 30
0.0
  0
VERTEX
  5
3A7
  8
0
  6
CONTINUOUS
 62
     7
 10
91.4704977819
 20
596.6944539203
 30
0.0
  0
VERTEX
  5
3A8
  8
0
  6
CONTINUOUS
 62
     7
 10
89.3570847163
 20
601.4220708264
 30
0.0
  0
VERTEX
  5
3A9
  8
0
  6
CONTINUOUS
 62
     7
 10
86.971561546
 20
606.0292416467
 30
0.0
  0
VERTEX
  5
3AA
  8
0
  6
CONTINUOUS
 62
     7
 10
85.2251529047
 20
610.8843081845
 30
0.0
  0
VERTEX
  5
3AB
  8
0
  6
CONTINUOUS
 62
     7
 10
84.2117510089
 20
615.9409129275
 30
0.0
  0
VERTEX
  5
3AC
  8
0
  6
CONTINUOUS
 62
     7
 10
83.9428148517
 20
621.1163991345
 30
0.0
  0
VERTEX
  5
3AD
  8
0
  6
CONTINUOUS
 62
     7
 10
83.9428148517
 20
626.3177090539
 30
0.0
  0
VERTEX
  5
3AE
  8
0
  6
CONTINUOUS
 62
     7
 10
83.9428148517
 20
631.5190338744
 30
0.0
  0
SEQEND
  5
685
  8
0
  6
CONTINUOUS
 62
     7
  0
POLYLINE
  5
4D
  8
0
  6
CONTINUOUS
 62
     7
 66
     1
 10
0.0
 20
0.0
 30
0.0
  0
VERTEX
  5
3AF
  8
0
  6
CONTINUOUS
 62
     7
 10
13.9428145537
 20
631.5190338744
 30
0.0
  0
VERTEX
  5
3B0
  8
0
  6
CONTINUOUS
 62
     7
 10
13.9428145537
 20
626.3177090539
 30
0.0
  0
VERTEX
  5
3B1
  8
0
  6
CONTINUOUS
 62
     7
 10
13.9428145537
 20
621.1163991345
 30
0.0
  0
VERTEX
  5
3B2
  8
0
  6
CONTINUOUS
 62
     7
 10
13.6738783965
 20
615.9409129275
 30
0.0
  0
VERTEX
  5
3B3
  8
0
  6
CONTINUOUS
 62
     7
 10
12.6604765007
 20
610.8843081845
 30
0.0
  0
VERTEX
  5
3B4
  8
0
  6
CONTINUOUS
 62
     7
 10
10.9140678594
 20
606.0292416467
 30
0.0
  0
VERTEX
  5
3B5
  8
0
  6
CONTINUOUS
 62
     7
 10
8.5285446891
 20
601.4220708264
 30
0.0
  0
VERTEX
  5
3B6
  8
0
  6
CONTINUOUS
 62
     7
 10
6.4151316235
 20
596.6944539203
 30
0.0
  0
VERTEX
  5
3B7
  8
0
  6
CONTINUOUS
 62
     7
 10
4.8547937819
 20
591.7659842624
 30
0.0
  0
VERTEX
  5
3B8
  8
0
  6
CONTINUOUS
 62
     7
 10
4.415995563
 20
589.519038166
 30
0.0
  0
SEQEND
  5
684
  8
0
  6
CONTINUOUS
 62
     7
  0
LINE
  5
4E
  8
0
  6
CONTINUOUS
 62
     7
 10
106.433733488
 20
559.5152371778
 30
0.0
 11
106.4340650389
 21
559.5190369739
 31
0.0
  0
LINE
  5
4F
  8
0
  6
CONTINUOUS
 62
     7
 10
105.5679275939
 20
549.6190333022
 30
0.0
 11
106.433733488
 21
559.5152371778
 31
0.0
  0
LINE
  5
50
  8
0
  6
CONTINUOUS
 62
     7
 10
-8.5481040826
 20
559.5152371778
 30
0.0
 11
-7.6822981885
 21
549.6190333022
 31
0.0
  0
LINE
  5
51
  8
0
  6
CONTINUOUS
 62
     7
 10
-8.5484356335
 20
559.5190369739
 30
0.0
 11
-8.5481040826
 21
559.5152371778
 31
0.0
  0
LINE
  5
52
  8
0
  6
CONTINUOUS
 62
     7
 10
95.8398795971
 20
547.0124104275
 30
0.0
 11
105.5679275939
 21
549.6190333022
 31
0.0
  0
LINE
  5
53
  8
0
  6
CONTINUOUS
 62
     7
 10
-7.6822981885
 20
549.6190333022
 30
0.0
 11
2.0457498083
 21
547.0124104275
 31
0.0
  0
LINE
  5
54
  8
0
  6
CONTINUOUS
 62
     7
 10
-8.2429543784
 20
571.5190314902
 30
0.0
 11
-8.5545674613
 21
559.6190386666
 31
0.0
  0
LINE
  5
55
  8
0
  6
CONTINUOUS
 62
     7
 10
106.4401968667
 20
559.6190386666
 30
0.0
 11
106.1285837838
 21
571.5190314902
 31
0.0
  0
LINE
  5
56
  8
0
  6
CONTINUOUS
 62
     7
 10
62.9428151348
 20
649.9190324201
 30
0.0
 11
61.442814889
 21
651.4190280093
 31
0.0
  0
LINE
  5
57
  8
0
  6
CONTINUOUS
 62
     7
 10
36.4428145164
 20
651.4190280093
 30
0.0
 11
34.9428142706
 21
649.9190324201
 31
0.0
  0
LINE
  5
58
  8
0
  6
CONTINUOUS
 62
     7
 10
95.4428158054
 20
519.8190354957
 30
0.0
 11
95.4428158054
 21
542.4739563121
 31
0.0
  0
LINE
  5
59
  8
0
  6
CONTINUOUS
 62
     7
 10
2.4428136
 20
542.4739563121
 30
0.0
 11
2.4428136
 21
519.8190354957
 31
0.0
  0
LINE
  5
5A
  8
0
  6
CONTINUOUS
 62
     7
 10
94.9428147921
 20
689.2190271272
 30
0.0
 11
74.2643411556
 21
696.7453950299
 31
0.0
  0
LINE
  5
5B
  8
0
  6
CONTINUOUS
 62
     7
 10
23.6212882498
 20
696.7453950299
 30
0.0
 11
2.9428146133
 21
689.2190271272
 31
0.0
  0
LINE
  5
5C
  8
0
  6
CONTINUOUS
 62
     7
 10
2.9428146133
 20
689.2190271272
 30
0.0
 11
2.9428146133
 21
685.8190291776
 31
0.0
  0
LINE
  5
5D
  8
0
  6
CONTINUOUS
 62
     7
 10
94.9428147921
 20
685.8190291776
 30
0.0
 11
94.9428147921
 21
689.2190271272
 31
0.0
  0
LINE
  5
5E
  8
0
  6
CONTINUOUS
 62
     7
 10
62.9428151348
 20
670.4190367116
 30
0.0
 11
62.9428151348
 21
682.9781525983
 31
0.0
  0
LINE
  5
5F
  8
0
  6
CONTINUOUS
 62
     7
 10
34.9428142706
 20
682.9781525983
 30
0.0
 11
34.9428142706
 21
670.4190367116
 31
0.0
  0
LINE
  5
60
  8
0
  6
CONTINUOUS
 62
     7
 10
106.4428157458
 20
559.5190369739
 30
0.0
 11
106.4427784929
 21
559.5204078807
 31
0.0
  0
LINE
  5
61
  8
0
  6
CONTINUOUS
 62
     7
 10
-8.5571490875
 20
559.5204078807
 30
0.0
 11
-8.5571863404
 21
559.5190369739
 31
0.0
  0
LINE
  5
62
  8
0
  6
CONTINUOUS
 62
     7
 10
-33.5571885756
 20
355.149313177
 30
0.0
 11
-23.5571832111
 21
355.149313177
 31
0.0
  0
LINE
  5
63
  8
0
  6
CONTINUOUS
 62
     7
 10
-46.0571841052
 20
430.8190339459
 30
0.0
 11
-46.0571841052
 21
519.8190354957
 31
0.0
  0
LINE
  5
64
  8
0
  6
CONTINUOUS
 62
     7
 10
-46.0571841052
 20
341.8190323962
 30
0.0
 11
-46.0571841052
 21
430.8190339459
 31
0.0
  0
LINE
  5
65
  8
0
  6
CONTINUOUS
 62
     7
 10
-23.5571832111
 20
519.7051980747
 30
0.0
 11
-23.5571832111
 21
355.149313177
 31
0.0
  0
LINE
  5
66
  8
0
  6
CONTINUOUS
 62
     7
 10
131.442817981
 20
355.149313177
 30
0.0
 11
121.4428126165
 21
355.149313177
 31
0.0
  0
LINE
  5
67
  8
0
  6
CONTINUOUS
 62
     7
 10
143.9428135106
 20
430.8190339459
 30
0.0
 11
143.9428135106
 21
519.8190354957
 31
0.0
  0
LINE
  5
68
  8
0
  6
CONTINUOUS
 62
     7
 10
143.9428135106
 20
341.8190323962
 30
0.0
 11
143.9428135106
 21
430.8190339459
 31
0.0
  0
LINE
  5
69
  8
0
  6
CONTINUOUS
 62
     7
 10
121.4428126165
 20
519.7051980747
 30
0.0
 11
121.4428126165
 21
355.149313177
 31
0.0
  0
LINE
  5
6A
  8
0
  6
CONTINUOUS
 62
     7
 10
52.9632802406
 20
559.5190369739
 30
0.0
 11
44.9223491648
 21
559.5190369739
 31
0.0
  0
LINE
  5
6B
  8
0
  6
CONTINUOUS
 62
     7
 10
52.9632802406
 20
559.5190369739
 30
0.0
 11
44.9223491648
 21
559.5190369739
 31
0.0
  0
LINE
  5
6C
  8
0
  6
CONTINUOUS
 62
     7
 10
91.0497336933
 20
559.6190386666
 30
0.0
 11
6.8358957121
 21
559.6190386666
 31
0.0
  0
LINE
  5
6D
  8
0
  6
CONTINUOUS
 62
     7
 10
90.8264695951
 20
549.6190333022
 30
0.0
 11
7.0591598103
 21
549.6190333022
 31
0.0
  0
LINE
  5
6E
  8
0
  6
CONTINUOUS
 62
     7
 10
7.4510678002
 20
571.5190314902
 30
0.0
 11
12.2791967639
 21
571.5190314902
 31
0.0
  0
LINE
  5
6F
  8
0
  6
CONTINUOUS
 62
     7
 10
85.6064326415
 20
571.5190314902
 30
0.0
 11
12.2791967639
 21
571.5190314902
 31
0.0
  0
LINE
  5
70
  8
0
  6
CONTINUOUS
 62
     7
 10
90.4345616052
 20
571.5190314902
 30
0.0
 11
85.6064326415
 21
571.5190314902
 31
0.0
  0
POLYLINE
  5
71
  8
0
  6
CONTINUOUS
 62
     7
 66
     1
 10
0.0
 20
0.0
 30
0.0
  0
VERTEX
  5
3B9
  8
0
  6
CONTINUOUS
 62
     7
 10
80.616871948
 20
546.6868051542
 30
0.0
  0
VERTEX
  5
3BA
  8
0
  6
CONTINUOUS
 62
     7
 10
80.0911142776
 20
546.7109524859
 30
0.0
  0
VERTEX
  5
3BB
  8
0
  6
CONTINUOUS
 62
     7
 10
78.1706544855
 20
546.7598357452
 30
0.0
  0
SEQEND
  5
683
  8
0
  6
CONTINUOUS
 62
     7
  0
POLYLINE
  5
72
  8
0
  6
CONTINUOUS
 62
     7
 66
     1
 10
0.0
 20
0.0
 30
0.0
  0
VERTEX
  5
3BC
  8
0
  6
CONTINUOUS
 62
     7
 10
78.1706544855
 20
546.7598357452
 30
0.0
  0
VERTEX
  5
3BD
  8
0
  6
CONTINUOUS
 62
     7
 10
70.9953225503
 20
546.8233295931
 30
0.0
  0
VERTEX
  5
3BE
  8
0
  6
CONTINUOUS
 62
     7
 10
63.7488804111
 20
546.8689196958
 30
0.0
  0
VERTEX
  5
3BF
  8
0
  6
CONTINUOUS
 62
     7
 10
56.3580218056
 20
546.8967327131
 30
0.0
  0
VERTEX
  5
3C0
  8
0
  6
CONTINUOUS
 62
     7
 10
48.9426147027
 20
546.9060161366
 30
0.0
  0
VERTEX
  5
3C1
  8
0
  6
CONTINUOUS
 62
     7
 10
41.6239030944
 20
546.8969711317
 30
0.0
  0
VERTEX
  5
3C2
  8
0
  6
CONTINUOUS
 62
     7
 10
34.3287932971
 20
546.8698808207
 30
0.0
  0
VERTEX
  5
3C3
  8
0
  6
CONTINUOUS
 62
     7
 10
26.985542039
 20
546.8240448488
 30
0.0
  0
VERTEX
  5
3C4
  8
0
  6
CONTINUOUS
 62
     7
 10
19.7149749199
 20
546.7598357452
 30
0.0
  0
SEQEND
  5
682
  8
0
  6
CONTINUOUS
 62
     7
  0
POLYLINE
  5
73
  8
0
  6
CONTINUOUS
 62
     7
 66
     1
 10
0.0
 20
0.0
 30
0.0
  0
VERTEX
  5
3C5
  8
0
  6
CONTINUOUS
 62
     7
 10
17.2687574574
 20
546.6868051542
 30
0.0
  0
VERTEX
  5
3C6
  8
0
  6
CONTINUOUS
 62
     7
 10
17.7945151279
 20
546.7109524859
 30
0.0
  0
VERTEX
  5
3C7
  8
0
  6
CONTINUOUS
 62
     7
 10
19.7149749199
 20
546.7598357452
 30
0.0
  0
SEQEND
  5
681
  8
0
  6
CONTINUOUS
 62
     7
  0
POLYLINE
  5
74
  8
0
  6
CONTINUOUS
 62
     7
 66
     1
 10
0.0
 20
0.0
 30
0.0
  0
VERTEX
  5
3C8
  8
0
  6
CONTINUOUS
 62
     7
 10
17.2687574574
 20
546.6868051542
 30
0.0
  0
VERTEX
  5
3C9
  8
0
  6
CONTINUOUS
 62
     7
 10
16.0211763629
 20
547.3369726194
 30
0.0
  0
VERTEX
  5
3CA
  8
0
  6
CONTINUOUS
 62
     7
 10
13.9631360123
 20
547.9283699049
 30
0.0
  0
VERTEX
  5
3CB
  8
0
  6
CONTINUOUS
 62
     7
 10
11.4492803165
 20
548.3379506721
 30
0.0
  0
VERTEX
  5
3CC
  8
0
  6
CONTINUOUS
 62
     7
 10
8.8154106686
 20
548.5303023113
 30
0.0
  0
VERTEX
  5
3CD
  8
0
  6
CONTINUOUS
 62
     7
 10
8.082750375
 20
548.5442796005
 30
0.0
  0
SEQEND
  5
680
  8
0
  6
CONTINUOUS
 62
     7
  0
POLYLINE
  5
75
  8
0
  6
CONTINUOUS
 62
     7
 66
     1
 10
0.0
 20
0.0
 30
0.0
  0
VERTEX
  5
3CE
  8
0
  6
CONTINUOUS
 62
     7
 10
80.616871948
 20
546.6868051542
 30
0.0
  0
VERTEX
  5
3CF
  8
0
  6
CONTINUOUS
 62
     7
 10
81.8644530425
 20
547.3369726194
 30
0.0
  0
VERTEX
  5
3D0
  8
0
  6
CONTINUOUS
 62
     7
 10
83.9224933931
 20
547.9283699049
 30
0.0
  0
VERTEX
  5
3D1
  8
0
  6
CONTINUOUS
 62
     7
 10
86.4363490889
 20
548.3379506721
 30
0.0
  0
VERTEX
  5
3D2
  8
0
  6
CONTINUOUS
 62
     7
 10
89.0702187368
 20
548.5303023113
 30
0.0
  0
VERTEX
  5
3D3
  8
0
  6
CONTINUOUS
 62
     7
 10
89.8028790304
 20
548.5442796005
 30
0.0
  0
SEQEND
  5
67F
  8
0
  6
CONTINUOUS
 62
     7
  0
ARC
  5
76
  8
0
  6
CONTINUOUS
 62
     7
 10
428.3702811627
 20
570.0956367186
 30
0.0
 40
365.0507196676674
 50
177.2901356689
 51
179.776593456
  0
ARC
  5
77
  8
0
  6
CONTINUOUS
 62
     7
 10
-317.154124707
 20
570.2574685358
 30
0.0
 40
351.7172745078882
 50
0.2055127601
 51
2.7508740446
  0
LINE
  5
78
  8
0
  6
CONTINUOUS
 62
     7
 10
34.1578499699
 20
590.428307022
 30
0.0
 11
34.1578499699
 21
587.1375643863
 31
0.0
  0
POLYLINE
  5
79
  8
0
  6
CONTINUOUS
 62
     7
 66
     1
 10
0.0
 20
0.0
 30
0.0
  0
VERTEX
  5
3D4
  8
0
  6
CONTINUOUS
 62
     7
 10
63.7277794355
 20
590.1768052234
 30
0.0
  0
VERTEX
  5
3D5
  8
0
  6
CONTINUOUS
 62
     7
 10
63.3702018583
 20
595.3673863067
 30
0.0
  0
VERTEX
  5
3D6
  8
0
  6
CONTINUOUS
 62
     7
 10
62.4288601154
 20
600.6945514335
 30
0.0
  0
VERTEX
  5
3D7
  8
0
  6
CONTINUOUS
 62
     7
 10
61.6706899652
 20
603.5358005418
 30
0.0
  0
VERTEX
  5
3D8
  8
0
  6
CONTINUOUS
 62
     7
 10
60.624376061
 20
606.3123935117
 30
0.0
  0
VERTEX
  5
3D9
  8
0
  6
CONTINUOUS
 62
     7
 10
59.5914936909
 20
608.2504087342
 30
0.0
  0
VERTEX
  5
3DA
  8
0
  6
CONTINUOUS
 62
     7
 10
58.2514890754
 20
610.0387864961
 30
0.0
  0
VERTEX
  5
3DB
  8
0
  6
CONTINUOUS
 62
     7
 10
56.645752518
 20
611.5049713506
 30
0.0
  0
VERTEX
  5
3DC
  8
0
  6
CONTINUOUS
 62
     7
 10
54.6999230334
 20
612.6585000409
 30
0.0
  0
VERTEX
  5
3DD
  8
0
  6
CONTINUOUS
 62
     7
 10
51.0792665934
 20
613.6973642959
 30
0.0
  0
VERTEX
  5
3DE
  8
0
  6
CONTINUOUS
 62
     7
 10
49.0366780266
 20
613.8418757571
 30
0.0
  0
VERTEX
  5
3DF
  8
0
  6
CONTINUOUS
 62
     7
 10
46.9433515152
 20
613.7161099567
 30
0.0
  0
VERTEX
  5
3E0
  8
0
  6
CONTINUOUS
 62
     7
 10
44.7629183816
 20
613.2574373139
 30
0.0
  0
VERTEX
  5
3E1
  8
0
  6
CONTINUOUS
 62
     7
 10
42.6447164552
 20
612.4002331151
 30
0.0
  0
VERTEX
  5
3E2
  8
0
  6
CONTINUOUS
 62
     7
 10
40.9580405155
 20
611.3054746045
 30
0.0
  0
VERTEX
  5
3E3
  8
0
  6
CONTINUOUS
 62
     7
 10
39.45339297
 20
609.8612540616
 30
0.0
  0
VERTEX
  5
3E4
  8
0
  6
CONTINUOUS
 62
     7
 10
38.1310220161
 20
608.0217206134
 30
0.0
  0
VERTEX
  5
3E5
  8
0
  6
CONTINUOUS
 62
     7
 10
37.0714367652
 20
605.9289121284
 30
0.0
  0
VERTEX
  5
3E6
  8
0
  6
CONTINUOUS
 62
     7
 10
36.1136739427
 20
603.2655232801
 30
0.0
  0
VERTEX
  5
3E7
  8
0
  6
CONTINUOUS
 62
     7
 10
35.4036373371
 20
600.5186581267
 30
0.0
  0
VERTEX
  5
3E8
  8
0
  6
CONTINUOUS
 62
     7
 10
34.439720335
 20
594.781517352
 30
0.0
  0
VERTEX
  5
3E9
  8
0
  6
CONTINUOUS
 62
     7
 10
34.1578499699
 20
590.428307022
 30
0.0
  0
SEQEND
  5
67E
  8
0
  6
CONTINUOUS
 62
     7
  0
LINE
  5
7A
  8
0
  6
CONTINUOUS
 62
     7
 10
63.7277794355
 20
590.1768052234
 30
0.0
 11
63.7277794355
 21
587.3546594037
 31
0.0
  0
LINE
  5
7B
  8
0
  6
CONTINUOUS
 62
     7
 10
12.2791967639
 20
589.519038166
 30
0.0
 11
12.2791967639
 21
571.5190314902
 31
0.0
  0
LINE
  5
7C
  8
0
  6
CONTINUOUS
 62
     7
 10
12.2791967639
 20
589.519038166
 30
0.0
 11
22.9428141663
 21
589.519038166
 31
0.0
  0
ARC
  5
7D
  8
0
  6
CONTINUOUS
 62
     7
 10
-133.8997819924
 20
580.7949302386
 30
0.0
 40
156.8408632716835
 50
356.6094284662
 51
0.172283541
  0
LINE
  5
7E
  8
0
  6
CONTINUOUS
 62
     7
 10
85.6064326415
 20
589.519038166
 30
0.0
 11
85.6064326415
 21
571.5190314902
 31
0.0
  0
LINE
  5
7F
  8
0
  6
CONTINUOUS
 62
     7
 10
85.6064326415
 20
589.519038166
 30
0.0
 11
90.4345616052
 21
589.519038166
 31
0.0
  0
LINE
  5
80
  8
0
  6
CONTINUOUS
 62
     7
 10
7.4510678002
 20
589.519038166
 30
0.0
 11
12.2791967639
 21
589.519038166
 31
0.0
  0
LINE
  5
81
  8
0
  6
CONTINUOUS
 62
     7
 10
74.9428152391
 20
589.519038166
 30
0.0
 11
85.6064326415
 21
589.519038166
 31
0.0
  0
POLYLINE
  5
82
  8
0
  6
CONTINUOUS
 62
     7
 66
     1
 10
0.0
 20
0.0
 30
0.0
  0
VERTEX
  5
3EA
  8
0
  6
CONTINUOUS
 62
     7
 10
75.2204220095
 20
571.5190314902
 30
0.0
  0
VERTEX
  5
3EB
  8
0
  6
CONTINUOUS
 62
     7
 10
74.9835065851
 20
578.1890594615
 30
0.0
  0
VERTEX
  5
3EC
  8
0
  6
CONTINUOUS
 62
     7
 10
74.9433311919
 20
581.2677287711
 30
0.0
  0
SEQEND
  5
67D
  8
0
  6
CONTINUOUS
 62
     7
  0
LINE
  5
83
  8
0
  6
CONTINUOUS
 62
     7
 10
-1.7304428568
 20
549.6190333022
 30
0.0
 11
7.0591598103
 21
549.6190333022
 31
0.0
  0
LINE
  5
84
  8
0
  6
CONTINUOUS
 62
     7
 10
-2.5879227272
 20
559.6190386666
 30
0.0
 11
6.8358957121
 21
559.6190386666
 31
0.0
  0
LINE
  5
85
  8
0
  6
CONTINUOUS
 62
     7
 10
99.6160722622
 20
549.6190333022
 30
0.0
 11
90.8264695951
 21
549.6190333022
 31
0.0
  0
LINE
  5
86
  8
0
  6
CONTINUOUS
 62
     7
 10
100.4735521326
 20
559.6190386666
 30
0.0
 11
91.0497336933
 21
559.6190386666
 31
0.0
  0
POLYLINE
  5
87
  8
0
  6
CONTINUOUS
 62
     7
 66
     1
 10
0.0
 20
0.0
 30
0.0
  0
VERTEX
  5
3ED
  8
0
  6
CONTINUOUS
 62
     7
 10
89.8028790304
 20
548.5442796005
 30
0.0
  0
VERTEX
  5
3EE
  8
0
  6
CONTINUOUS
 62
     7
 10
90.4009408602
 20
548.5483550681
 30
0.0
  0
VERTEX
  5
3EF
  8
0
  6
CONTINUOUS
 62
     7
 10
92.7932962129
 20
548.5639267816
 30
0.0
  0
VERTEX
  5
3F0
  8
0
  6
CONTINUOUS
 62
     7
 10
94.6393377432
 20
548.5747673763
 30
0.0
  0
VERTEX
  5
3F1
  8
0
  6
CONTINUOUS
 62
     7
 10
95.7309372077
 20
548.5797369136
 30
0.0
  0
VERTEX
  5
3F2
  8
0
  6
CONTINUOUS
 62
     7
 10
95.8152181754
 20
548.5799231781
 30
0.0
  0
SEQEND
  5
67C
  8
0
  6
CONTINUOUS
 62
     7
  0
POLYLINE
  5
88
  8
0
  6
CONTINUOUS
 62
     7
 66
     1
 10
0.0
 20
0.0
 30
0.0
  0
VERTEX
  5
3F3
  8
0
  6
CONTINUOUS
 62
     7
 10
8.082750375
 20
548.5442796005
 30
0.0
  0
VERTEX
  5
3F4
  8
0
  6
CONTINUOUS
 62
     7
 10
7.4846885452
 20
548.5483550681
 30
0.0
  0
VERTEX
  5
3F5
  8
0
  6
CONTINUOUS
 62
     7
 10
5.0923331925
 20
548.5639267816
 30
0.0
  0
VERTEX
  5
3F6
  8
0
  6
CONTINUOUS
 62
     7
 10
3.2462916622
 20
548.5747673763
 30
0.0
  0
VERTEX
  5
3F7
  8
0
  6
CONTINUOUS
 62
     7
 10
2.1546921978
 20
548.5797369136
 30
0.0
  0
VERTEX
  5
3F8
  8
0
  6
CONTINUOUS
 62
     7
 10
2.07041123
 20
548.5799231781
 30
0.0
  0
SEQEND
  5
67B
  8
0
  6
CONTINUOUS
 62
     7
  0
LINE
  5
89
  8
0
  6
CONTINUOUS
 62
     7
 10
7.4510678002
 20
571.5190314902
 30
0.0
 11
-1.1038490286
 21
571.5190314902
 31
0.0
  0
LINE
  5
8A
  8
0
  6
CONTINUOUS
 62
     7
 10
98.989478434
 20
571.5190314902
 30
0.0
 11
90.4345616052
 21
571.5190314902
 31
0.0
  0
LINE
  5
8B
  8
0
  6
CONTINUOUS
 62
     7
 10
-1.1038490286
 20
589.519038166
 30
0.0
 11
7.4510678002
 21
589.519038166
 31
0.0
  0
LINE
  5
8C
  8
0
  6
CONTINUOUS
 62
     7
 10
90.4345616052
 20
589.519038166
 30
0.0
 11
98.989478434
 21
589.519038166
 31
0.0
  0
ARC
  5
8D
  8
0
  6
CONTINUOUS
 62
     7
 10
48.9428147027
 20
511.7086281806
 30
0.0
 40
0.1828189316538348
 50
203.0430687422
 51
336.9569312578
  0
LINE
  5
8E
  8
0
  6
CONTINUOUS
 62
     7
 10
48.7765164341
 20
511.6370686544
 30
0.0
 11
48.774582732
 21
511.6370686544
 31
0.0
  0
ARC
  5
8F
  8
0
  6
CONTINUOUS
 62
     7
 10
48.9428147027
 20
511.7063542382
 30
0.0
 40
0.1801543955904591
 50
202.6182909523
 51
337.3817090477
  0
LINE
  5
90
  8
0
  6
CONTINUOUS
 62
     7
 10
49.1091129713
 20
511.6370686544
 30
0.0
 11
49.1110466734
 21
511.6370686544
 31
0.0
  0
LINE
  5
91
  8
0
  6
CONTINUOUS
 62
     7
 10
53.8662240194
 20
522.9879164352
 30
0.0
 11
49.1110466734
 21
511.6370686544
 31
0.0
  0
LINE
  5
92
  8
0
  6
CONTINUOUS
 62
     7
 10
53.8096331345
 20
522.9879164352
 30
0.0
 11
49.1091129713
 21
511.6370686544
 31
0.0
  0
LINE
  5
93
  8
0
  6
CONTINUOUS
 62
     7
 10
53.8096331345
 20
522.9879164352
 30
0.0
 11
53.8662240194
 21
522.9879164352
 31
0.0
  0
LINE
  5
94
  8
0
  6
CONTINUOUS
 62
     7
 10
48.774582732
 20
511.6370686544
 30
0.0
 11
44.019405386
 21
522.9879164352
 31
0.0
  0
LINE
  5
95
  8
0
  6
CONTINUOUS
 62
     7
 10
44.0759962709
 20
522.9879164352
 30
0.0
 11
44.019405386
 21
522.9879164352
 31
0.0
  0
LINE
  5
96
  8
0
  6
CONTINUOUS
 62
     7
 10
48.7765164341
 20
511.6370686544
 30
0.0
 11
44.0759962709
 21
522.9879164352
 31
0.0
  0
LINE
  5
97
  8
0
  6
CONTINUOUS
 62
     7
 10
43.8512970047
 20
523.0990343942
 30
0.0
 11
31.4599789032
 21
523.0990343942
 31
0.0
  0
ARC
  5
98
  8
0
  6
CONTINUOUS
 62
     7
 10
43.8518761951
 20
522.9171875733
 30
0.0
 40
0.1818477432055738
 50
22.8889013726
 51
90.1824890464
  0
ARC
  5
99
  8
0
  6
CONTINUOUS
 62
     7
 10
54.0337900429
 20
522.9171318499
 30
0.0
 40
0.1819033527832148
 50
89.8291683068
 51
157.0994412742
  0
LINE
  5
9A
  8
0
  6
CONTINUOUS
 62
     7
 10
67.3995829472
 20
523.0990343942
 30
0.0
 11
54.0343324007
 21
523.0990343942
 31
0.0
  0
ARC
  5
9B
  8
0
  6
CONTINUOUS
 62
     7
 10
67.3999364679
 20
522.9191437841
 30
0.0
 40
0.1798909574598418
 50
359.9656123459
 51
90.1125974297
  0
LINE
  5
9C
  8
0
  6
CONTINUOUS
 62
     7
 10
67.579827393
 20
519.6790316357
 30
0.0
 11
67.579827393
 21
522.9190358175
 31
0.0
  0
ARC
  5
9D
  8
0
  6
CONTINUOUS
 62
     7
 10
67.3999522035
 20
519.6789079121
 30
0.0
 40
0.1798752320920729
 50
269.8823804711
 51
0.0394097533
  0
LINE
  5
9E
  8
0
  6
CONTINUOUS
 62
     7
 10
67.3995829472
 20
519.499033059
 30
0.0
 11
56.4648668566
 21
519.499033059
 31
0.0
  0
ARC
  5
9F
  8
0
  6
CONTINUOUS
 62
     7
 10
56.4643224323
 20
519.3173596514
 30
0.0
 40
0.1816742233615797
 50
89.8283011082
 51
157.1473547109
  0
LINE
  5
A0
  8
0
  6
CONTINUOUS
 62
     7
 10
50.6615488609
 20
505.9301474346
 30
0.0
 11
56.2969084183
 21
519.3879151
 31
0.0
  0
ARC
  5
A1
  8
0
  6
CONTINUOUS
 62
     7
 10
50.4939189898
 20
506.0010402874
 30
0.0
 40
0.1820043138697328
 50
269.814620133
 51
337.0758659108
  0
LINE
  5
A2
  8
0
  6
CONTINUOUS
 62
     7
 10
50.4933301178
 20
505.8190369262
 30
0.0
 11
47.3922992876
 21
505.8190369262
 31
0.0
  0
ARC
  5
A3
  8
0
  6
CONTINUOUS
 62
     7
 10
47.3916846127
 20
506.0010012224
 30
0.0
 40
0.1819653344489123
 50
202.915969732
 51
270.1935442242
  0
LINE
  5
A4
  8
0
  6
CONTINUOUS
 62
     7
 10
41.5887209872
 20
519.3879151
 30
0.0
 11
47.2240805445
 21
505.9301474346
 31
0.0
  0
ARC
  5
A5
  8
0
  6
CONTINUOUS
 62
     7
 10
41.4212704586
 20
519.3173044586
 30
0.0
 40
0.1817293102455061
 50
22.8642097059
 51
90.160134475
  0
LINE
  5
A6
  8
0
  6
CONTINUOUS
 62
     7
 10
41.4207625488
 20
519.499033059
 30
0.0
 11
31.4599789032
 21
519.499033059
 31
0.0
  0
ARC
  5
A7
  8
0
  6
CONTINUOUS
 62
     7
 10
31.4595353267
 20
519.6790233717
 30
0.0
 40
0.1799908592566107
 50
179.9973693633
 51
270.1412021111
  0
LINE
  5
A8
  8
0
  6
CONTINUOUS
 62
     7
 10
31.2795444676
 20
522.9190358175
 30
0.0
 11
31.2795444676
 21
519.6790316357
 31
0.0
  0
ARC
  5
A9
  8
0
  6
CONTINUOUS
 62
     7
 10
31.4595166813
 20
522.919062772
 30
0.0
 40
0.1799722157222816
 50
89.8528473231
 51
180.0085812024
  0
POLYLINE
  5
AA
  8
0
  6
CONTINUOUS
 62
     7
 66
     1
 10
0.0
 20
0.0
 30
0.0
  0
VERTEX
  5
3F9
  8
0
  6
CONTINUOUS
 62
     7
 10
62.5477257469
 20
511.1722343816
 30
0.0
  0
VERTEX
  5
3FA
  8
0
  6
CONTINUOUS
 62
     7
 10
64.6692171046
 20
512.5036307825
 30
0.0
  0
VERTEX
  5
3FB
  8
0
  6
CONTINUOUS
 62
     7
 10
66.2043738464
 20
514.4746520771
 30
0.0
  0
SEQEND
  5
67A
  8
0
  6
CONTINUOUS
 62
     7
  0
ARC
  5
AB
  8
0
  6
CONTINUOUS
 62
     7
 10
62.6144094199
 20
511.0058242957
 30
0.0
 40
0.1792736147249669
 50
111.8369111521
 51
212.7161796142
  0
LINE
  5
AC
  8
0
  6
CONTINUOUS
 62
     7
 10
65.5447627702
 20
506.0957514895
 30
0.0
 11
62.4635760957
 21
510.9089308633
 31
0.0
  0
ARC
  5
AD
  8
0
  6
CONTINUOUS
 62
     7
 10
65.3929556884
 20
505.9990347808
 30
0.0
 40
0.1799986439898192
 50
269.8303147899
 51
32.501323934
  0
LINE
  5
AE
  8
0
  6
CONTINUOUS
 62
     7
 10
65.3924226114
 20
505.8190369262
 30
0.0
 11
61.8673461774
 21
505.8190369262
 31
0.0
  0
ARC
  5
AF
  8
0
  6
CONTINUOUS
 62
     7
 10
61.867284899
 20
506.0007915662
 30
0.0
 40
0.1817546503373403
 50
212.805274472
 51
270.0193172323
  0
LINE
  5
B0
  8
0
  6
CONTINUOUS
 62
     7
 10
58.4672429884
 20
510.9595501079
 30
0.0
 11
61.7145170742
 21
505.9023195161
 31
0.0
  0
ARC
  5
B1
  8
0
  6
CONTINUOUS
 62
     7
 10
58.3141227883
 20
510.8606387622
 30
0.0
 40
0.1822889189290305
 50
32.8613238594
 51
157.0486583916
  0
LINE
  5
B2
  8
0
  6
CONTINUOUS
 62
     7
 10
56.05457875
 20
505.9301474346
 30
0.0
 11
58.1462645257
 21
510.9317221893
 31
0.0
  0
ARC
  5
B3
  8
0
  6
CONTINUOUS
 62
     7
 10
55.8871183169
 20
506.0007850961
 30
0.0
 40
0.1817489363436993
 50
269.8336100626
 51
337.1291547659
  0
LINE
  5
B4
  8
0
  6
CONTINUOUS
 62
     7
 10
55.8865905093
 20
505.8190369262
 30
0.0
 11
52.3417576967
 21
505.8190369262
 31
0.0
  0
ARC
  5
B5
  8
0
  6
CONTINUOUS
 62
     7
 10
52.3402253774
 20
505.9992631852
 30
0.0
 40
0.1802327729564868
 50
157.6097769709
 51
270.4871283065
  0
LINE
  5
B6
  8
0
  6
CONTINUOUS
 62
     7
 10
57.1932384098
 20
518.0595063819
 30
0.0
 11
52.1735801646
 21
506.0679161204
 31
0.0
  0
ARC
  5
B7
  8
0
  6
CONTINUOUS
 62
     7
 10
57.3606530922
 20
517.9889496032
 30
0.0
 40
0.1816753558456007
 50
89.8505417105
 51
157.1470500131
  0
LINE
  5
B8
  8
0
  6
CONTINUOUS
 62
     7
 10
60.8979204023
 20
518.1706243409
 30
0.0
 11
57.361126999
 21
518.1706243409
 31
0.0
  0
ARC
  5
B9
  8
0
  6
CONTINUOUS
 62
     7
 10
60.8989052467
 20
517.9904701833
 30
0.0
 40
0.180156849546643
 50
337.5724614682
 51
90.3132143353
  0
LINE
  5
BA
  8
0
  6
CONTINUOUS
 62
     7
 10
59.4816367427
 20
514.127708341
 30
0.0
 11
61.0654355312
 21
517.9217376961
 31
0.0
  0
ARC
  5
BB
  8
0
  6
CONTINUOUS
 62
     7
 10
59.6481059741
 20
514.0589717411
 30
0.0
 40
0.1801019855017876
 50
157.5638419772
 51
268.0815233582
  0
ARC
  5
BC
  8
0
  6
CONTINUOUS
 62
     7
 10
59.8173502386
 20
517.8450083596
 30
0.0
 40
3.969908340762612
 50
267.4696719924
 51
2.0048274044
  0
ARC
  5
BD
  8
0
  6
CONTINUOUS
 62
     7
 10
63.9643158779
 20
517.9910007958
 30
0.0
 40
0.179628129243789
 50
89.5906649631
 51
182.2685749526
  0
LINE
  5
BE
  8
0
  6
CONTINUOUS
 62
     7
 10
67.3995829472
 20
518.1706243409
 30
0.0
 11
63.9655991742
 21
518.1706243409
 31
0.0
  0
ARC
  5
BF
  8
0
  6
CONTINUOUS
 62
     7
 10
67.3999291493
 20
517.9907263979
 30
0.0
 40
0.1798982761764413
 50
359.9655762851
 51
90.1102619295
  0
LINE
  5
C0
  8
0
  6
CONTINUOUS
 62
     7
 10
67.579827393
 20
514.7506215824
 30
0.0
 11
67.579827393
 21
517.9906183137
 31
0.0
  0
ARC
  5
C1
  8
0
  6
CONTINUOUS
 62
     7
 10
67.399959554
 20
514.7504904983
 30
0.0
 40
0.179867886789069
 50
269.8800342016
 51
0.0417560228
  0
LINE
  5
C2
  8
0
  6
CONTINUOUS
 62
     7
 10
67.3995829472
 20
514.5706230058
 30
0.0
 11
66.3639783213
 21
514.5706230058
 31
0.0
  0
ARC
  5
C3
  8
0
  6
CONTINUOUS
 62
     7
 10
66.3640318858
 20
514.3898333317
 30
0.0
 40
0.18078968197239
 50
90.0169756321
 51
152.0204103185
  0
LINE
  5
C4
  8
0
  6
CONTINUOUS
 62
     7
 10
40.5245024064
 20
518.1706243409
 30
0.0
 11
31.4599789032
 21
518.1706243409
 31
0.0
  0
ARC
  5
C5
  8
0
  6
CONTINUOUS
 62
     7
 10
40.5250095125
 20
517.9889997641
 30
0.0
 40
0.1816252847099095
 50
22.8424356444
 51
90.159972632
  0
LINE
  5
C6
  8
0
  6
CONTINUOUS
 62
     7
 10
45.7120492408
 20
506.0679161204
 30
0.0
 11
40.6923909956
 21
518.0595063819
 31
0.0
  0
ARC
  5
C7
  8
0
  6
CONTINUOUS
 62
     7
 10
45.5454043322
 20
505.9992629797
 30
0.0
 40
0.1802325699985756
 50
269.5127744404
 51
22.3903202822
  0
LINE
  5
C8
  8
0
  6
CONTINUOUS
 62
     7
 10
45.5438717087
 20
505.8190369262
 30
0.0
 11
41.9990388961
 21
505.8190369262
 31
0.0
  0
ARC
  5
C9
  8
0
  6
CONTINUOUS
 62
     7
 10
41.9984854026
 20
506.0007462616
 30
0.0
 40
0.1817101784205625
 50
202.8627105946
 51
270.1745245769
  0
LINE
  5
CA
  8
0
  6
CONTINUOUS
 62
     7
 10
40.8698507869
 20
508.2279139413
 30
0.0
 11
41.8310506554
 21
505.9301474346
 31
0.0
  0
ARC
  5
CB
  8
0
  6
CONTINUOUS
 62
     7
 10
40.7024398323
 20
508.1573628558
 30
0.0
 40
0.1816697096452371
 50
22.8517519662
 51
90.1550445065
  0
LINE
  5
CC
  8
0
  6
CONTINUOUS
 62
     7
 10
40.7019482279
 20
508.3390319003
 30
0.0
 11
35.2953617746
 21
508.3390319003
 31
0.0
  0
ARC
  5
CD
  8
0
  6
CONTINUOUS
 62
     7
 10
35.2949903384
 20
508.158090923
 30
0.0
 40
0.180941358552077
 50
89.8823832284
 51
157.3011482374
  0
LINE
  5
CE
  8
0
  6
CONTINUOUS
 62
     7
 10
34.1710253903
 20
505.9301474346
 30
0.0
 11
35.1280636439
 21
508.2279139413
 31
0.0
  0
ARC
  5
CF
  8
0
  6
CONTINUOUS
 62
     7
 10
34.0041737433
 20
505.9998701156
 30
0.0
 40
0.1808334160970008
 50
269.9092890689
 51
337.3213012938
  0
LINE
  5
D0
  8
0
  6
CONTINUOUS
 62
     7
 10
34.0038874471
 20
505.8190369262
 30
0.0
 11
30.4854336479
 21
505.8190369262
 31
0.0
  0
ARC
  5
D1
  8
0
  6
CONTINUOUS
 62
     7
 10
30.4852412768
 20
505.99905819
 30
0.0
 40
0.1800213665579439
 50
157.5114588041
 51
270.0612263873
  0
LINE
  5
D2
  8
0
  6
CONTINUOUS
 62
     7
 10
33.7482449883
 20
514.3217363609
 30
0.0
 11
30.3189094463
 21
506.0679161204
 31
0.0
  0
ARC
  5
D3
  8
0
  6
CONTINUOUS
 62
     7
 10
33.5817994846
 20
514.3905244072
 30
0.0
 40
0.1800996974031207
 50
337.545833103
 51
90.2001413504
  0
LINE
  5
D4
  8
0
  6
CONTINUOUS
 62
     7
 10
33.5811703751
 20
514.5706230058
 30
0.0
 11
31.4599789032
 21
514.5706230058
 31
0.0
  0
ARC
  5
D5
  8
0
  6
CONTINUOUS
 62
     7
 10
31.4595322619
 20
514.7506102463
 30
0.0
 40
0.1799877946495703
 50
179.9963913421
 51
270.1421801324
  0
LINE
  5
D6
  8
0
  6
CONTINUOUS
 62
     7
 10
31.2795444676
 20
517.9906183137
 30
0.0
 11
31.2795444676
 21
514.7506215824
 31
0.0
  0
ARC
  5
D7
  8
0
  6
CONTINUOUS
 62
     7
 10
31.4595209145
 20
517.9906484742
 30
0.0
 40
0.1799764494190045
 50
89.854198431
 51
180.0096016508
  0
ARC
  5
D8
  8
0
  6
CONTINUOUS
 62
     7
 10
39.1600707449
 20
511.8495844539
 30
0.0
 40
0.1805539544843539
 50
269.7958824371
 51
22.2387994292
  0
LINE
  5
D9
  8
0
  6
CONTINUOUS
 62
     7
 10
39.3271941045
 20
511.91791829
 30
0.0
 11
38.1639377499
 21
514.7025131835
 31
0.0
  0
ARC
  5
DA
  8
0
  6
CONTINUOUS
 62
     7
 10
37.9962987551
 20
514.6313616733
 30
0.0
 40
0.1821136182998742
 50
22.9979666083
 51
157.0020333917
  0
LINE
  5
DB
  8
0
  6
CONTINUOUS
 62
     7
 10
37.8286597604
 20
514.7025131835
 30
0.0
 11
36.6665293747
 21
511.91791829
 31
0.0
  0
ARC
  5
DC
  8
0
  6
CONTINUOUS
 62
     7
 10
36.8334294032
 20
511.8494347073
 30
0.0
 40
0.1804040481900595
 50
157.6903347438
 51
270.1894386613
  0
LINE
  5
DD
  8
0
  6
CONTINUOUS
 62
     7
 10
39.1594275186
 20
511.6690316452
 30
0.0
 11
36.8340258771
 21
511.6690316452
 31
0.0
  0
LINE
  5
DE
  8
0
  6
CONTINUOUS
 62
     7
 10
52.3026894131
 20
505.8190369262
 30
0.0
 11
52.3417576967
 21
505.8190369262
 31
0.0
  0
ARC
  5
DF
  8
0
  6
CONTINUOUS
 62
     7
 10
52.3031109788
 20
505.9992815572
 30
0.0
 40
0.1802451239721342
 50
157.6177103754
 51
269.8659938619
  0
LINE
  5
E0
  8
0
  6
CONTINUOUS
 62
     7
 10
52.1364448411
 20
506.0679161204
 30
0.0
 11
52.1735801646
 21
506.0679161204
 31
0.0
  0
LINE
  5
E1
  8
0
  6
CONTINUOUS
 62
     7
 10
45.7491845643
 20
506.0679161204
 30
0.0
 11
45.7120492408
 21
506.0679161204
 31
0.0
  0
ARC
  5
E2
  8
0
  6
CONTINUOUS
 62
     7
 10
45.5823437511
 20
505.9993982357
 30
0.0
 40
0.1803622950715775
 50
270.1894085807
 51
22.326887182
  0
LINE
  5
E3
  8
0
  6
CONTINUOUS
 62
     7
 10
45.5829399923
 20
505.8190369262
 30
0.0
 11
45.5438717087
 21
505.8190369262
 31
0.0
  0
LINE
  5
E4
  8
0
  6
CONTINUOUS
 62
     7
 10
40.7872229168
 20
518.0595063819
 30
0.0
 11
40.6923909956
 21
518.0595063819
 31
0.0
  0
LINE
  5
E5
  8
0
  6
CONTINUOUS
 62
     7
 10
45.7491845643
 20
506.0679161204
 30
0.0
 11
40.7872229168
 21
518.0595063819
 31
0.0
  0
LINE
  5
E6
  8
0
  6
CONTINUOUS
 62
     7
 10
57.0984064886
 20
518.0595063819
 30
0.0
 11
52.1364448411
 21
506.0679161204
 31
0.0
  0
LINE
  5
E7
  8
0
  6
CONTINUOUS
 62
     7
 10
57.0984064886
 20
518.0595063819
 30
0.0
 11
57.1932384098
 21
518.0595063819
 31
0.0
  0
LINE
  5
E8
  8
0
  6
CONTINUOUS
 62
     7
 10
3.5674750158
 20
529.6190374745
 30
0.0
 11
15.9085533866
 21
529.6190374745
 31
0.0
  0
LINE
  5
E9
  8
0
  6
CONTINUOUS
 62
     7
 10
3.5674750158
 20
529.6190374745
 30
0.0
 11
1.9123434374
 21
548.5372760548
 31
0.0
  0
LINE
  5
EA
  8
0
  6
CONTINUOUS
 62
     7
 10
2.07041123
 20
548.5799231781
 30
0.0
 11
1.9123434374
 21
548.5372760548
 31
0.0
  0
POLYLINE
  5
EB
  8
0
  6
CONTINUOUS
 62
     7
 66
     1
 10
0.0
 20
0.0
 30
0.0
  0
VERTEX
  5
3FC
  8
0
  6
CONTINUOUS
 62
     7
 10
17.2687574574
 20
546.6868051542
 30
0.0
  0
VERTEX
  5
3FD
  8
0
  6
CONTINUOUS
 62
     7
 10
16.2718213448
 20
534.2361771716
 30
0.0
  0
VERTEX
  5
3FE
  8
0
  6
CONTINUOUS
 62
     7
 10
15.9085533866
 20
529.6190374745
 30
0.0
  0
SEQEND
  5
679
  8
0
  6
CONTINUOUS
 62
     7
  0
LINE
  5
EC
  8
0
  6
CONTINUOUS
 62
     7
 10
95.8152181754
 20
548.5799231781
 30
0.0
 11
95.973285968
 21
548.5372760548
 31
0.0
  0
LINE
  5
ED
  8
0
  6
CONTINUOUS
 62
     7
 10
94.3181543896
 20
529.6190374745
 30
0.0
 11
95.973285968
 21
548.5372760548
 31
0.0
  0
LINE
  5
EE
  8
0
  6
CONTINUOUS
 62
     7
 10
94.3181543896
 20
529.6190374745
 30
0.0
 11
81.9770760188
 21
529.6190374745
 31
0.0
  0
POLYLINE
  5
EF
  8
0
  6
CONTINUOUS
 62
     7
 66
     1
 10
0.0
 20
0.0
 30
0.0
  0
VERTEX
  5
3FF
  8
0
  6
CONTINUOUS
 62
     7
 10
80.616871948
 20
546.6868051542
 30
0.0
  0
VERTEX
  5
400
  8
0
  6
CONTINUOUS
 62
     7
 10
81.6138080606
 20
534.2361771716
 30
0.0
  0
VERTEX
  5
401
  8
0
  6
CONTINUOUS
 62
     7
 10
81.9770760188
 20
529.6190374745
 30
0.0
  0
SEQEND
  5
678
  8
0
  6
CONTINUOUS
 62
     7
  0
ARC
  5
F0
  8
0
  6
CONTINUOUS
 62
     7
 10
53.9764052559
 20
522.9183264953
 30
0.0
 40
0.1807088824425571
 50
90.1890431512
 51
157.3504124946
  0
LINE
  5
F1
  8
0
  6
CONTINUOUS
 62
     7
 10
53.9758090215
 20
523.0990343942
 30
0.0
 11
54.0343324007
 21
523.0990343942
 31
0.0
  0
LINE
  5
F2
  8
0
  6
CONTINUOUS
 62
     7
 10
43.9098203839
 20
523.0990343942
 30
0.0
 11
43.8512970047
 21
523.0990343942
 31
0.0
  0
ARC
  5
F3
  8
0
  6
CONTINUOUS
 62
     7
 10
43.909242316
 20
522.9183536631
 30
0.0
 40
0.1806816558228798
 50
22.6438552223
 51
89.8166891319
  0
ARC
  5
F4
  8
0
  6
CONTINUOUS
 62
     7
 10
57.2650468707
 20
517.9901145759
 30
0.0
 40
0.1805110514300702
 50
90.216312419
 51
157.3923489158
  0
LINE
  5
F5
  8
0
  6
CONTINUOUS
 62
     7
 10
57.2643653774
 20
518.1706243409
 30
0.0
 11
57.361126999
 21
518.1706243409
 31
0.0
  0
LINE
  5
F6
  8
0
  6
CONTINUOUS
 62
     7
 10
40.621264028
 20
518.1706243409
 30
0.0
 11
40.5245024064
 21
518.1706243409
 31
0.0
  0
ARC
  5
F7
  8
0
  6
CONTINUOUS
 62
     7
 10
40.6206193166
 20
517.9901695111
 30
0.0
 40
0.1804559814495851
 50
22.5960385492
 51
89.7953001161
  0
LINE
  5
F8
  8
0
  6
CONTINUOUS
 62
     7
 10
58.357766951
 20
510.9595501079
 30
0.0
 11
58.4672429884
 21
510.9595501079
 31
0.0
  0
LINE
  5
F9
  8
0
  6
CONTINUOUS
 62
     7
 10
61.5677154908
 20
505.9023195161
 30
0.0
 11
61.7145170742
 21
505.9023195161
 31
0.0
  0
LINE
  5
FA
  8
0
  6
CONTINUOUS
 62
     7
 10
58.357766951
 20
510.9595501079
 30
0.0
 11
61.5677154908
 21
505.9023195161
 31
0.0
  0
ARC
  5
FB
  8
0
  6
CONTINUOUS
 62
     7
 10
59.6706476134
 20
517.8229267881
 30
0.0
 40
3.946866738512875
 50
267.7994375538
 51
2.3373214568
  0
LINE
  5
FC
  8
0
  6
CONTINUOUS
 62
     7
 10
63.6142307246
 20
517.9838904394
 30
0.0
 11
63.7848285312
 21
517.9838904394
 31
0.0
  0
LINE
  5
FD
  8
0
  6
CONTINUOUS
 62
     7
 10
37.9564083466
 20
514.7025131835
 30
0.0
 11
37.8286597604
 21
514.7025131835
 31
0.0
  0
LINE
  5
FE
  8
0
  6
CONTINUOUS
 62
     7
 10
36.807636852
 20
511.91791829
 30
0.0
 11
36.6665293747
 21
511.91791829
 31
0.0
  0
LINE
  5
FF
  8
0
  6
CONTINUOUS
 62
     7
 10
37.9564083466
 20
514.7025131835
 30
0.0
 11
36.807636852
 21
511.91791829
 31
0.0
  0
LINE
  5
100
  8
0
  6
CONTINUOUS
 62
     7
 10
61.7187890509
 20
505.8190369262
 30
0.0
 11
61.8673461774
 21
505.8190369262
 31
0.0
  0
ARC
  5
101
  8
0
  6
CONTINUOUS
 62
     7
 10
61.7194969286
 20
505.9989850617
 30
0.0
 40
0.1799495278318247
 50
212.4919722607
 51
269.7746117565
  0
LINE
  5
102
  8
0
  6
CONTINUOUS
 62
     7
 10
35.2868541429
 20
508.2279139413
 30
0.0
 11
35.1280636439
 21
508.2279139413
 31
0.0
  0
LINE
  5
103
  8
0
  6
CONTINUOUS
 62
     7
 10
34.3408157402
 20
505.9301474346
 30
0.0
 11
35.2868541429
 21
508.2279139413
 31
0.0
  0
LINE
  5
104
  8
0
  6
CONTINUOUS
 62
     7
 10
34.3408157402
 20
505.9301474346
 30
0.0
 11
34.1710253903
 21
505.9301474346
 31
0.0
  0
ARC
  5
105
  8
0
  6
CONTINUOUS
 62
     7
 10
34.1747305115
 20
505.9987188229
 30
0.0
 40
0.1796839962192411
 50
270.2769725603
 51
337.5658029859
  0
LINE
  5
106
  8
0
  6
CONTINUOUS
 62
     7
 10
34.1755991155
 20
505.8190369262
 30
0.0
 11
34.0038874471
 21
505.8190369262
 31
0.0
  0
ARC
  5
107
  8
0
  6
CONTINUOUS
 62
     7
 10
63.7930655676
 20
517.9916224822
 30
0.0
 40
0.1790019150121489
 50
90.0454458485
 51
182.4756791009
  0
LINE
  5
108
  8
0
  6
CONTINUOUS
 62
     7
 10
63.792923587
 20
518.1706243409
 30
0.0
 11
63.9655991742
 21
518.1706243409
 31
0.0
  0
ARC
  5
109
  8
0
  6
CONTINUOUS
 62
     7
 10
48.9428147027
 20
334.7375575825
 30
0.0
 40
108.9534627381341
 50
74.4392558924
 51
105.5607441076
  0
POLYLINE
  5
10A
  8
0
  6
CONTINUOUS
 62
     7
 66
     1
 10
0.0
 20
0.0
 30
0.0
  0
VERTEX
  5
402
  8
0
  6
CONTINUOUS
 62
     7
 10
78.6820716509
 20
439.5454230933
 30
0.0
  0
VERTEX
  5
403
  8
0
  6
CONTINUOUS
 62
     7
 10
78.4268725017
 20
439.6238972647
 30
0.0
  0
VERTEX
  5
404
  8
0
  6
CONTINUOUS
 62
     7
 10
78.1706544855
 20
439.6975043444
 30
0.0
  0
SEQEND
  5
677
  8
0
  6
CONTINUOUS
 62
     7
  0
LINE
  5
10B
  8
0
  6
CONTINUOUS
 62
     7
 10
78.6820716509
 20
439.5454230933
 30
0.0
 11
71.2024151632
 21
404.6254393859
 31
0.0
  0
LINE
  5
10C
  8
0
  6
CONTINUOUS
 62
     7
 10
19.2035577545
 20
439.5454230933
 30
0.0
 11
26.6832142422
 21
404.6254393859
 31
0.0
  0
POLYLINE
  5
10D
  8
0
  6
CONTINUOUS
 62
     7
 66
     1
 10
0.0
 20
0.0
 30
0.0
  0
VERTEX
  5
405
  8
0
  6
CONTINUOUS
 62
     7
 10
19.2035577545
 20
439.5454230933
 30
0.0
  0
VERTEX
  5
406
  8
0
  6
CONTINUOUS
 62
     7
 10
19.4587569037
 20
439.6238972647
 30
0.0
  0
VERTEX
  5
407
  8
0
  6
CONTINUOUS
 62
     7
 10
19.7149749199
 20
439.6975043444
 30
0.0
  0
SEQEND
  5
676
  8
0
  6
CONTINUOUS
 62
     7
  0
LINE
  5
10E
  8
0
  6
CONTINUOUS
 62
     7
 10
23.8368260959
 20
631.5174394502
 30
0.0
 11
23.2833932439
 21
631.4190321816
 31
0.0
  0
LINE
  5
10F
  8
0
  6
CONTINUOUS
 62
     7
 10
23.8367255131
 20
631.5190338744
 30
0.0
 11
23.8469514349
 21
631.5190338744
 31
0.0
  0
LINE
  5
110
  8
0
  6
CONTINUOUS
 62
     7
 10
23.8469514349
 20
631.5190338744
 30
0.0
 11
24.5461418578
 21
631.5190338744
 31
0.0
  0
LINE
  5
111
  8
0
  6
CONTINUOUS
 62
     7
 10
25.4491037974
 20
631.5190338744
 30
0.0
 11
24.5476599136
 21
631.5187954558
 31
0.0
  0
LINE
  5
112
  8
0
  6
CONTINUOUS
 62
     7
 10
25.4508267442
 20
631.5190338744
 30
0.0
 11
25.6260401854
 21
631.5190338744
 31
0.0
  0
LINE
  5
113
  8
0
  6
CONTINUOUS
 62
     7
 10
25.6260401854
 20
631.5190338744
 30
0.0
 11
26.0928302357
 21
631.5190338744
 31
0.0
  0
LINE
  5
114
  8
0
  6
CONTINUOUS
 62
     7
 10
26.0928302357
 20
631.5190338744
 30
0.0
 11
26.4690230885
 21
631.5190338744
 31
0.0
  0
LINE
  5
115
  8
0
  6
CONTINUOUS
 62
     7
 10
26.8443907896
 20
631.5190338744
 30
0.0
 11
26.4690230885
 21
631.5190338744
 31
0.0
  0
LINE
  5
116
  8
0
  6
CONTINUOUS
 62
     7
 10
26.8443907896
 20
631.5190338744
 30
0.0
 11
36.008501547
 21
631.5190338744
 31
0.0
  0
LINE
  5
117
  8
0
  6
CONTINUOUS
 62
     7
 10
36.008501547
 20
631.5190338744
 30
0.0
 11
48.9428147019
 21
631.5190338744
 31
0.0
  0
LINE
  5
118
  8
0
  6
CONTINUOUS
 62
     7
 10
48.9428147019
 20
631.5190338744
 30
0.0
 11
61.8771278584
 21
631.5190338744
 31
0.0
  0
LINE
  5
119
  8
0
  6
CONTINUOUS
 62
     7
 10
61.8771278584
 20
631.5190338744
 30
0.0
 11
71.0412386158
 21
631.5190338744
 31
0.0
  0
LINE
  5
11A
  8
0
  6
CONTINUOUS
 62
     7
 10
71.0412386158
 20
631.5190338744
 30
0.0
 11
72.4348026613
 21
631.5190338744
 31
0.0
  0
LINE
  5
11B
  8
0
  6
CONTINUOUS
 62
     7
 10
73.338125954
 20
631.5190338744
 30
0.0
 11
72.4355253676
 21
631.5190338744
 31
0.0
  0
LINE
  5
11C
  8
0
  6
CONTINUOUS
 62
     7
 10
73.3394875476
 20
631.5190338744
 30
0.0
 11
74.0386779705
 21
631.5190338744
 31
0.0
  0
LINE
  5
11D
  8
0
  6
CONTINUOUS
 62
     7
 10
74.0386779705
 20
631.5190338744
 30
0.0
 11
74.0485145995
 21
631.5190338744
 31
0.0
  0
LINE
  5
11E
  8
0
  6
CONTINUOUS
 62
     7
 10
74.6824640134
 20
631.4190321816
 30
0.0
 11
74.0464824537
 21
631.5190338744
 31
0.0
  0
LINE
  5
11F
  8
0
  6
CONTINUOUS
 62
     7
 10
83.5467457125
 20
631.5190338744
 30
0.0
 11
83.9428148517
 21
631.5190338744
 31
0.0
  0
POLYLINE
  5
120
  8
0
  6
CONTINUOUS
 62
     7
 66
     1
 10
0.0
 20
0.0
 30
0.0
  0
VERTEX
  5
408
  8
0
  6
CONTINUOUS
 62
     7
 10
78.6820716509
 20
439.5454230933
 30
0.0
  0
VERTEX
  5
409
  8
0
  6
CONTINUOUS
 62
     7
 10
79.7756566951
 20
444.4648551969
 30
0.0
  0
VERTEX
  5
40A
  8
0
  6
CONTINUOUS
 62
     7
 10
80.8435968408
 20
449.2656042083
 30
0.0
  0
VERTEX
  5
40B
  8
0
  6
CONTINUOUS
 62
     7
 10
81.8807735393
 20
453.9246292068
 30
0.0
  0
VERTEX
  5
40C
  8
0
  6
CONTINUOUS
 62
     7
 10
82.882202352
 20
458.4195756568
 30
0.0
  0
VERTEX
  5
40D
  8
0
  6
CONTINUOUS
 62
     7
 10
83.8430851051
 20
462.7288722648
 30
0.0
  0
VERTEX
  5
40E
  8
0
  6
CONTINUOUS
 62
     7
 10
84.758806164
 20
466.8318399443
 30
0.0
  0
VERTEX
  5
40F
  8
0
  6
CONTINUOUS
 62
     7
 10
85.624969686
 20
470.7087905361
 30
0.0
  0
VERTEX
  5
410
  8
0
  6
CONTINUOUS
 62
     7
 10
86.4374256978
 20
474.3411162151
 30
0.0
  0
VERTEX
  5
411
  8
0
  6
CONTINUOUS
 62
     7
 10
87.1922700951
 20
477.7113863482
 30
0.0
  0
VERTEX
  5
412
  8
0
  6
CONTINUOUS
 62
     7
 10
87.8858781704
 20
480.8034331752
 30
0.0
  0
VERTEX
  5
413
  8
0
  6
CONTINUOUS
 62
     7
 10
88.514926965
 20
483.6024114145
 30
0.0
  0
VERTEX
  5
414
  8
0
  6
CONTINUOUS
 62
     7
 10
89.0763989934
 20
486.0948951198
 30
0.0
  0
VERTEX
  5
415
  8
0
  6
CONTINUOUS
 62
     7
 10
89.5675934205
 20
488.2689186586
 30
0.0
  0
VERTEX
  5
416
  8
0
  6
CONTINUOUS
 62
     7
 10
89.9861558625
 20
490.1140549435
 30
0.0
  0
VERTEX
  5
417
  8
0
  6
CONTINUOUS
 62
     7
 10
90.3300821135
 20
491.621445234
 30
0.0
  0
VERTEX
  5
418
  8
0
  6
CONTINUOUS
 62
     7
 10
90.5977144191
 20
492.7838587417
 30
0.0
  0
SEQEND
  5
675
  8
0
  6
CONTINUOUS
 62
     7
  0
POLYLINE
  5
121
  8
0
  6
CONTINUOUS
 62
     7
 66
     1
 10
0.0
 20
0.0
 30
0.0
  0
VERTEX
  5
419
  8
0
  6
CONTINUOUS
 62
     7
 10
19.2035577545
 20
439.5454230933
 30
0.0
  0
VERTEX
  5
41A
  8
0
  6
CONTINUOUS
 62
     7
 10
18.1099727103
 20
444.4648551969
 30
0.0
  0
VERTEX
  5
41B
  8
0
  6
CONTINUOUS
 62
     7
 10
17.0420325646
 20
449.2656042083
 30
0.0
  0
VERTEX
  5
41C
  8
0
  6
CONTINUOUS
 62
     7
 10
16.0048558661
 20
453.9246292068
 30
0.0
  0
VERTEX
  5
41D
  8
0
  6
CONTINUOUS
 62
     7
 10
15.0034270534
 20
458.4195756568
 30
0.0
  0
VERTEX
  5
41E
  8
0
  6
CONTINUOUS
 62
     7
 10
14.0425443003
 20
462.7288722648
 30
0.0
  0
VERTEX
  5
41F
  8
0
  6
CONTINUOUS
 62
     7
 10
13.1268232414
 20
466.8318399443
 30
0.0
  0
VERTEX
  5
420
  8
0
  6
CONTINUOUS
 62
     7
 10
12.2606597194
 20
470.7087905361
 30
0.0
  0
VERTEX
  5
421
  8
0
  6
CONTINUOUS
 62
     7
 10
11.4482037076
 20
474.3411162151
 30
0.0
  0
VERTEX
  5
422
  8
0
  6
CONTINUOUS
 62
     7
 10
10.6933593103
 20
477.7113863482
 30
0.0
  0
VERTEX
  5
423
  8
0
  6
CONTINUOUS
 62
     7
 10
9.999751235
 20
480.8034331752
 30
0.0
  0
VERTEX
  5
424
  8
0
  6
CONTINUOUS
 62
     7
 10
9.3707024405
 20
483.6024114145
 30
0.0
  0
VERTEX
  5
425
  8
0
  6
CONTINUOUS
 62
     7
 10
8.809230412
 20
486.0948951198
 30
0.0
  0
VERTEX
  5
426
  8
0
  6
CONTINUOUS
 62
     7
 10
8.3180359849
 20
488.2689186586
 30
0.0
  0
VERTEX
  5
427
  8
0
  6
CONTINUOUS
 62
     7
 10
7.8994735429
 20
490.1140549435
 30
0.0
  0
VERTEX
  5
428
  8
0
  6
CONTINUOUS
 62
     7
 10
7.5555472919
 20
491.621445234
 30
0.0
  0
VERTEX
  5
429
  8
0
  6
CONTINUOUS
 62
     7
 10
7.2879149863
 20
492.7838587417
 30
0.0
  0
SEQEND
  5
674
  8
0
  6
CONTINUOUS
 62
     7
  0
POLYLINE
  5
122
  8
0
  6
CONTINUOUS
 62
     7
 66
     1
 10
0.0
 20
0.0
 30
0.0
  0
VERTEX
  5
42A
  8
0
  6
CONTINUOUS
 62
     7
 10
90.5977144191
 20
492.7838587417
 30
0.0
  0
VERTEX
  5
42B
  8
0
  6
CONTINUOUS
 62
     7
 10
91.9480352947
 20
498.5861622943
 30
0.0
  0
VERTEX
  5
42C
  8
0
  6
CONTINUOUS
 62
     7
 10
93.079607124
 20
503.4002282871
 30
0.0
  0
VERTEX
  5
42D
  8
0
  6
CONTINUOUS
 62
     7
 10
93.9913793752
 20
507.2215789212
 30
0.0
  0
VERTEX
  5
42E
  8
0
  6
CONTINUOUS
 62
     7
 10
94.6825026819
 20
510.0466677202
 30
0.0
  0
VERTEX
  5
42F
  8
0
  6
CONTINUOUS
 62
     7
 10
95.1523362944
 20
511.8728720798
 30
0.0
  0
VERTEX
  5
430
  8
0
  6
CONTINUOUS
 62
     7
 10
95.4004480788
 20
512.698500718
 30
0.0
  0
SEQEND
  5
673
  8
0
  6
CONTINUOUS
 62
     7
  0
LINE
  5
123
  8
0
  6
CONTINUOUS
 62
     7
 10
95.4004480788
 20
512.698500718
 30
0.0
 11
86.2270101258
 21
471.3198052002
 31
0.0
  0
POLYLINE
  5
124
  8
0
  6
CONTINUOUS
 62
     7
 66
     1
 10
0.0
 20
0.0
 30
0.0
  0
VERTEX
  5
431
  8
0
  6
CONTINUOUS
 62
     7
 10
71.2024151632
 20
404.6254393859
 30
0.0
  0
VERTEX
  5
432
  8
0
  6
CONTINUOUS
 62
     7
 10
71.827489073
 20
407.5347216083
 30
0.0
  0
VERTEX
  5
433
  8
0
  6
CONTINUOUS
 62
     7
 10
72.4966946343
 20
410.6321794195
 30
0.0
  0
VERTEX
  5
434
  8
0
  6
CONTINUOUS
 62
     7
 10
73.2046245882
 20
413.8927770062
 30
0.0
  0
VERTEX
  5
435
  8
0
  6
CONTINUOUS
 62
     7
 10
73.9455587515
 20
417.2901681839
 30
0.0
  0
VERTEX
  5
436
  8
0
  6
CONTINUOUS
 62
     7
 10
74.7135105828
 20
420.7968938379
 30
0.0
  0
VERTEX
  5
437
  8
0
  6
CONTINUOUS
 62
     7
 10
75.5022700229
 20
424.3846142879
 30
0.0
  0
VERTEX
  5
438
  8
0
  6
CONTINUOUS
 62
     7
 10
76.305464963
 20
428.0243351339
 30
0.0
  0
VERTEX
  5
439
  8
0
  6
CONTINUOUS
 62
     7
 10
77.1166040847
 20
431.6866417746
 30
0.0
  0
VERTEX
  5
43A
  8
0
  6
CONTINUOUS
 62
     7
 10
77.929130877
 20
435.341936837
 30
0.0
  0
VERTEX
  5
43B
  8
0
  6
CONTINUOUS
 62
     7
 10
78.7364795157
 20
438.9606791763
 30
0.0
  0
VERTEX
  5
43C
  8
0
  6
CONTINUOUS
 62
     7
 10
79.5321270177
 20
442.513624507
 30
0.0
  0
VERTEX
  5
43D
  8
0
  6
CONTINUOUS
 62
     7
 10
80.3096398065
 20
445.9720582916
 30
0.0
  0
VERTEX
  5
43E
  8
0
  6
CONTINUOUS
 62
     7
 10
81.0627407679
 20
449.3080315395
 30
0.0
  0
VERTEX
  5
43F
  8
0
  6
CONTINUOUS
 62
     7
 10
81.7853353271
 20
452.4945833935
 30
0.0
  0
VERTEX
  5
440
  8
0
  6
CONTINUOUS
 62
     7
 10
82.4715896794
 20
455.5059627844
 30
0.0
  0
VERTEX
  5
441
  8
0
  6
CONTINUOUS
 62
     7
 10
83.1159531424
 20
458.3178323908
 30
0.0
  0
VERTEX
  5
442
  8
0
  6
CONTINUOUS
 62
     7
 10
83.7132214853
 20
460.9074679418
 30
0.0
  0
VERTEX
  5
443
  8
0
  6
CONTINUOUS
 62
     7
 10
84.2585704574
 20
463.2539407565
 30
0.0
  0
VERTEX
  5
444
  8
0
  6
CONTINUOUS
 62
     7
 10
84.7475855896
 20
465.3382853819
 30
0.0
  0
VERTEX
  5
445
  8
0
  6
CONTINUOUS
 62
     7
 10
85.1763217995
 20
467.1436616434
 30
0.0
  0
VERTEX
  5
446
  8
0
  6
CONTINUOUS
 62
     7
 10
85.5413108418
 20
468.6554738535
 30
0.0
  0
VERTEX
  5
447
  8
0
  6
CONTINUOUS
 62
     7
 10
85.8396022865
 20
469.8615105106
 30
0.0
  0
VERTEX
  5
448
  8
0
  6
CONTINUOUS
 62
     7
 10
86.068785871
 20
470.7520188047
 30
0.0
  0
VERTEX
  5
449
  8
0
  6
CONTINUOUS
 62
     7
 10
86.2270101258
 20
471.3198052002
 30
0.0
  0
SEQEND
  5
672
  8
0
  6
CONTINUOUS
 62
     7
  0
LINE
  5
125
  8
0
  6
CONTINUOUS
 62
     7
 10
2.4851813266
 20
512.698500718
 30
0.0
 11
11.6586192796
 21
471.3198052002
 31
0.0
  0
POLYLINE
  5
126
  8
0
  6
CONTINUOUS
 62
     7
 66
     1
 10
0.0
 20
0.0
 30
0.0
  0
VERTEX
  5
44A
  8
0
  6
CONTINUOUS
 62
     7
 10
7.2879149863
 20
492.7838587417
 30
0.0
  0
VERTEX
  5
44B
  8
0
  6
CONTINUOUS
 62
     7
 10
5.9375941107
 20
498.5861622943
 30
0.0
  0
VERTEX
  5
44C
  8
0
  6
CONTINUOUS
 62
     7
 10
4.8060222814
 20
503.4002282871
 30
0.0
  0
VERTEX
  5
44D
  8
0
  6
CONTINUOUS
 62
     7
 10
3.8942500302
 20
507.2215789212
 30
0.0
  0
VERTEX
  5
44E
  8
0
  6
CONTINUOUS
 62
     7
 10
3.2031267235
 20
510.0466677202
 30
0.0
  0
VERTEX
  5
44F
  8
0
  6
CONTINUOUS
 62
     7
 10
2.733293111
 20
511.8728720798
 30
0.0
  0
VERTEX
  5
450
  8
0
  6
CONTINUOUS
 62
     7
 10
2.4851813266
 20
512.698500718
 30
0.0
  0
SEQEND
  5
671
  8
0
  6
CONTINUOUS
 62
     7
  0
POLYLINE
  5
127
  8
0
  6
CONTINUOUS
 62
     7
 66
     1
 10
0.0
 20
0.0
 30
0.0
  0
VERTEX
  5
451
  8
0
  6
CONTINUOUS
 62
     7
 10
26.6832142422
 20
404.6254393859
 30
0.0
  0
VERTEX
  5
452
  8
0
  6
CONTINUOUS
 62
     7
 10
26.0581403324
 20
407.5347216083
 30
0.0
  0
VERTEX
  5
453
  8
0
  6
CONTINUOUS
 62
     7
 10
25.3889347711
 20
410.6321794195
 30
0.0
  0
VERTEX
  5
454
  8
0
  6
CONTINUOUS
 62
     7
 10
24.6810048172
 20
413.8927770062
 30
0.0
  0
VERTEX
  5
455
  8
0
  6
CONTINUOUS
 62
     7
 10
23.9400706539
 20
417.2901681839
 30
0.0
  0
VERTEX
  5
456
  8
0
  6
CONTINUOUS
 62
     7
 10
23.1721188226
 20
420.7968938379
 30
0.0
  0
VERTEX
  5
457
  8
0
  6
CONTINUOUS
 62
     7
 10
22.3833593825
 20
424.3846142879
 30
0.0
  0
VERTEX
  5
458
  8
0
  6
CONTINUOUS
 62
     7
 10
21.5801644424
 20
428.0243351339
 30
0.0
  0
VERTEX
  5
459
  8
0
  6
CONTINUOUS
 62
     7
 10
20.7690253207
 20
431.6866417746
 30
0.0
  0
VERTEX
  5
45A
  8
0
  6
CONTINUOUS
 62
     7
 10
19.9564985284
 20
435.341936837
 30
0.0
  0
VERTEX
  5
45B
  8
0
  6
CONTINUOUS
 62
     7
 10
19.1491498897
 20
438.9606791763
 30
0.0
  0
VERTEX
  5
45C
  8
0
  6
CONTINUOUS
 62
     7
 10
18.3535023877
 20
442.513624507
 30
0.0
  0
VERTEX
  5
45D
  8
0
  6
CONTINUOUS
 62
     7
 10
17.5759895989
 20
445.9720582916
 30
0.0
  0
VERTEX
  5
45E
  8
0
  6
CONTINUOUS
 62
     7
 10
16.8228886375
 20
449.3080315395
 30
0.0
  0
VERTEX
  5
45F
  8
0
  6
CONTINUOUS
 62
     7
 10
16.1002940783
 20
452.4945833935
 30
0.0
  0
VERTEX
  5
460
  8
0
  6
CONTINUOUS
 62
     7
 10
15.414039726
 20
455.5059627844
 30
0.0
  0
VERTEX
  5
461
  8
0
  6
CONTINUOUS
 62
     7
 10
14.769676263
 20
458.3178323908
 30
0.0
  0
VERTEX
  5
462
  8
0
  6
CONTINUOUS
 62
     7
 10
14.1724079201
 20
460.9074679418
 30
0.0
  0
VERTEX
  5
463
  8
0
  6
CONTINUOUS
 62
     7
 10
13.627058948
 20
463.2539407565
 30
0.0
  0
VERTEX
  5
464
  8
0
  6
CONTINUOUS
 62
     7
 10
13.1380438158
 20
465.3382853819
 30
0.0
  0
VERTEX
  5
465
  8
0
  6
CONTINUOUS
 62
     7
 10
12.7093076059
 20
467.1436616434
 30
0.0
  0
VERTEX
  5
466
  8
0
  6
CONTINUOUS
 62
     7
 10
12.3443185637
 20
468.6554738535
 30
0.0
  0
VERTEX
  5
467
  8
0
  6
CONTINUOUS
 62
     7
 10
12.0460271189
 20
469.8615105106
 30
0.0
  0
VERTEX
  5
468
  8
0
  6
CONTINUOUS
 62
     7
 10
11.8168435344
 20
470.7520188047
 30
0.0
  0
VERTEX
  5
469
  8
0
  6
CONTINUOUS
 62
     7
 10
11.6586192796
 20
471.3198052002
 30
0.0
  0
SEQEND
  5
670
  8
0
  6
CONTINUOUS
 62
     7
  0
LINE
  5
128
  8
0
  6
CONTINUOUS
 62
     7
 10
99.6160722622
 20
549.6190333022
 30
0.0
 11
105.5679275939
 21
549.6190333022
 31
0.0
  0
LINE
  5
129
  8
0
  6
CONTINUOUS
 62
     7
 10
100.4735521326
 20
559.6190386666
 30
0.0
 11
106.4428157458
 21
559.6190386666
 31
0.0
  0
LINE
  5
12A
  8
0
  6
CONTINUOUS
 62
     7
 10
-1.7304428568
 20
549.6190333022
 30
0.0
 11
-7.6822981885
 21
549.6190333022
 31
0.0
  0
LINE
  5
12B
  8
0
  6
CONTINUOUS
 62
     7
 10
-2.5879227272
 20
559.6190386666
 30
0.0
 11
-8.5571863404
 21
559.6190386666
 31
0.0
  0
LINE
  5
12C
  8
0
  6
CONTINUOUS
 62
     7
 10
-2.5011160126
 20
571.5190314902
 30
0.0
 11
-8.2429543784
 21
571.5190314902
 31
0.0
  0
LINE
  5
12D
  8
0
  6
CONTINUOUS
 62
     7
 10
-1.1038490286
 20
571.5190314902
 30
0.0
 11
-2.5011160126
 21
571.5190314902
 31
0.0
  0
LINE
  5
12E
  8
0
  6
CONTINUOUS
 62
     7
 10
98.989478434
 20
571.5190314902
 30
0.0
 11
100.386745418
 21
571.5190314902
 31
0.0
  0
LINE
  5
12F
  8
0
  6
CONTINUOUS
 62
     7
 10
106.1285837838
 20
571.5190314902
 30
0.0
 11
100.386745418
 21
571.5190314902
 31
0.0
  0
LINE
  5
130
  8
0
  6
CONTINUOUS
 62
     7
 10
-2.5011160126
 20
589.519038166
 30
0.0
 11
-2.5011160126
 21
571.5190314902
 31
0.0
  0
LINE
  5
131
  8
0
  6
CONTINUOUS
 62
     7
 10
-2.5011160126
 20
589.519038166
 30
0.0
 11
-1.1038490286
 21
589.519038166
 31
0.0
  0
LINE
  5
132
  8
0
  6
CONTINUOUS
 62
     7
 10
100.386745418
 20
589.519038166
 30
0.0
 11
100.386745418
 21
571.5190314902
 31
0.0
  0
LINE
  5
133
  8
0
  6
CONTINUOUS
 62
     7
 10
98.989478434
 20
589.519038166
 30
0.0
 11
100.386745418
 21
589.519038166
 31
0.0
  0
LINE
  5
134
  8
0
  6
CONTINUOUS
 62
     7
 10
36.008501547
 20
649.9190324201
 30
0.0
 11
61.8771278584
 21
649.9190324201
 31
0.0
  0
LINE
  5
135
  8
0
  6
CONTINUOUS
 62
     7
 10
36.4428145164
 20
651.4190280093
 30
0.0
 11
61.442814889
 21
651.4190280093
 31
0.0
  0
LINE
  5
136
  8
0
  6
CONTINUOUS
 62
     7
 10
61.8771278584
 20
649.9190324201
 30
0.0
 11
71.0412386158
 21
649.9190324201
 31
0.0
  0
LINE
  5
137
  8
0
  6
CONTINUOUS
 62
     7
 10
26.8443907896
 20
649.9190324201
 30
0.0
 11
36.008501547
 21
649.9190324201
 31
0.0
  0
LINE
  5
138
  8
0
  6
CONTINUOUS
 62
     7
 10
95.4004480788
 20
512.698500718
 30
0.0
 11
95.4004480788
 21
519.8190354957
 31
0.0
  0
LINE
  5
139
  8
0
  6
CONTINUOUS
 62
     7
 10
2.4851813266
 20
512.698500718
 30
0.0
 11
2.4851813266
 21
519.8190354957
 31
0.0
  0
POLYLINE
  5
13A
  8
0
  6
CONTINUOUS
 62
     7
 66
     1
 10
0.0
 20
0.0
 30
0.0
  0
VERTEX
  5
46A
  8
0
  6
CONTINUOUS
 62
     7
 10
9.110733057
 20
471.3198052002
 30
0.0
  0
VERTEX
  5
46B
  8
0
  6
CONTINUOUS
 62
     7
 10
-12.1611737361
 20
475.4777246369
 30
0.0
  0
VERTEX
  5
46C
  8
0
  6
CONTINUOUS
 62
     7
 10
-18.8767955354
 20
476.7895334615
 30
0.0
  0
VERTEX
  5
46D
  8
0
  6
CONTINUOUS
 62
     7
 10
-23.5571832111
 20
477.7035744144
 30
0.0
  0
SEQEND
  5
66F
  8
0
  6
CONTINUOUS
 62
     7
  0
LINE
  5
13B
  8
0
  6
CONTINUOUS
 62
     7
 10
9.110733057
 20
471.3198052002
 30
0.0
 11
9.110733057
 21
390.3182626916
 31
0.0
  0
POLYLINE
  5
13C
  8
0
  6
CONTINUOUS
 62
     7
 66
     1
 10
0.0
 20
0.0
 30
0.0
  0
VERTEX
  5
46E
  8
0
  6
CONTINUOUS
 62
     7
 10
9.110733057
 20
390.3182626916
 30
0.0
  0
VERTEX
  5
46F
  8
0
  6
CONTINUOUS
 62
     7
 10
-18.9725951007
 20
384.8298222972
 30
0.0
  0
VERTEX
  5
470
  8
0
  6
CONTINUOUS
 62
     7
 10
-23.5571832111
 20
383.9344934775
 30
0.0
  0
SEQEND
  5
66E
  8
0
  6
CONTINUOUS
 62
     7
  0
LINE
  5
13D
  8
0
  6
CONTINUOUS
 62
     7
 10
88.7748963484
 20
471.3198052002
 30
0.0
 11
88.7748963484
 21
390.3182626916
 31
0.0
  0
POLYLINE
  5
13E
  8
0
  6
CONTINUOUS
 62
     7
 66
     1
 10
0.0
 20
0.0
 30
0.0
  0
VERTEX
  5
471
  8
0
  6
CONTINUOUS
 62
     7
 10
88.7748963484
 20
471.3198052002
 30
0.0
  0
VERTEX
  5
472
  8
0
  6
CONTINUOUS
 62
     7
 10
110.0468031415
 20
475.4777246369
 30
0.0
  0
VERTEX
  5
473
  8
0
  6
CONTINUOUS
 62
     7
 10
116.7624249408
 20
476.7895334615
 30
0.0
  0
VERTEX
  5
474
  8
0
  6
CONTINUOUS
 62
     7
 10
121.4428126165
 20
477.7035744144
 30
0.0
  0
SEQEND
  5
66D
  8
0
  6
CONTINUOUS
 62
     7
  0
POLYLINE
  5
13F
  8
0
  6
CONTINUOUS
 62
     7
 66
     1
 10
0.0
 20
0.0
 30
0.0
  0
VERTEX
  5
475
  8
0
  6
CONTINUOUS
 62
     7
 10
88.7748963484
 20
390.3182626916
 30
0.0
  0
VERTEX
  5
476
  8
0
  6
CONTINUOUS
 62
     7
 10
116.8582245061
 20
384.8298222972
 30
0.0
  0
VERTEX
  5
477
  8
0
  6
CONTINUOUS
 62
     7
 10
121.4428126165
 20
383.9344934775
 30
0.0
  0
SEQEND
  5
66C
  8
0
  6
CONTINUOUS
 62
     7
  0
LINE
  5
140
  8
0
  6
CONTINUOUS
 62
     7
 10
131.442817981
 20
355.149313177
 30
0.0
 11
131.442817981
 21
341.8190323962
 31
0.0
  0
LINE
  5
141
  8
0
  6
CONTINUOUS
 62
     7
 10
131.442817981
 20
341.8190323962
 30
0.0
 11
121.4428126165
 21
341.8190323962
 31
0.0
  0
LINE
  5
142
  8
0
  6
CONTINUOUS
 62
     7
 10
121.4428126165
 20
355.149313177
 30
0.0
 11
121.4428126165
 21
341.8190323962
 31
0.0
  0
LINE
  5
143
  8
0
  6
CONTINUOUS
 62
     7
 10
-33.5571885756
 20
341.8190323962
 30
0.0
 11
-23.5571832111
 21
341.8190323962
 31
0.0
  0
LINE
  5
144
  8
0
  6
CONTINUOUS
 62
     7
 10
-33.5571885756
 20
355.149313177
 30
0.0
 11
-33.5571885756
 21
341.8190323962
 31
0.0
  0
LINE
  5
145
  8
0
  6
CONTINUOUS
 62
     7
 10
-23.5571832111
 20
355.149313177
 30
0.0
 11
-23.5571832111
 21
341.8190323962
 31
0.0
  0
LINE
  5
146
  8
0
  6
CONTINUOUS
 62
     7
 10
86.2270101258
 20
471.3198052002
 30
0.0
 11
88.7748963484
 21
471.3198052002
 31
0.0
  0
LINE
  5
147
  8
0
  6
CONTINUOUS
 62
     7
 10
9.110733057
 20
390.3182626916
 30
0.0
 11
88.7748963484
 21
390.3182626916
 31
0.0
  0
LINE
  5
148
  8
0
  6
CONTINUOUS
 62
     7
 10
11.6586192796
 20
471.3198052002
 30
0.0
 11
9.110733057
 21
471.3198052002
 31
0.0
  0
LINE
  5
149
  8
0
  6
CONTINUOUS
 62
     7
 10
76.7259328911
 20
685.8190291776
 30
0.0
 11
21.1596965143
 21
685.8190291776
 31
0.0
  0
LINE
  5
14A
  8
0
  6
CONTINUOUS
 62
     7
 10
21.1118377099
 20
689.2190271272
 30
0.0
 11
21.1596965143
 21
685.8190291776
 31
0.0
  0
POLYLINE
  5
14B
  8
0
  6
CONTINUOUS
 62
     7
 66
     1
 10
0.0
 20
0.0
 30
0.0
  0
VERTEX
  5
478
  8
0
  6
CONTINUOUS
 62
     7
 10
48.9428147027
 20
696.7581206216
 30
0.0
  0
VERTEX
  5
479
  8
0
  6
CONTINUOUS
 62
     7
 10
45.7528288295
 20
696.6387325181
 30
0.0
  0
VERTEX
  5
47A
  8
0
  6
CONTINUOUS
 62
     7
 10
42.5628429563
 20
696.2872439279
 30
0.0
  0
VERTEX
  5
47B
  8
0
  6
CONTINUOUS
 62
     7
 10
36.825089837
 20
695.1297217263
 30
0.0
  0
VERTEX
  5
47C
  8
0
  6
CONTINUOUS
 62
     7
 10
31.2991618464
 20
693.4760206594
 30
0.0
  0
VERTEX
  5
47D
  8
0
  6
CONTINUOUS
 62
     7
 10
25.9614578733
 20
691.4453798188
 30
0.0
  0
VERTEX
  5
47E
  8
0
  6
CONTINUOUS
 62
     7
 10
21.1118377099
 20
689.2190271272
 30
0.0
  0
SEQEND
  5
66B
  8
0
  6
CONTINUOUS
 62
     7
  0
POLYLINE
  5
14C
  8
0
  6
CONTINUOUS
 62
     7
 66
     1
 10
0.0
 20
0.0
 30
0.0
  0
VERTEX
  5
47F
  8
0
  6
CONTINUOUS
 62
     7
 10
76.7737916955
 20
689.2190271272
 30
0.0
  0
VERTEX
  5
480
  8
0
  6
CONTINUOUS
 62
     7
 10
71.4089731971
 20
691.6595989121
 30
0.0
  0
VERTEX
  5
481
  8
0
  6
CONTINUOUS
 62
     7
 10
68.3540861407
 20
692.8497546567
 30
0.0
  0
VERTEX
  5
482
  8
0
  6
CONTINUOUS
 62
     7
 10
65.1196270535
 20
693.9611130609
 30
0.0
  0
VERTEX
  5
483
  8
0
  6
CONTINUOUS
 62
     7
 10
59.9037782574
 20
695.4126649751
 30
0.0
  0
VERTEX
  5
484
  8
0
  6
CONTINUOUS
 62
     7
 10
54.2337951535
 20
696.4324110402
 30
0.0
  0
VERTEX
  5
485
  8
0
  6
CONTINUOUS
 62
     7
 10
48.9428147027
 20
696.7581206216
 30
0.0
  0
SEQEND
  5
66A
  8
0
  6
CONTINUOUS
 62
     7
  0
LINE
  5
14D
  8
0
  6
CONTINUOUS
 62
     7
 10
76.7259328911
 20
685.8190291776
 30
0.0
 11
76.7737916955
 21
689.2190271272
 31
0.0
  0
ARC
  5
14E
  8
0
  6
CONTINUOUS
 62
     7
 10
47.0384094771
 20
598.7317405791
 30
0.0
 40
98.04487719151858
 50
73.85814207
 51
88.8870275796
  0
LINE
  5
14F
  8
0
  6
CONTINUOUS
 62
     7
 10
94.9428147921
 20
689.2190271272
 30
0.0
 11
76.7737916955
 21
689.2190271272
 31
0.0
  0
LINE
  5
150
  8
0
  6
CONTINUOUS
 62
     7
 10
21.1118377099
 20
689.2190271272
 30
0.0
 11
2.9428146133
 21
689.2190271272
 31
0.0
  0
ARC
  5
151
  8
0
  6
CONTINUOUS
 62
     7
 10
51.4704301783
 20
594.6242484611
 30
0.0
 40
102.16514416614
 50
91.4176701679
 51
105.8371601824
  0
LINE
  5
152
  8
0
  6
CONTINUOUS
 62
     7
 10
21.1596965143
 20
685.8190291776
 30
0.0
 11
2.9428146133
 21
685.8190291776
 31
0.0
  0
LINE
  5
153
  8
0
  6
CONTINUOUS
 62
     7
 10
94.9428147921
 20
685.8190291776
 30
0.0
 11
76.7259328911
 21
685.8190291776
 31
0.0
  0
LINE
  5
154
  8
0
  6
CONTINUOUS
 62
     7
 10
57.915134477
 20
670.4190367116
 30
0.0
 11
65.2062698552
 21
670.4190367116
 31
0.0
  0
LINE
  5
155
  8
0
  6
CONTINUOUS
 62
     7
 10
65.2062698552
 20
670.4190367116
 30
0.0
 11
65.2062698552
 21
649.9190324201
 31
0.0
  0
LINE
  5
156
  8
0
  6
CONTINUOUS
 62
     7
 10
57.915134477
 20
670.4190367116
 30
0.0
 11
57.7447415614
 21
651.4190280093
 31
0.0
  0
LINE
  5
157
  8
0
  6
CONTINUOUS
 62
     7
 10
65.2062698552
 20
670.4190367116
 30
0.0
 11
74.5939473906
 21
670.4190367116
 31
0.0
  0
LINE
  5
158
  8
0
  6
CONTINUOUS
 62
     7
 10
74.5939473906
 20
670.4190367116
 30
0.0
 11
75.6239361414
 21
649.5629095687
 31
0.0
  0
LINE
  5
159
  8
0
  6
CONTINUOUS
 62
     7
 10
23.5891278187
 20
692.9113262548
 30
0.0
 11
24.4428153435
 21
741.8190234555
 31
0.0
  0
LINE
  5
15A
  8
0
  6
CONTINUOUS
 62
     7
 10
24.4428153435
 20
741.8190234555
 30
0.0
 11
73.442814062
 21
741.8190234555
 31
0.0
  0
LINE
  5
15B
  8
0
  6
CONTINUOUS
 62
     7
 10
74.2965015867
 20
692.9113262548
 30
0.0
 11
73.442814062
 21
741.8190234555
 31
0.0
  0
POLYLINE
  5
15C
  8
0
  6
CONTINUOUS
 62
     7
 66
     1
 10
0.0
 20
0.0
 30
0.0
  0
VERTEX
  5
486
  8
0
  6
CONTINUOUS
 62
     7
 10
24.939765344
 20
631.8608665122
 30
0.0
  0
VERTEX
  5
487
  8
0
  6
CONTINUOUS
 62
     7
 10
25.1154146442
 20
631.9617622747
 30
0.0
  0
VERTEX
  5
488
  8
0
  6
CONTINUOUS
 62
     7
 10
25.2857572684
 20
631.8479472055
 30
0.0
  0
VERTEX
  5
489
  8
0
  6
CONTINUOUS
 62
     7
 10
25.4506348917
 20
631.5195554151
 30
0.0
  0
SEQEND
  5
669
  8
0
  6
CONTINUOUS
 62
     7
  0
LINE
  5
15D
  8
0
  6
CONTINUOUS
 62
     7
 10
24.939765344
 20
649.9190324201
 30
0.0
 11
26.8443907896
 21
649.9190324201
 31
0.0
  0
POLYLINE
  5
15E
  8
0
  6
CONTINUOUS
 62
     7
 66
     1
 10
0.0
 20
0.0
 30
0.0
  0
VERTEX
  5
48A
  8
0
  6
CONTINUOUS
 62
     7
 10
72.434882755
 20
631.5192573918
 30
0.0
  0
VERTEX
  5
48B
  8
0
  6
CONTINUOUS
 62
     7
 10
72.5997939059
 20
631.8478428973
 30
0.0
  0
VERTEX
  5
48C
  8
0
  6
CONTINUOUS
 62
     7
 10
72.7701756457
 20
631.9617622747
 30
0.0
  0
VERTEX
  5
48D
  8
0
  6
CONTINUOUS
 62
     7
 10
72.9458640614
 20
631.8608665122
 30
0.0
  0
SEQEND
  5
668
  8
0
  6
CONTINUOUS
 62
     7
  0
LINE
  5
15F
  8
0
  6
CONTINUOUS
 62
     7
 10
71.0412386158
 20
649.9190324201
 30
0.0
 11
72.9458640614
 21
649.9190324201
 31
0.0
  0
LINE
  5
160
  8
0
  6
CONTINUOUS
 62
     7
 10
32.7755875239
 20
670.4190367116
 30
0.0
 11
32.8308875957
 21
649.9190324201
 31
0.0
  0
LINE
  5
161
  8
0
  6
CONTINUOUS
 62
     7
 10
27.0225043693
 20
670.4190367116
 30
0.0
 11
27.0225043693
 21
649.9190324201
 31
0.0
  0
LINE
  5
162
  8
0
  6
CONTINUOUS
 62
     7
 10
27.0225043693
 20
670.4190367116
 30
0.0
 11
32.7755875239
 21
670.4190367116
 31
0.0
  0
LINE
  5
163
  8
0
  6
CONTINUOUS
 62
     7
 10
17.6348268339
 20
670.4190367116
 30
0.0
 11
16.5551482985
 21
648.5566937579
 31
0.0
  0
LINE
  5
164
  8
0
  6
CONTINUOUS
 62
     7
 10
17.6348268339
 20
670.4190367116
 30
0.0
 11
27.0225043693
 21
670.4190367116
 31
0.0
  0
LINE
  5
165
  8
0
  6
CONTINUOUS
 62
     7
 10
32.7755875239
 20
670.4190367116
 30
0.0
 11
57.915134477
 21
670.4190367116
 31
0.0
  0
LINE
  5
166
  8
0
  6
CONTINUOUS
 62
     7
 10
24.5467230031
 20
631.5193617
 30
0.0
 11
24.939765344
 21
631.8608665122
 31
0.0
  0
LINE
  5
167
  8
0
  6
CONTINUOUS
 62
     7
 10
72.9458640614
 20
631.8608665122
 30
0.0
 11
73.3388486603
 21
631.5193915023
 31
0.0
  0
LINE
  5
168
  8
0
  6
CONTINUOUS
 62
     7
 10
24.2813612619
 20
649.9190324201
 30
0.0
 11
23.7124423781
 21
649.8187178029
 31
0.0
  0
LINE
  5
169
  8
0
  6
CONTINUOUS
 62
     7
 10
23.7124423781
 20
631.6126280679
 30
0.0
 11
23.8474226841
 21
631.5187656535
 31
0.0
  0
LINE
  5
16A
  8
0
  6
CONTINUOUS
 62
     7
 10
24.2813612619
 20
649.9190324201
 30
0.0
 11
24.939765344
 21
649.9190324201
 31
0.0
  0
LINE
  5
16B
  8
0
  6
CONTINUOUS
 62
     7
 10
73.6042681435
 20
649.9190324201
 30
0.0
 11
74.1731870273
 21
649.8187178029
 31
0.0
  0
LINE
  5
16C
  8
0
  6
CONTINUOUS
 62
     7
 10
74.0386779705
 20
631.5190338744
 30
0.0
 11
74.1731870273
 21
631.6126280679
 31
0.0
  0
LINE
  5
16D
  8
0
  6
CONTINUOUS
 62
     7
 10
72.9458640614
 20
649.9190324201
 30
0.0
 11
73.6042681435
 21
649.9190324201
 31
0.0
  0
LINE
  5
16E
  8
0
  6
CONTINUOUS
 62
     7
 10
22.9688204178
 20
631.4190321816
 30
0.0
 11
23.2833932439
 21
631.4190321816
 31
0.0
  0
POLYLINE
  5
16F
  8
0
  6
CONTINUOUS
 62
     7
 66
     1
 10
0.0
 20
0.0
 30
0.0
  0
VERTEX
  5
48E
  8
0
  6
CONTINUOUS
 62
     7
 10
22.9688204178
 20
631.4190321816
 30
0.0
  0
VERTEX
  5
48F
  8
0
  6
CONTINUOUS
 62
     7
 10
23.3454267779
 20
631.711273755
 30
0.0
  0
VERTEX
  5
490
  8
0
  6
CONTINUOUS
 62
     7
 10
23.7124423781
 20
631.6126280679
 30
0.0
  0
SEQEND
  5
667
  8
0
  6
CONTINUOUS
 62
     7
  0
POLYLINE
  5
170
  8
0
  6
CONTINUOUS
 62
     7
 66
     1
 10
0.0
 20
0.0
 30
0.0
  0
VERTEX
  5
491
  8
0
  6
CONTINUOUS
 62
     7
 10
74.1731870273
 20
631.6126280679
 30
0.0
  0
VERTEX
  5
492
  8
0
  6
CONTINUOUS
 62
     7
 10
74.5402026275
 20
631.711273755
 30
0.0
  0
VERTEX
  5
493
  8
0
  6
CONTINUOUS
 62
     7
 10
74.9168089876
 20
631.4190321816
 30
0.0
  0
SEQEND
  5
666
  8
0
  6
CONTINUOUS
 62
     7
  0
LINE
  5
171
  8
0
  6
CONTINUOUS
 62
     7
 10
74.6824640134
 20
631.4190321816
 30
0.0
 11
74.9168089876
 21
631.4190321816
 31
0.0
  0
POLYLINE
  5
172
  8
0
  6
CONTINUOUS
 62
     7
 66
     1
 10
0.0
 20
0.0
 30
0.0
  0
VERTEX
  5
494
  8
0
  6
CONTINUOUS
 62
     7
 10
86.8474274227
 20
634.4667368783
 30
0.0
  0
VERTEX
  5
495
  8
0
  6
CONTINUOUS
 62
     7
 10
84.2393144319
 20
632.3857599153
 30
0.0
  0
VERTEX
  5
496
  8
0
  6
CONTINUOUS
 62
     7
 10
83.4763675282
 20
631.4190321816
 30
0.0
  0
SEQEND
  5
665
  8
0
  6
CONTINUOUS
 62
     7
  0
LINE
  5
173
  8
0
  6
CONTINUOUS
 62
     7
 10
74.9168089876
 20
631.4190321816
 30
0.0
 11
83.4763675282
 21
631.4190321816
 31
0.0
  0
POLYLINE
  5
174
  8
0
  6
CONTINUOUS
 62
     7
 66
     1
 10
0.0
 20
0.0
 30
0.0
  0
VERTEX
  5
497
  8
0
  6
CONTINUOUS
 62
     7
 10
74.1731870273
 20
649.8187178029
 30
0.0
  0
VERTEX
  5
498
  8
0
  6
CONTINUOUS
 62
     7
 10
76.3045802066
 20
649.4428956164
 30
0.0
  0
VERTEX
  5
499
  8
0
  6
CONTINUOUS
 62
     7
 10
78.6887361953
 20
649.0225040568
 30
0.0
  0
VERTEX
  5
49A
  8
0
  6
CONTINUOUS
 62
     7
 10
81.2766059587
 20
648.5662006988
 30
0.0
  0
VERTEX
  5
49B
  8
0
  6
CONTINUOUS
 62
     7
 10
84.0149476478
 20
648.0833434714
 30
0.0
  0
VERTEX
  5
49C
  8
0
  6
CONTINUOUS
 62
     7
 10
86.8474274227
 20
647.5839012517
 30
0.0
  0
SEQEND
  5
664
  8
0
  6
CONTINUOUS
 62
     7
  0
LINE
  5
175
  8
0
  6
CONTINUOUS
 62
     7
 10
14.4092618773
 20
631.4190321816
 30
0.0
 11
22.9688204178
 21
631.4190321816
 31
0.0
  0
POLYLINE
  5
176
  8
0
  6
CONTINUOUS
 62
     7
 66
     1
 10
0.0
 20
0.0
 30
0.0
  0
VERTEX
  5
49D
  8
0
  6
CONTINUOUS
 62
     7
 10
11.0382019827
 20
634.4667368783
 30
0.0
  0
VERTEX
  5
49E
  8
0
  6
CONTINUOUS
 62
     7
 10
13.6463149735
 20
632.3857599153
 30
0.0
  0
VERTEX
  5
49F
  8
0
  6
CONTINUOUS
 62
     7
 10
14.4092618773
 20
631.4190321816
 30
0.0
  0
SEQEND
  5
663
  8
0
  6
CONTINUOUS
 62
     7
  0
POLYLINE
  5
177
  8
0
  6
CONTINUOUS
 62
     7
 66
     1
 10
0.0
 20
0.0
 30
0.0
  0
VERTEX
  5
4A0
  8
0
  6
CONTINUOUS
 62
     7
 10
23.7124423781
 20
649.8187178029
 30
0.0
  0
VERTEX
  5
4A1
  8
0
  6
CONTINUOUS
 62
     7
 10
21.5810491988
 20
649.4428956164
 30
0.0
  0
VERTEX
  5
4A2
  8
0
  6
CONTINUOUS
 62
     7
 10
19.1968932101
 20
649.0225040568
 30
0.0
  0
VERTEX
  5
4A3
  8
0
  6
CONTINUOUS
 62
     7
 10
16.6090234468
 20
648.5662006988
 30
0.0
  0
VERTEX
  5
4A4
  8
0
  6
CONTINUOUS
 62
     7
 10
13.8706817576
 20
648.0833434714
 30
0.0
  0
VERTEX
  5
4A5
  8
0
  6
CONTINUOUS
 62
     7
 10
11.0382019827
 20
647.5839012517
 30
0.0
  0
SEQEND
  5
662
  8
0
  6
CONTINUOUS
 62
     7
  0
ARC
  5
178
  8
0
  6
CONTINUOUS
 62
     7
 10
101.34280046
 20
634.4297584959
 30
0.0
 40
2.999955815997537
 50
222.0711258316
 51
275.0003490991
  0
ARC
  5
179
  8
0
  6
CONTINUOUS
 62
     7
 10
92.3428266634
 20
634.429798949
 30
0.0
 40
11.99999674773176
 50
39.4852634749
 51
80.0000502565
  0
ARC
  5
17A
  8
0
  6
CONTINUOUS
 62
     7
 10
91.6928123104
 20
625.719022191
 30
0.0
 40
10.00001334796465
 50
42.0716890049
 51
118.9821975135
  0
LINE
  5
17B
  8
0
  6
CONTINUOUS
 62
     7
 10
86.8474274227
 20
647.5839012517
 30
0.0
 11
94.4265938649
 21
646.24749061
 31
0.0
  0
ARC
  5
17C
  8
0
  6
CONTINUOUS
 62
     7
 10
5.542802742
 20
634.429798949
 30
0.0
 40
11.99999674773176
 50
99.9999497435
 51
140.5147365251
  0
ARC
  5
17D
  8
0
  6
CONTINUOUS
 62
     7
 10
-3.4571710546
 20
634.4297584959
 30
0.0
 40
2.999955815997536
 50
264.9996509009
 51
317.9288741684
  0
ARC
  5
17E
  8
0
  6
CONTINUOUS
 62
     7
 10
6.192817095
 20
625.719022191
 30
0.0
 40
10.00001334796465
 50
61.0178024865
 51
137.9283109951
  0
LINE
  5
17F
  8
0
  6
CONTINUOUS
 62
     7
 10
11.0382019827
 20
647.5839012517
 30
0.0
 11
3.4590355405
 21
646.24749061
 31
0.0
  0
ARC
  5
180
  8
0
  6
CONTINUOUS
 62
     7
 10
101.3428222481
 20
634.4297961995
 30
0.0
 40
2.999991477117115
 50
274.9998717952
 51
0.0000133722
  0
ARC
  5
181
  8
0
  6
CONTINUOUS
 62
     7
 10
92.3434085682
 20
634.4300230212
 30
0.0
 40
11.99940515908177
 50
359.9989202956
 51
39.4862045339
  0
ARC
  5
182
  8
0
  6
CONTINUOUS
 62
     7
 10
-3.4571928427
 20
634.4297961995
 30
0.0
 40
2.999991477117115
 50
179.9999866278
 51
265.0001282048
  0
ARC
  5
183
  8
0
  6
CONTINUOUS
 62
     7
 10
5.5422208372
 20
634.4300230212
 30
0.0
 40
11.99940515908177
 50
140.5137954661
 51
180.0010797044
  0
ARC
  5
184
  8
0
  6
CONTINUOUS
 62
     7
 10
48.9428147027
 20
696.9781168855
 30
0.0
 40
13.99997784733999
 50
232.8520614836
 51
307.1479385164
  0
POLYLINE
  5
185
  8
0
  6
CONTINUOUS
 62
     7
 66
     1
 10
0.0
 20
0.0
 30
0.0
  0
VERTEX
  5
4A6
  8
0
  6
CONTINUOUS
 62
     7
 10
62.9428151348
 20
682.9781525983
 30
0.0
  0
VERTEX
  5
4A7
  8
0
  6
CONTINUOUS
 62
     7
 10
62.8252785006
 20
683.0956929578
 30
0.0
  0
VERTEX
  5
4A8
  8
0
  6
CONTINUOUS
 62
     7
 10
62.4746430019
 20
683.4463172807
 30
0.0
  0
VERTEX
  5
4A9
  8
0
  6
CONTINUOUS
 62
     7
 10
61.8967964599
 20
684.0241545095
 30
0.0
  0
VERTEX
  5
4AA
  8
0
  6
CONTINUOUS
 62
     7
 10
61.1014404619
 20
684.8195188893
 30
0.0
  0
VERTEX
  5
4AB
  8
0
  6
CONTINUOUS
 62
     7
 10
60.1019301736
 20
685.8190291776
 30
0.0
  0
SEQEND
  5
661
  8
0
  6
CONTINUOUS
 62
     7
  0
POLYLINE
  5
186
  8
0
  6
CONTINUOUS
 62
     7
 66
     1
 10
0.0
 20
0.0
 30
0.0
  0
VERTEX
  5
4AC
  8
0
  6
CONTINUOUS
 62
     7
 10
37.7836992318
 20
685.8190291776
 30
0.0
  0
VERTEX
  5
4AD
  8
0
  6
CONTINUOUS
 62
     7
 10
36.7841889435
 20
684.8195188893
 30
0.0
  0
VERTEX
  5
4AE
  8
0
  6
CONTINUOUS
 62
     7
 10
35.9888329455
 20
684.0241545095
 30
0.0
  0
VERTEX
  5
4AF
  8
0
  6
CONTINUOUS
 62
     7
 10
35.4109864035
 20
683.4463172807
 30
0.0
  0
VERTEX
  5
4B0
  8
0
  6
CONTINUOUS
 62
     7
 10
35.0603509048
 20
683.0956929578
 30
0.0
  0
VERTEX
  5
4B1
  8
0
  6
CONTINUOUS
 62
     7
 10
34.9428142706
 20
682.9781525983
 30
0.0
  0
SEQEND
  5
660
  8
0
  6
CONTINUOUS
 62
     7
  0
LINE
  5
187
  8
0
  6
CONTINUOUS
 62
     7
 10
106.4428157458
 20
559.5190369739
 30
0.0
 11
106.3903226802
 21
559.5190369739
 31
0.0
  0
LINE
  5
188
  8
0
  6
CONTINUOUS
 62
     7
 10
-8.5046932748
 20
559.5190369739
 30
0.0
 11
-8.5571863404
 21
559.5190369739
 31
0.0
  0
LINE
  5
189
  8
0
  6
CONTINUOUS
 62
     7
 10
-23.5571832111
 20
375.0690327241
 30
0.0
 11
121.4428126165
 21
375.0690327241
 31
0.0
  0
LINE
  5
18A
  8
0
  6
CONTINUOUS
 62
     7
 10
121.4428126165
 20
519.8190354957
 30
0.0
 11
95.4004480788
 21
519.8190354957
 31
0.0
  0
LINE
  5
18B
  8
0
  6
CONTINUOUS
 62
     7
 10
121.4428126165
 20
519.7051980747
 30
0.0
 11
121.4428126165
 21
519.8190354957
 31
0.0
  0
CIRCLE
  5
18C
  8
0
  6
CONTINUOUS
 62
     7
 10
108.9428147027
 20
494.6190339459
 30
0.0
 40
12.5
  0
LINE
  5
18D
  8
0
  6
CONTINUOUS
 62
     7
 10
-23.5571832111
 20
519.7051980747
 30
0.0
 11
-23.5571832111
 21
519.8190354957
 31
0.0
  0
CIRCLE
  5
18E
  8
0
  6
CONTINUOUS
 62
     7
 10
-11.0571852973
 20
494.6190339459
 30
0.0
 40
12.49999999999999
  0
LINE
  5
18F
  8
0
  6
CONTINUOUS
 62
     7
 10
-23.5571832111
 20
519.8190354957
 30
0.0
 11
2.4851813266
 21
519.8190354957
 31
0.0
  0
LINE
  5
190
  8
0
  6
CONTINUOUS
 62
     7
 10
80.2508025715
 20
670.4190367116
 30
0.0
 11
81.3304811069
 21
648.5566937579
 31
0.0
  0
LINE
  5
191
  8
0
  6
CONTINUOUS
 62
     7
 10
74.5939473906
 20
670.4190367116
 30
0.0
 11
80.2508025715
 21
670.4190367116
 31
0.0
  0
LINE
  5
192
  8
0
  6
CONTINUOUS
 62
     8
 10
7.0591598103
 20
549.6190333022
 30
0.0
 11
6.8358957121
 21
559.6190386666
 31
0.0
  0
LINE
  5
193
  8
0
  6
CONTINUOUS
 62
     8
 10
90.8264695951
 20
549.6190333022
 30
0.0
 11
91.0497336933
 21
559.6190386666
 31
0.0
  0
LINE
  5
194
  8
0
  6
CONTINUOUS
 62
     8
 10
7.4510678002
 20
571.5190314902
 30
0.0
 11
7.3585092375
 21
559.6190386666
 31
0.0
  0
LINE
  5
195
  8
0
  6
CONTINUOUS
 62
     8
 10
90.4345616052
 20
571.5190314902
 30
0.0
 11
90.5271201679
 21
559.6190386666
 31
0.0
  0
LINE
  5
196
  8
0
  6
CONTINUOUS
 62
     8
 10
8.082750375
 20
548.5442796005
 30
0.0
 11
7.0591598103
 21
549.6190333022
 31
0.0
  0
LINE
  5
197
  8
0
  6
CONTINUOUS
 62
     8
 10
89.8028790304
 20
548.5442796005
 30
0.0
 11
90.8264695951
 21
549.6190333022
 31
0.0
  0
LINE
  5
198
  8
0
  6
CONTINUOUS
 62
     8
 10
90.4345616052
 20
589.519038166
 30
0.0
 11
90.4345616052
 21
571.5190314902
 31
0.0
  0
LINE
  5
199
  8
0
  6
CONTINUOUS
 62
     8
 10
7.4510678002
 20
589.519038166
 30
0.0
 11
7.4510678002
 21
571.5190314902
 31
0.0
  0
LINE
  5
19A
  8
0
  6
CONTINUOUS
 62
     8
 10
-1.7304428568
 20
549.6190333022
 30
0.0
 11
-2.5879227272
 21
559.6190386666
 31
0.0
  0
LINE
  5
19B
  8
0
  6
CONTINUOUS
 62
     8
 10
99.6160722622
 20
549.6190333022
 30
0.0
 11
100.4735521326
 21
559.6190386666
 31
0.0
  0
LINE
  5
19C
  8
0
  6
CONTINUOUS
 62
     8
 10
95.8152181754
 20
548.5799231781
 30
0.0
 11
99.6160722622
 21
549.6190333022
 31
0.0
  0
LINE
  5
19D
  8
0
  6
CONTINUOUS
 62
     8
 10
2.07041123
 20
548.5799231781
 30
0.0
 11
-1.7304428568
 21
549.6190333022
 31
0.0
  0
LINE
  5
19E
  8
0
  6
CONTINUOUS
 62
     8
 10
-1.1038490286
 20
571.5190314902
 30
0.0
 11
-1.4065549424
 21
559.6190386666
 31
0.0
  0
LINE
  5
19F
  8
0
  6
CONTINUOUS
 62
     8
 10
98.989478434
 20
571.5190314902
 30
0.0
 11
99.2921843478
 21
559.6190386666
 31
0.0
  0
LINE
  5
1A0
  8
0
  6
CONTINUOUS
 62
     8
 10
-1.1038490286
 20
589.519038166
 30
0.0
 11
-1.1038490286
 21
571.5190314902
 31
0.0
  0
LINE
  5
1A1
  8
0
  6
CONTINUOUS
 62
     8
 10
98.989478434
 20
589.519038166
 30
0.0
 11
98.989478434
 21
571.5190314902
 31
0.0
  0
LINE
  5
1A2
  8
0
  6
CONTINUOUS
 62
     8
 10
78.1706544855
 20
546.7598357452
 30
0.0
 11
78.1706544855
 21
439.6975043444
 31
0.0
  0
LINE
  5
1A3
  8
0
  6
CONTINUOUS
 62
     8
 10
19.7149749199
 20
546.7598357452
 30
0.0
 11
19.7149749199
 21
439.6975043444
 31
0.0
  0
LINE
  5
1A4
  8
0
  6
CONTINUOUS
 62
     8
 10
26.6832142422
 20
404.6254393859
 30
0.0
 11
71.2024151632
 21
404.6254393859
 31
0.0
  0
LINE
  5
1A5
  8
0
  6
CONTINUOUS
 62
     8
 10
48.9428147019
 20
631.4190321816
 30
0.0
 11
48.9428147019
 21
631.5190338744
 31
0.0
  0
LINE
  5
1A6
  8
0
  6
CONTINUOUS
 62
     8
 10
90.5977144191
 20
529.6190374745
 30
0.0
 11
90.5977144191
 21
492.7838587417
 31
0.0
  0
LINE
  5
1A7
  8
0
  6
CONTINUOUS
 62
     8
 10
7.2879149863
 20
529.6190374745
 30
0.0
 11
7.2879149863
 21
492.7838587417
 31
0.0
  0
LINE
  5
1A8
  8
0
  6
CONTINUOUS
 62
     8
 10
36.008501547
 20
649.9190324201
 30
0.0
 11
36.008501547
 21
631.5190338744
 31
0.0
  0
LINE
  5
1A9
  8
0
  6
CONTINUOUS
 62
     8
 10
61.8771278584
 20
649.9190324201
 30
0.0
 11
61.8771278584
 21
631.5190338744
 31
0.0
  0
LINE
  5
1AA
  8
0
  6
CONTINUOUS
 62
     8
 10
71.0412386158
 20
649.9190324201
 30
0.0
 11
71.0412386158
 21
631.5190338744
 31
0.0
  0
LINE
  5
1AB
  8
0
  6
CONTINUOUS
 62
     8
 10
26.8443907896
 20
649.9190324201
 30
0.0
 11
26.8443907896
 21
631.5190338744
 31
0.0
  0
LINE
  5
1AC
  8
0
  6
CONTINUOUS
 62
     8
 10
24.939765344
 20
649.9190324201
 30
0.0
 11
24.939765344
 21
631.8608665122
 31
0.0
  0
LINE
  5
1AD
  8
0
  6
CONTINUOUS
 62
     8
 10
72.9458640614
 20
649.9190324201
 30
0.0
 11
72.9458640614
 21
631.8608665122
 31
0.0
  0
LINE
  5
1AE
  8
0
  6
CONTINUOUS
 62
     8
 10
23.7124423781
 20
649.8187178029
 30
0.0
 11
23.7124423781
 21
631.6126280679
 31
0.0
  0
LINE
  5
1AF
  8
0
  6
CONTINUOUS
 62
     8
 10
74.1731870273
 20
649.8187178029
 30
0.0
 11
74.1731870273
 21
631.6126280679
 31
0.0
  0
LINE
  5
1B0
  8
0
  6
CONTINUOUS
 62
     8
 10
86.8474274227
 20
647.5839012517
 30
0.0
 11
86.8474274227
 21
634.4667368783
 31
0.0
  0
LINE
  5
1B1
  8
0
  6
CONTINUOUS
 62
     8
 10
11.0382019827
 20
647.5839012517
 30
0.0
 11
11.0382019827
 21
634.4667368783
 31
0.0
  0
LINE
  5
1B2
  8
0
  6
CONTINUOUS
 62
     8
 10
101.6042820463
 20
642.0603537215
 30
0.0
 11
101.6042820463
 21
631.4412200107
 31
0.0
  0
LINE
  5
1B3
  8
0
  6
CONTINUOUS
 62
     8
 10
-3.7186526409
 20
642.0603537215
 30
0.0
 11
-3.7186526409
 21
631.4412200107
 31
0.0
  0
LINE
  5
1B4
  8
FORMAT
  6
CENTERX2
 10
48.9428147027
 20
339.8190339459
 30
0.0
 11
48.9428147027
 21
521.8190339459
 31
0.0
  0
LINE
  5
1B5
  8
FORMAT
  6
CENTERX2
 10
-55.2989683998
 20
430.8190339459
 30
0.0
 11
153.5704307136
 21
430.8190339459
 31
0.0
  0
LINE
  5
1B6
  8
0
  6
CONTINUOUS
 62
     7
 10
645.0571571599
 20
631.4298057212
 30
0.0
 11
651.3716005843
 21
631.4298057212
 31
0.0
  0
LINE
  5
1B7
  8
0
  6
CONTINUOUS
 62
     7
 10
617.5177642267
 20
631.4298057212
 30
0.0
 11
623.8352903287
 21
631.4298057212
 31
0.0
  0
LINE
  5
1B8
  8
0
  6
CONTINUOUS
 62
     7
 10
678.444682167
 20
589.519038166
 30
0.0
 11
678.444682167
 21
574.7782730712
 31
0.0
  0
LINE
  5
1B9
  8
0
  6
CONTINUOUS
 62
     7
 10
590.4446826439
 20
575.5617612256
 30
0.0
 11
590.4446826439
 21
589.519038166
 31
0.0
  0
LINE
  5
1BA
  8
0
  6
CONTINUOUS
 62
     7
 10
569.4228173356
 20
548.4388985886
 30
0.0
 11
571.0693434935
 21
529.6190374745
 31
0.0
  0
LINE
  5
1BB
  8
0
  6
CONTINUOUS
 62
     7
 10
697.8200213175
 20
529.6190374745
 30
0.0
 11
699.4665474753
 21
548.4388985886
 31
0.0
  0
LINE
  5
1BC
  8
0
  6
CONTINUOUS
 62
     7
 10
693.4446827631
 20
613.8362431182
 30
0.0
 11
693.4446827631
 21
631.2561475886
 31
0.0
  0
LINE
  5
1BD
  8
0
  6
CONTINUOUS
 62
     7
 10
575.4446820478
 20
631.2561475886
 30
0.0
 11
575.4446820478
 21
613.8409667863
 31
0.0
  0
LINE
  5
1BE
  8
0
  6
CONTINUOUS
 62
     7
 10
575.4446820478
 20
631.5190338744
 30
0.0
 11
575.4446820478
 21
631.2561475886
 31
0.0
  0
LINE
  5
1BF
  8
0
  6
CONTINUOUS
 62
     7
 10
559.4538063865
 20
559.5147752418
 30
0.0
 11
560.3195713024
 21
549.6190333022
 31
0.0
  0
LINE
  5
1C0
  8
0
  6
CONTINUOUS
 62
     7
 10
559.4534338574
 20
559.5190369739
 30
0.0
 11
559.4538063865
 21
559.5147752418
 31
0.0
  0
LINE
  5
1C1
  8
0
  6
CONTINUOUS
 62
     7
 10
709.4355584245
 20
559.5147752418
 30
0.0
 11
709.4359309535
 21
559.5190369739
 31
0.0
  0
LINE
  5
1C2
  8
0
  6
CONTINUOUS
 62
     7
 10
708.5697935085
 20
549.6190333022
 30
0.0
 11
709.4355584245
 21
559.5147752418
 31
0.0
  0
LINE
  5
1C3
  8
0
  6
CONTINUOUS
 62
     7
 10
560.3195713024
 20
549.6190333022
 30
0.0
 11
569.5356191258
 21
547.149597968
 31
0.0
  0
LINE
  5
1C4
  8
0
  6
CONTINUOUS
 62
     7
 10
699.3537456851
 20
547.149597968
 30
0.0
 11
708.5697935085
 21
549.6190333022
 31
0.0
  0
LINE
  5
1C5
  8
0
  6
CONTINUOUS
 62
     7
 10
559.7589151125
 20
571.5190314902
 30
0.0
 11
559.4473020296
 21
559.6190386666
 31
0.0
  0
LINE
  5
1C6
  8
0
  6
CONTINUOUS
 62
     7
 10
709.4420627813
 20
559.6190386666
 30
0.0
 11
709.1304496984
 21
571.5190314902
 31
0.0
  0
LINE
  5
1C7
  8
0
  6
CONTINUOUS
 62
     7
 10
698.4446854453
 20
523.0990343942
 30
0.0
 11
698.4446854453
 21
536.7589288606
 31
0.0
  0
LINE
  5
1C8
  8
0
  6
CONTINUOUS
 62
     7
 10
698.4446854453
 20
492.6656180276
 30
0.0
 11
698.4446854453
 21
505.8190369262
 31
0.0
  0
LINE
  5
1C9
  8
0
  6
CONTINUOUS
 62
     7
 10
570.4446793656
 20
536.7589288606
 30
0.0
 11
570.4446793656
 21
492.6656180276
 31
0.0
  0
LINE
  5
1CA
  8
0
  6
CONTINUOUS
 62
     7
 10
699.9446810346
 20
505.8190369262
 30
0.0
 11
699.9446810346
 21
511.5546726836
 31
0.0
  0
ARC
  5
1CB
  8
0
  6
CONTINUOUS
 62
     7
 10
682.4446824055
 20
559.5190339459
 30
0.0
 40
120.0000000000001
 50
153.0843020093
 51
165.5224878141
  0
POLYLINE
  5
1CC
  8
0
  6
CONTINUOUS
 62
     7
 66
     1
 10
0.0
 20
0.0
 30
0.0
  0
VERTEX
  5
4B2
  8
0
  6
CONTINUOUS
 62
     7
 10
564.6563531022
 20
582.4517601384
 30
0.0
  0
VERTEX
  5
4B3
  8
0
  6
CONTINUOUS
 62
     7
 10
563.7279735069
 20
577.0217173947
 30
0.0
  0
VERTEX
  5
4B4
  8
0
  6
CONTINUOUS
 62
     7
 10
563.0463347893
 20
571.5204471005
 30
0.0
  0
SEQEND
  5
65F
  8
0
  6
CONTINUOUS
 62
     7
  0
POLYLINE
  5
1CD
  8
0
  6
CONTINUOUS
 62
     7
 66
     1
 10
0.0
 20
0.0
 30
0.0
  0
VERTEX
  5
4B5
  8
0
  6
CONTINUOUS
 62
     7
 10
705.8430523734
 20
571.5202682866
 30
0.0
  0
VERTEX
  5
4B6
  8
0
  6
CONTINUOUS
 62
     7
 10
705.1614509086
 20
577.0212852611
 30
0.0
  0
VERTEX
  5
4B7
  8
0
  6
CONTINUOUS
 62
     7
 10
704.2330117087
 20
582.4517601384
 30
0.0
  0
SEQEND
  5
65E
  8
0
  6
CONTINUOUS
 62
     7
  0
ARC
  5
1CE
  8
0
  6
CONTINUOUS
 62
     7
 10
586.4446824055
 20
559.5190339459
 30
0.0
 40
120.0000000000001
 50
14.4775121859
 51
26.914683462
  0
LINE
  5
1CF
  8
0
  6
CONTINUOUS
 62
     7
 10
602.1864325862
 20
651.1772864713
 30
0.0
 11
601.9446835976
 21
651.4190280093
 31
0.0
  0
LINE
  5
1D0
  8
0
  6
CONTINUOUS
 62
     7
 10
576.9446813624
 20
651.4190280093
 30
0.0
 11
575.4446820478
 21
649.9190324201
 31
0.0
  0
LINE
  5
1D1
  8
0
  6
CONTINUOUS
 62
     7
 10
693.4446827631
 20
649.9190324201
 30
0.0
 11
691.9446834485
 21
651.4190280093
 31
0.0
  0
LINE
  5
1D2
  8
0
  6
CONTINUOUS
 62
     7
 10
666.9446812134
 20
651.4190280093
 30
0.0
 11
665.4446818988
 21
649.9190324201
 31
0.0
  0
LINE
  5
1D3
  8
0
  6
CONTINUOUS
 62
     7
 10
648.4446828376
 20
670.4190367116
 30
0.0
 11
648.4446828376
 21
682.9781525983
 31
0.0
  0
LINE
  5
1D4
  8
0
  6
CONTINUOUS
 62
     7
 10
620.4446819733
 20
682.9781525983
 30
0.0
 11
620.4446819733
 21
670.4190367116
 31
0.0
  0
LINE
  5
1D5
  8
0
  6
CONTINUOUS
 62
     7
 10
693.4446827631
 20
631.509199108
 30
0.0
 11
693.4446827631
 21
649.9190324201
 31
0.0
  0
LINE
  5
1D6
  8
0
  6
CONTINUOUS
 62
     7
 10
575.4446820478
 20
649.9190324201
 30
0.0
 11
575.4446820478
 21
631.509199108
 31
0.0
  0
LINE
  5
1D7
  8
0
  6
CONTINUOUS
 62
     7
 10
559.4447241287
 20
559.5205419911
 30
0.0
 11
559.4446794252
 21
559.5190369739
 31
0.0
  0
LINE
  5
1D8
  8
0
  6
CONTINUOUS
 62
     7
 10
709.4446853857
 20
559.5190369739
 30
0.0
 11
709.4446406822
 21
559.5205419911
 31
0.0
  0
CIRCLE
  5
1D9
  8
0
  6
CONTINUOUS
 62
     7
 10
583.1794407694
 20
379.5537923099
 30
0.0
 40
9.5
  0
CIRCLE
  5
1DA
  8
0
  6
CONTINUOUS
 62
     7
 10
634.4446824055
 20
430.8190339459
 30
0.0
 40
88.99999999999989
  0
CIRCLE
  5
1DB
  8
0
  6
CONTINUOUS
 62
     7
 10
634.4446824055
 20
430.8190339459
 30
0.0
 40
31.74999999999989
  0
CIRCLE
  5
1DC
  8
0
  6
CONTINUOUS
 62
     7
 10
583.1794407694
 20
482.084275582
 30
0.0
 40
9.5
  0
CIRCLE
  5
1DD
  8
0
  6
CONTINUOUS
 62
     7
 10
685.7099240415
 20
482.084275582
 30
0.0
 40
9.5
  0
CIRCLE
  5
1DE
  8
0
  6
CONTINUOUS
 62
     7
 10
685.7099240415
 20
379.5537923099
 30
0.0
 40
9.500000000000114
  0
LINE
  5
1DF
  8
0
  6
CONTINUOUS
 62
     7
 10
676.4446818392
 20
341.8190323962
 30
0.0
 11
634.4446824055
 21
341.8190323962
 31
0.0
  0
LINE
  5
1E0
  8
0
  6
CONTINUOUS
 62
     7
 10
681.2965073745
 20
355.149313177
 30
0.0
 11
676.4446818392
 21
341.8190323962
 31
0.0
  0
LINE
  5
1E1
  8
0
  6
CONTINUOUS
 62
     7
 10
592.4446829717
 20
341.8190323962
 30
0.0
 11
634.4446824055
 21
341.8190323962
 31
0.0
  0
LINE
  5
1E2
  8
0
  6
CONTINUOUS
 62
     7
 10
587.5928574364
 20
355.149313177
 30
0.0
 11
592.4446829717
 21
341.8190323962
 31
0.0
  0
LINE
  5
1E3
  8
0
  6
CONTINUOUS
 62
     7
 10
629.9446825992
 20
519.7051980747
 30
0.0
 11
629.9446825992
 21
519.8190354957
 31
0.0
  0
LINE
  5
1E4
  8
0
  6
CONTINUOUS
 62
     7
 10
634.4446824055
 20
519.8190354957
 30
0.0
 11
629.9446825992
 21
519.8190354957
 31
0.0
  0
LINE
  5
1E5
  8
0
  6
CONTINUOUS
 62
     7
 10
634.4446824055
 20
519.8190354957
 30
0.0
 11
638.9446822117
 21
519.8190354957
 31
0.0
  0
LINE
  5
1E6
  8
0
  6
CONTINUOUS
 62
     7
 10
638.9446822117
 20
519.7051980747
 30
0.0
 11
638.9446822117
 21
519.8190354957
 31
0.0
  0
LINE
  5
1E7
  8
0
  6
CONTINUOUS
 62
     7
 10
693.8187056343
 20
549.6190333022
 30
0.0
 11
575.0706591766
 21
549.6190333022
 31
0.0
  0
LINE
  5
1E8
  8
0
  6
CONTINUOUS
 62
     7
 10
693.9923637669
 20
559.6190386666
 30
0.0
 11
574.897001044
 21
559.6190386666
 31
0.0
  0
LINE
  5
1E9
  8
0
  6
CONTINUOUS
 62
     7
 10
639.5675195503
 20
559.5190369739
 30
0.0
 11
629.3218452606
 21
559.5190369739
 31
0.0
  0
LINE
  5
1EA
  8
0
  6
CONTINUOUS
 62
     7
 10
639.5675195503
 20
559.5190369739
 30
0.0
 11
629.3218452606
 21
559.5190369739
 31
0.0
  0
LINE
  5
1EB
  8
0
  6
CONTINUOUS
 62
     7
 10
575.1648494165
 20
571.5190314902
 30
0.0
 11
581.2061452429
 21
571.5190314902
 31
0.0
  0
LINE
  5
1EC
  8
0
  6
CONTINUOUS
 62
     7
 10
687.683219568
 20
571.5190314902
 30
0.0
 11
581.2061452429
 21
571.5190314902
 31
0.0
  0
LINE
  5
1ED
  8
0
  6
CONTINUOUS
 62
     7
 10
693.7245153944
 20
571.5190314902
 30
0.0
 11
687.683219568
 21
571.5190314902
 31
0.0
  0
LINE
  5
1EE
  8
0
  6
CONTINUOUS
 62
     7
 10
575.8404159109
 20
548.5799231781
 30
0.0
 11
577.4446823757
 21
548.5372760548
 31
0.0
  0
LINE
  5
1EF
  8
0
  6
CONTINUOUS
 62
     7
 10
693.0489489
 20
548.5799231781
 30
0.0
 11
691.4446824353
 21
548.5372760548
 31
0.0
  0
POLYLINE
  5
1F0
  8
0
  6
CONTINUOUS
 62
     7
 66
     1
 10
0.0
 20
0.0
 30
0.0
  0
VERTEX
  5
4B8
  8
0
  6
CONTINUOUS
 62
     7
 10
577.4446823757
 20
548.5372760548
 30
0.0
  0
VERTEX
  5
4B9
  8
0
  6
CONTINUOUS
 62
     7
 10
605.9246142517
 20
547.3970317496
 30
0.0
  0
VERTEX
  5
4BA
  8
0
  6
CONTINUOUS
 62
     7
 10
634.4448824055
 20
547.0124104275
 30
0.0
  0
VERTEX
  5
4BB
  8
0
  6
CONTINUOUS
 62
     7
 10
662.9447830032
 20
547.3964953078
 30
0.0
  0
VERTEX
  5
4BC
  8
0
  6
CONTINUOUS
 62
     7
 10
691.4446824353
 20
548.5372760548
 30
0.0
  0
SEQEND
  5
65D
  8
0
  6
CONTINUOUS
 62
     7
  0
ARC
  5
1F1
  8
0
  6
CONTINUOUS
 62
     7
 10
690.9385168041
 20
656.6304226387
 30
0.0
 40
48.0185991136646
 50
199.1497326335
 51
207.5378120231
  0
POLYLINE
  5
1F2
  8
0
  6
CONTINUOUS
 62
     7
 66
     1
 10
0.0
 20
0.0
 30
0.0
  0
VERTEX
  5
4BD
  8
0
  6
CONTINUOUS
 62
     7
 10
645.5770493607
 20
631.6467070235
 30
0.0
  0
VERTEX
  5
4BE
  8
0
  6
CONTINUOUS
 62
     7
 10
645.8517932455
 20
631.9214546336
 30
0.0
  0
VERTEX
  5
4BF
  8
0
  6
CONTINUOUS
 62
     7
 10
646.224586771
 20
632.2942518844
 30
0.0
  0
VERTEX
  5
4C0
  8
0
  6
CONTINUOUS
 62
     7
 10
646.6808556701
 20
632.750510539
 30
0.0
  0
VERTEX
  5
4C1
  8
0
  6
CONTINUOUS
 62
     7
 10
647.2027669783
 20
633.2724237098
 30
0.0
  0
VERTEX
  5
4C2
  8
0
  6
CONTINUOUS
 62
     7
 10
647.7699182119
 20
633.839576806
 30
0.0
  0
VERTEX
  5
4C3
  8
0
  6
CONTINUOUS
 62
     7
 10
648.3601410996
 20
634.4297968997
 30
0.0
  0
SEQEND
  5
65C
  8
0
  6
CONTINUOUS
 62
     7
  0
POLYLINE
  5
1F3
  8
0
  6
CONTINUOUS
 62
     7
 66
     1
 10
0.0
 20
0.0
 30
0.0
  0
VERTEX
  5
4C4
  8
0
  6
CONTINUOUS
 62
     7
 10
620.5292237114
 20
634.4297968997
 30
0.0
  0
VERTEX
  5
4C5
  8
0
  6
CONTINUOUS
 62
     7
 10
620.5194252666
 20
634.4493919267
 30
0.0
  0
VERTEX
  5
4C6
  8
0
  6
CONTINUOUS
 62
     7
 10
619.4633231621
 20
636.5883940114
 30
0.0
  0
VERTEX
  5
4C7
  8
0
  6
CONTINUOUS
 62
     7
 10
618.6766927253
 20
638.2972889794
 30
0.0
  0
VERTEX
  5
4C8
  8
0
  6
CONTINUOUS
 62
     7
 10
618.0068445514
 20
640.0091492785
 30
0.0
  0
VERTEX
  5
4C9
  8
0
  6
CONTINUOUS
 62
     7
 10
617.5406393717
 20
642.0603537215
 30
0.0
  0
SEQEND
  5
65B
  8
0
  6
CONTINUOUS
 62
     7
  0
POLYLINE
  5
1F4
  8
0
  6
CONTINUOUS
 62
     7
 66
     1
 10
0.0
 20
0.0
 30
0.0
  0
VERTEX
  5
4CA
  8
0
  6
CONTINUOUS
 62
     7
 10
617.5406393717
 20
631.4412200107
 30
0.0
  0
VERTEX
  5
4CB
  8
0
  6
CONTINUOUS
 62
     7
 10
617.6400878589
 20
631.5406703605
 30
0.0
  0
VERTEX
  5
4CC
  8
0
  6
CONTINUOUS
 62
     7
 10
617.8386048536
 20
631.7391836299
 30
0.0
  0
VERTEX
  5
4CD
  8
0
  6
CONTINUOUS
 62
     7
 10
618.1293842505
 20
632.0299648894
 30
0.0
  0
VERTEX
  5
4CE
  8
0
  6
CONTINUOUS
 62
     7
 10
618.5024534474
 20
632.4030303611
 30
0.0
  0
VERTEX
  5
4CF
  8
0
  6
CONTINUOUS
 62
     7
 10
618.9450197976
 20
632.8455948485
 30
0.0
  0
VERTEX
  5
4D0
  8
0
  6
CONTINUOUS
 62
     7
 10
619.4419092621
 20
633.3424889697
 30
0.0
  0
VERTEX
  5
4D1
  8
0
  6
CONTINUOUS
 62
     7
 10
619.9760823633
 20
633.8766657962
 30
0.0
  0
VERTEX
  5
4D2
  8
0
  6
CONTINUOUS
 62
     7
 10
620.5292237114
 20
634.4297968997
 30
0.0
  0
SEQEND
  5
65A
  8
0
  6
CONTINUOUS
 62
     7
  0
POLYLINE
  5
1F5
  8
0
  6
CONTINUOUS
 62
     7
 66
     1
 10
0.0
 20
0.0
 30
0.0
  0
VERTEX
  5
4D3
  8
0
  6
CONTINUOUS
 62
     7
 10
620.5292237114
 20
634.4297968997
 30
0.0
  0
VERTEX
  5
4D4
  8
0
  6
CONTINUOUS
 62
     7
 10
621.1194465991
 20
633.839576806
 30
0.0
  0
VERTEX
  5
4D5
  8
0
  6
CONTINUOUS
 62
     7
 10
621.6865978326
 20
633.2724237098
 30
0.0
  0
VERTEX
  5
4D6
  8
0
  6
CONTINUOUS
 62
     7
 10
622.2085091408
 20
632.750510539
 30
0.0
  0
VERTEX
  5
4D7
  8
0
  6
CONTINUOUS
 62
     7
 10
622.6647780399
 20
632.2942518844
 30
0.0
  0
VERTEX
  5
4D8
  8
0
  6
CONTINUOUS
 62
     7
 10
623.0375715654
 20
631.9214546336
 30
0.0
  0
VERTEX
  5
4D9
  8
0
  6
CONTINUOUS
 62
     7
 10
623.3123154502
 20
631.6467070235
 30
0.0
  0
SEQEND
  5
659
  8
0
  6
CONTINUOUS
 62
     7
  0
ARC
  5
1F6
  8
0
  6
CONTINUOUS
 62
     7
 10
578.0442643712
 20
656.5901065641
 30
0.0
 40
47.91712736124945
 50
332.4532905168
 51
340.8591648266
  0
POLYLINE
  5
1F7
  8
0
  6
CONTINUOUS
 62
     7
 66
     1
 10
0.0
 20
0.0
 30
0.0
  0
VERTEX
  5
4DA
  8
0
  6
CONTINUOUS
 62
     7
 10
643.5407954391
 20
632.4196302547
 30
0.0
  0
VERTEX
  5
4DB
  8
0
  6
CONTINUOUS
 62
     7
 10
644.3510181393
 20
631.6683435096
 30
0.0
  0
VERTEX
  5
4DC
  8
0
  6
CONTINUOUS
 62
     7
 10
645.0531422283
 20
631.4298206224
 30
0.0
  0
VERTEX
  5
4DD
  8
0
  6
CONTINUOUS
 62
     7
 10
645.5770493607
 20
631.6467070235
 30
0.0
  0
SEQEND
  5
658
  8
0
  6
CONTINUOUS
 62
     7
  0
POLYLINE
  5
1F8
  8
0
  6
CONTINUOUS
 62
     7
 66
     1
 10
0.0
 20
0.0
 30
0.0
  0
VERTEX
  5
4DE
  8
0
  6
CONTINUOUS
 62
     7
 10
648.3601410996
 20
634.4297968997
 30
0.0
  0
VERTEX
  5
4DF
  8
0
  6
CONTINUOUS
 62
     7
 10
648.9132824476
 20
633.8766657962
 30
0.0
  0
VERTEX
  5
4E0
  8
0
  6
CONTINUOUS
 62
     7
 10
649.4474555488
 20
633.3424889697
 30
0.0
  0
VERTEX
  5
4E1
  8
0
  6
CONTINUOUS
 62
     7
 10
649.9443450134
 20
632.8455948485
 30
0.0
  0
VERTEX
  5
4E2
  8
0
  6
CONTINUOUS
 62
     7
 10
650.3869113635
 20
632.4030303611
 30
0.0
  0
VERTEX
  5
4E3
  8
0
  6
CONTINUOUS
 62
     7
 10
650.7599805604
 20
632.0299648894
 30
0.0
  0
VERTEX
  5
4E4
  8
0
  6
CONTINUOUS
 62
     7
 10
651.0507599573
 20
631.7391836299
 30
0.0
  0
VERTEX
  5
4E5
  8
0
  6
CONTINUOUS
 62
     7
 10
651.249276952
 20
631.5406703605
 30
0.0
  0
VERTEX
  5
4E6
  8
0
  6
CONTINUOUS
 62
     7
 10
651.3487254392
 20
631.4412200107
 30
0.0
  0
SEQEND
  5
657
  8
0
  6
CONTINUOUS
 62
     7
  0
ARC
  5
1F9
  8
0
  6
CONTINUOUS
 62
     7
 10
650.1039780075
 20
632.2316146248
 30
0.0
 40
1.474489679420494
 50
327.5851089006
 51
7.3258635221
  0
ARC
  5
1FA
  8
0
  6
CONTINUOUS
 62
     7
 10
601.2626810177
 20
641.7597221748
 30
0.0
 40
16.2807342433347
 50
1.0580541138
 51
16.0006952282
  0
ARC
  5
1FB
  8
0
  6
CONTINUOUS
 62
     7
 10
667.6266837932
 20
641.7597221748
 30
0.0
 40
16.2807342433347
 50
163.9993047718
 51
178.9419458862
  0
POLYLINE
  5
1FC
  8
0
  6
CONTINUOUS
 62
     7
 66
     1
 10
0.0
 20
0.0
 30
0.0
  0
VERTEX
  5
4E7
  8
0
  6
CONTINUOUS
 62
     7
 10
651.3487254392
 20
642.0603537215
 30
0.0
  0
VERTEX
  5
4E8
  8
0
  6
CONTINUOUS
 62
     7
 10
650.8825202595
 20
640.0091492785
 30
0.0
  0
VERTEX
  5
4E9
  8
0
  6
CONTINUOUS
 62
     7
 10
650.2230209421
 20
638.3187615527
 30
0.0
  0
VERTEX
  5
4EA
  8
0
  6
CONTINUOUS
 62
     7
 10
649.4260416489
 20
636.5883940114
 30
0.0
  0
VERTEX
  5
4EB
  8
0
  6
CONTINUOUS
 62
     7
 10
648.3699395444
 20
634.4493919267
 30
0.0
  0
VERTEX
  5
4EC
  8
0
  6
CONTINUOUS
 62
     7
 10
648.3601410996
 20
634.4297968997
 30
0.0
  0
SEQEND
  5
656
  8
0
  6
CONTINUOUS
 62
     7
  0
POLYLINE
  5
1FD
  8
0
  6
CONTINUOUS
 62
     7
 66
     1
 10
0.0
 20
0.0
 30
0.0
  0
VERTEX
  5
4ED
  8
0
  6
CONTINUOUS
 62
     7
 10
645.5770493607
 20
640.8784979238
 30
0.0
  0
VERTEX
  5
4EE
  8
0
  6
CONTINUOUS
 62
     7
 10
644.5583501022
 20
643.2455771817
 30
0.0
  0
VERTEX
  5
4EF
  8
0
  6
CONTINUOUS
 62
     7
 10
642.7624621551
 20
644.8505514516
 30
0.0
  0
VERTEX
  5
4F0
  8
0
  6
CONTINUOUS
 62
     7
 10
640.3451319906
 20
645.689039792
 30
0.0
  0
VERTEX
  5
4F1
  8
0
  6
CONTINUOUS
 62
     7
 10
637.2340070206
 20
646.0669332398
 30
0.0
  0
VERTEX
  5
4F2
  8
0
  6
CONTINUOUS
 62
     7
 10
633.5080378462
 20
646.1365663661
 30
0.0
  0
VERTEX
  5
4F3
  8
0
  6
CONTINUOUS
 62
     7
 10
631.5679804079
 20
646.0622393741
 30
0.0
  0
VERTEX
  5
4F4
  8
0
  6
CONTINUOUS
 62
     7
 10
629.7109709244
 20
645.8854967011
 30
0.0
  0
VERTEX
  5
4F5
  8
0
  6
CONTINUOUS
 62
     7
 10
628.018032306
 20
645.5669396771
 30
0.0
  0
VERTEX
  5
4F6
  8
0
  6
CONTINUOUS
 62
     7
 10
626.5208865638
 20
645.049243535
 30
0.0
  0
VERTEX
  5
4F7
  8
0
  6
CONTINUOUS
 62
     7
 10
625.3808676388
 20
644.3578892602
 30
0.0
  0
VERTEX
  5
4F8
  8
0
  6
CONTINUOUS
 62
     7
 10
624.4694437023
 20
643.4365802659
 30
0.0
  0
VERTEX
  5
4F9
  8
0
  6
CONTINUOUS
 62
     7
 10
623.4054365318
 20
641.2183785094
 30
0.0
  0
VERTEX
  5
4FA
  8
0
  6
CONTINUOUS
 62
     7
 10
623.3123154502
 20
640.8784979238
 30
0.0
  0
SEQEND
  5
655
  8
0
  6
CONTINUOUS
 62
     7
  0
POLYLINE
  5
1FE
  8
0
  6
CONTINUOUS
 62
     7
 66
     1
 10
0.0
 20
0.0
 30
0.0
  0
VERTEX
  5
4FB
  8
0
  6
CONTINUOUS
 62
     7
 10
617.3229334067
 20
632.4196302547
 30
0.0
  0
VERTEX
  5
4FC
  8
0
  6
CONTINUOUS
 62
     7
 10
617.3585564952
 20
632.0447319402
 30
0.0
  0
VERTEX
  5
4FD
  8
0
  6
CONTINUOUS
 62
     7
 10
617.399599881
 20
631.751030053
 30
0.0
  0
VERTEX
  5
4FE
  8
0
  6
CONTINUOUS
 62
     7
 10
617.4446647178
 20
631.5485083713
 30
0.0
  0
VERTEX
  5
4FF
  8
0
  6
CONTINUOUS
 62
     7
 10
617.4922161858
 20
631.4440512313
 30
0.0
  0
VERTEX
  5
500
  8
0
  6
CONTINUOUS
 62
     7
 10
617.5406393717
 20
631.4412200107
 30
0.0
  0
SEQEND
  5
654
  8
0
  6
CONTINUOUS
 62
     7
  0
POLYLINE
  5
1FF
  8
0
  6
CONTINUOUS
 62
     7
 66
     1
 10
0.0
 20
0.0
 30
0.0
  0
VERTEX
  5
501
  8
0
  6
CONTINUOUS
 62
     7
 10
623.3123154502
 20
631.6467070235
 30
0.0
  0
VERTEX
  5
502
  8
0
  6
CONTINUOUS
 62
     7
 10
623.7870375748
 20
631.4310127152
 30
0.0
  0
VERTEX
  5
503
  8
0
  6
CONTINUOUS
 62
     7
 10
624.3617818813
 20
631.5700554503
 30
0.0
  0
VERTEX
  5
504
  8
0
  6
CONTINUOUS
 62
     7
 10
625.0521675806
 20
632.0828491105
 30
0.0
  0
VERTEX
  5
505
  8
0
  6
CONTINUOUS
 62
     7
 10
625.3485693719
 20
632.4196302547
 30
0.0
  0
SEQEND
  5
653
  8
0
  6
CONTINUOUS
 62
     7
  0
POLYLINE
  5
200
  8
0
  6
CONTINUOUS
 62
     7
 66
     1
 10
0.0
 20
0.0
 30
0.0
  0
VERTEX
  5
506
  8
0
  6
CONTINUOUS
 62
     7
 10
625.3485693719
 20
632.4196302547
 30
0.0
  0
VERTEX
  5
507
  8
0
  6
CONTINUOUS
 62
     7
 10
627.2233096074
 20
633.958920206
 30
0.0
  0
VERTEX
  5
508
  8
0
  6
CONTINUOUS
 62
     7
 10
629.7040716867
 20
634.7821497573
 30
0.0
  0
VERTEX
  5
509
  8
0
  6
CONTINUOUS
 62
     7
 10
632.7841656871
 20
635.1357096089
 30
0.0
  0
VERTEX
  5
50A
  8
0
  6
CONTINUOUS
 62
     7
 10
636.4302253473
 20
635.1177090062
 30
0.0
  0
VERTEX
  5
50B
  8
0
  6
CONTINUOUS
 62
     7
 10
638.2727143477
 20
634.9373006476
 30
0.0
  0
VERTEX
  5
50C
  8
0
  6
CONTINUOUS
 62
     7
 10
639.9987223681
 20
634.5916384114
 30
0.0
  0
VERTEX
  5
50D
  8
0
  6
CONTINUOUS
 62
     7
 10
641.4688974741
 20
634.0546303643
 30
0.0
  0
VERTEX
  5
50E
  8
0
  6
CONTINUOUS
 62
     7
 10
642.7220809396
 20
633.2650774373
 30
0.0
  0
VERTEX
  5
50F
  8
0
  6
CONTINUOUS
 62
     7
 10
643.5407954391
 20
632.4196302547
 30
0.0
  0
SEQEND
  5
652
  8
0
  6
CONTINUOUS
 62
     7
  0
LINE
  5
201
  8
0
  6
CONTINUOUS
 62
     7
 10
652.6397825341
 20
647.5839012517
 30
0.0
 11
651.9766920369
 21
646.24749061
 31
0.0
  0
POLYLINE
  5
202
  8
0
  6
CONTINUOUS
 62
     7
 66
     1
 10
0.0
 20
0.0
 30
0.0
  0
VERTEX
  5
510
  8
0
  6
CONTINUOUS
 62
     7
 10
651.5664314042
 20
632.4196302547
 30
0.0
  0
VERTEX
  5
511
  8
0
  6
CONTINUOUS
 62
     7
 10
651.690064476
 20
633.7115609302
 30
0.0
  0
VERTEX
  5
512
  8
0
  6
CONTINUOUS
 62
     7
 10
651.8329740624
 20
634.7105049743
 30
0.0
  0
VERTEX
  5
513
  8
0
  6
CONTINUOUS
 62
     7
 10
651.9899205427
 20
635.3797906293
 30
0.0
  0
VERTEX
  5
514
  8
0
  6
CONTINUOUS
 62
     7
 10
652.155150206
 20
635.6949203862
 30
0.0
  0
VERTEX
  5
515
  8
0
  6
CONTINUOUS
 62
     7
 10
652.3226057302
 20
635.644330944
 30
0.0
  0
VERTEX
  5
516
  8
0
  6
CONTINUOUS
 62
     7
 10
652.4861496996
 20
635.2298700465
 30
0.0
  0
VERTEX
  5
517
  8
0
  6
CONTINUOUS
 62
     7
 10
652.6397825341
 20
634.4667368783
 30
0.0
  0
SEQEND
  5
651
  8
0
  6
CONTINUOUS
 62
     7
  0
LINE
  5
203
  8
0
  6
CONTINUOUS
 62
     7
 10
616.9126727741
 20
646.24749061
 30
0.0
 11
616.2495822768
 21
647.5839012517
 31
0.0
  0
POLYLINE
  5
204
  8
0
  6
CONTINUOUS
 62
     7
 66
     1
 10
0.0
 20
0.0
 30
0.0
  0
VERTEX
  5
518
  8
0
  6
CONTINUOUS
 62
     7
 10
616.2495822768
 20
634.4667368783
 30
0.0
  0
VERTEX
  5
519
  8
0
  6
CONTINUOUS
 62
     7
 10
616.4032151114
 20
635.2298700465
 30
0.0
  0
VERTEX
  5
51A
  8
0
  6
CONTINUOUS
 62
     7
 10
616.5667590808
 20
635.644330944
 30
0.0
  0
VERTEX
  5
51B
  8
0
  6
CONTINUOUS
 62
     7
 10
616.734214605
 20
635.6949203862
 30
0.0
  0
VERTEX
  5
51C
  8
0
  6
CONTINUOUS
 62
     7
 10
616.8994442682
 20
635.3797906293
 30
0.0
  0
VERTEX
  5
51D
  8
0
  6
CONTINUOUS
 62
     7
 10
617.0563907485
 20
634.7105049743
 30
0.0
  0
VERTEX
  5
51E
  8
0
  6
CONTINUOUS
 62
     7
 10
617.1993003349
 20
633.7115609302
 30
0.0
  0
VERTEX
  5
51F
  8
0
  6
CONTINUOUS
 62
     7
 10
617.3229334067
 20
632.4196302547
 30
0.0
  0
SEQEND
  5
650
  8
0
  6
CONTINUOUS
 62
     7
  0
LINE
  5
205
  8
0
  6
CONTINUOUS
 62
     7
 10
575.0706591766
 20
549.6190333022
 30
0.0
 11
565.7537491183
 21
549.6190333022
 31
0.0
  0
LINE
  5
206
  8
0
  6
CONTINUOUS
 62
     7
 10
574.897001044
 20
559.6190386666
 30
0.0
 11
564.9078325491
 21
559.6190386666
 31
0.0
  0
LINE
  5
207
  8
0
  6
CONTINUOUS
 62
     7
 10
693.8187056343
 20
549.6190333022
 30
0.0
 11
703.1356156926
 21
549.6190333022
 31
0.0
  0
LINE
  5
208
  8
0
  6
CONTINUOUS
 62
     7
 10
693.9923637669
 20
559.6190386666
 30
0.0
 11
703.9815322618
 21
559.6190386666
 31
0.0
  0
LINE
  5
209
  8
0
  6
CONTINUOUS
 62
     7
 10
687.683219568
 20
589.519038166
 30
0.0
 11
687.683219568
 21
571.5190314902
 31
0.0
  0
LINE
  5
20A
  8
0
  6
CONTINUOUS
 62
     7
 10
687.683219568
 20
589.519038166
 30
0.0
 11
693.7245153944
 21
589.519038166
 31
0.0
  0
LINE
  5
20B
  8
0
  6
CONTINUOUS
 62
     7
 10
678.4848854999
 20
571.5190314902
 30
0.0
 11
678.4681328695
 21
574.7782730712
 31
0.0
  0
LINE
  5
20C
  8
0
  6
CONTINUOUS
 62
     7
 10
678.444682167
 20
589.519038166
 30
0.0
 11
687.683219568
 21
589.519038166
 31
0.0
  0
LINE
  5
20D
  8
0
  6
CONTINUOUS
 62
     7
 10
575.1648494165
 20
589.519038166
 30
0.0
 11
581.2061452429
 21
589.519038166
 31
0.0
  0
LINE
  5
20E
  8
0
  6
CONTINUOUS
 62
     7
 10
581.2061452429
 20
589.519038166
 30
0.0
 11
581.2061452429
 21
571.5190314902
 31
0.0
  0
POLYLINE
  5
20F
  8
0
  6
CONTINUOUS
 62
     7
 66
     1
 10
0.0
 20
0.0
 30
0.0
  0
VERTEX
  5
520
  8
0
  6
CONTINUOUS
 62
     7
 10
590.4169962864
 20
575.5617612256
 30
0.0
  0
VERTEX
  5
521
  8
0
  6
CONTINUOUS
 62
     7
 10
590.4376939993
 20
574.4197809352
 30
0.0
  0
VERTEX
  5
522
  8
0
  6
CONTINUOUS
 62
     7
 10
590.3813080053
 20
571.5190314902
 30
0.0
  0
SEQEND
  5
64F
  8
0
  6
CONTINUOUS
 62
     7
  0
LINE
  5
210
  8
0
  6
CONTINUOUS
 62
     7
 10
581.2061452429
 20
589.519038166
 30
0.0
 11
590.4446826439
 21
589.519038166
 31
0.0
  0
LINE
  5
211
  8
0
  6
CONTINUOUS
 62
     7
 10
628.7396708626
 20
631.4190321816
 30
0.0
 11
615.6607647549
 21
631.4190321816
 31
0.0
  0
POLYLINE
  5
212
  8
0
  6
CONTINUOUS
 62
     7
 66
     1
 10
0.0
 20
0.0
 30
0.0
  0
VERTEX
  5
523
  8
0
  6
CONTINUOUS
 62
     7
 10
615.6607647549
 20
631.4190321816
 30
0.0
  0
VERTEX
  5
524
  8
0
  6
CONTINUOUS
 62
     7
 10
616.1304046522
 20
633.8001334323
 30
0.0
  0
VERTEX
  5
525
  8
0
  6
CONTINUOUS
 62
     7
 10
616.2495822768
 20
634.4667368783
 30
0.0
  0
SEQEND
  5
64E
  8
0
  6
CONTINUOUS
 62
     7
  0
POLYLINE
  5
213
  8
0
  6
CONTINUOUS
 62
     7
 66
     1
 10
0.0
 20
0.0
 30
0.0
  0
VERTEX
  5
526
  8
0
  6
CONTINUOUS
 62
     7
 10
652.6397825341
 20
634.4667368783
 30
0.0
  0
VERTEX
  5
527
  8
0
  6
CONTINUOUS
 62
     7
 10
653.0427434604
 20
632.3857599153
 30
0.0
  0
VERTEX
  5
528
  8
0
  6
CONTINUOUS
 62
     7
 10
653.228600056
 20
631.4190321816
 30
0.0
  0
SEQEND
  5
64D
  8
0
  6
CONTINUOUS
 62
     7
  0
LINE
  5
214
  8
0
  6
CONTINUOUS
 62
     7
 10
653.228600056
 20
631.4190321816
 30
0.0
 11
640.1494974393
 21
631.4190321816
 31
0.0
  0
LINE
  5
215
  8
0
  6
CONTINUOUS
 62
     7
 10
640.1494974393
 20
631.4190321816
 30
0.0
 11
639.6959698881
 21
631.5190338744
 31
0.0
  0
LINE
  5
216
  8
0
  6
CONTINUOUS
 62
     7
 10
629.1928878176
 20
631.5190338744
 30
0.0
 11
628.7396708626
 21
631.4190321816
 31
0.0
  0
ARC
  5
217
  8
0
  6
CONTINUOUS
 62
     7
 10
693.9536637832
 20
165.4488550463
 30
0.0
 40
383.1321363143669
 50
89.2068242803
 51
90.135296384
  0
ARC
  5
218
  8
0
  6
CONTINUOUS
 62
     7
 10
574.9357010277
 20
165.4488550463
 30
0.0
 40
383.1321363143668
 50
89.864703616
 51
90.7931757197
  0
LINE
  5
219
  8
0
  6
CONTINUOUS
 62
     7
 10
702.8259025078
 20
571.5190314902
 30
0.0
 11
693.7245153944
 21
571.5190314902
 31
0.0
  0
LINE
  5
21A
  8
0
  6
CONTINUOUS
 62
     7
 10
575.1648494165
 20
571.5190314902
 30
0.0
 11
566.0634623032
 21
571.5190314902
 31
0.0
  0
LINE
  5
21B
  8
0
  6
CONTINUOUS
 62
     7
 10
693.7245153944
 20
589.519038166
 30
0.0
 11
702.8259025078
 21
589.519038166
 31
0.0
  0
LINE
  5
21C
  8
0
  6
CONTINUOUS
 62
     7
 10
566.0634623032
 20
589.519038166
 30
0.0
 11
575.1648494165
 21
589.519038166
 31
0.0
  0
LINE
  5
21D
  8
0
  6
CONTINUOUS
 62
     7
 10
611.286042736
 20
529.6190374745
 30
0.0
 11
577.4446823757
 21
529.6190374745
 31
0.0
  0
LINE
  5
21E
  8
0
  6
CONTINUOUS
 62
     7
 10
657.6033220749
 20
529.6190374745
 30
0.0
 11
691.4446824353
 21
529.6190374745
 31
0.0
  0
POLYLINE
  5
21F
  8
0
  6
CONTINUOUS
 62
     7
 66
     1
 10
0.0
 20
0.0
 30
0.0
  0
VERTEX
  5
529
  8
0
  6
CONTINUOUS
 62
     7
 10
611.286042736
 20
529.6190374745
 30
0.0
  0
VERTEX
  5
52A
  8
0
  6
CONTINUOUS
 62
     7
 10
617.8900678764
 20
535.9127962245
 30
0.0
  0
VERTEX
  5
52B
  8
0
  6
CONTINUOUS
 62
     7
 10
624.5068195398
 20
540.1113325013
 30
0.0
  0
VERTEX
  5
52C
  8
0
  6
CONTINUOUS
 62
     7
 10
631.1312122393
 20
542.2114053024
 30
0.0
  0
VERTEX
  5
52D
  8
0
  6
CONTINUOUS
 62
     7
 10
637.7581525716
 20
542.2114053024
 30
0.0
  0
VERTEX
  5
52E
  8
0
  6
CONTINUOUS
 62
     7
 10
644.3825452711
 20
540.1113325013
 30
0.0
  0
VERTEX
  5
52F
  8
0
  6
CONTINUOUS
 62
     7
 10
650.9992969345
 20
535.9127962245
 30
0.0
  0
VERTEX
  5
530
  8
0
  6
CONTINUOUS
 62
     7
 10
657.6033220749
 20
529.6190374745
 30
0.0
  0
SEQEND
  5
64C
  8
0
  6
CONTINUOUS
 62
     7
  0
POLYLINE
  5
220
  8
0
  6
CONTINUOUS
 62
     7
 66
     1
 10
0.0
 20
0.0
 30
0.0
  0
VERTEX
  5
531
  8
0
  6
CONTINUOUS
 62
     7
 10
569.5286006789
 20
548.4481522097
 30
0.0
  0
VERTEX
  5
532
  8
0
  6
CONTINUOUS
 62
     7
 10
569.4943578105
 20
548.5303023113
 30
0.0
  0
VERTEX
  5
533
  8
0
  6
CONTINUOUS
 62
     7
 10
569.6319700341
 20
548.5442796005
 30
0.0
  0
SEQEND
  5
64B
  8
0
  6
CONTINUOUS
 62
     7
  0
LINE
  5
221
  8
0
  6
CONTINUOUS
 62
     7
 10
577.4446823757
 20
529.6190374745
 30
0.0
 11
571.0693434935
 21
529.6190374745
 31
0.0
  0
LINE
  5
222
  8
0
  6
CONTINUOUS
 62
     7
 10
691.4446824353
 20
529.6190374745
 30
0.0
 11
697.8200213175
 21
529.6190374745
 31
0.0
  0
POLYLINE
  5
223
  8
0
  6
CONTINUOUS
 62
     7
 66
     1
 10
0.0
 20
0.0
 30
0.0
  0
VERTEX
  5
534
  8
0
  6
CONTINUOUS
 62
     7
 10
699.360764132
 20
548.4481522097
 30
0.0
  0
VERTEX
  5
535
  8
0
  6
CONTINUOUS
 62
     7
 10
699.3950070004
 20
548.5303023113
 30
0.0
  0
VERTEX
  5
536
  8
0
  6
CONTINUOUS
 62
     7
 10
699.2573947768
 20
548.5442796005
 30
0.0
  0
SEQEND
  5
64A
  8
0
  6
CONTINUOUS
 62
     7
  0
LINE
  5
224
  8
0
  6
CONTINUOUS
 62
     7
 10
575.4446820478
 20
631.4190321816
 30
0.0
 11
575.4446820478
 21
631.5190338744
 31
0.0
  0
LINE
  5
225
  8
0
  6
CONTINUOUS
 62
     7
 10
575.4446820478
 20
631.5190338744
 30
0.0
 11
584.0871133964
 21
631.5190338744
 31
0.0
  0
LINE
  5
226
  8
0
  6
CONTINUOUS
 62
     7
 10
584.0871133964
 20
631.5190338744
 30
0.0
 11
606.211234362
 21
631.5190338744
 31
0.0
  0
LINE
  5
227
  8
0
  6
CONTINUOUS
 62
     7
 10
606.211234362
 20
631.5190338744
 30
0.0
 11
607.1979613166
 21
631.5190338744
 31
0.0
  0
LINE
  5
228
  8
0
  6
CONTINUOUS
 62
     7
 10
607.1979613166
 20
631.5190338744
 30
0.0
 11
607.8216587316
 21
631.5190338744
 31
0.0
  0
LINE
  5
229
  8
0
  6
CONTINUOUS
 62
     7
 10
607.8216587316
 20
631.5190338744
 30
0.0
 11
608.4206593345
 21
631.5190338744
 31
0.0
  0
LINE
  5
22A
  8
0
  6
CONTINUOUS
 62
     7
 10
608.4206593345
 20
631.5190338744
 30
0.0
 11
608.4441342513
 21
631.5190338744
 31
0.0
  0
LINE
  5
22B
  8
0
  6
CONTINUOUS
 62
     7
 10
609.3474575441
 20
631.5190338744
 30
0.0
 11
608.4448569577
 21
631.5190338744
 31
0.0
  0
LINE
  5
22C
  8
0
  6
CONTINUOUS
 62
     7
 10
609.3488191377
 20
631.5190338744
 30
0.0
 11
610.0480095606
 21
631.5190338744
 31
0.0
  0
LINE
  5
22D
  8
0
  6
CONTINUOUS
 62
     7
 10
610.0480095606
 20
631.5190338744
 30
0.0
 11
610.0578275632
 21
631.5190338744
 31
0.0
  0
LINE
  5
22E
  8
0
  6
CONTINUOUS
 62
     7
 10
610.6868558686
 20
631.4190321816
 30
0.0
 11
610.0558140437
 21
631.5190338744
 31
0.0
  0
LINE
  5
22F
  8
0
  6
CONTINUOUS
 62
     7
 10
629.1922251816
 20
631.5190338744
 30
0.0
 11
639.696821117
 21
631.5190338744
 31
0.0
  0
LINE
  5
230
  8
0
  6
CONTINUOUS
 62
     7
 10
658.8313081424
 20
631.5174394502
 30
0.0
 11
658.2827367942
 21
631.4190321816
 31
0.0
  0
LINE
  5
231
  8
0
  6
CONTINUOUS
 62
     7
 10
658.8311293285
 20
631.5190338744
 30
0.0
 11
658.8413552503
 21
631.5190338744
 31
0.0
  0
LINE
  5
232
  8
0
  6
CONTINUOUS
 62
     7
 10
658.8413552503
 20
631.5190338744
 30
0.0
 11
659.5405456732
 21
631.5190338744
 31
0.0
  0
LINE
  5
233
  8
0
  6
CONTINUOUS
 62
     7
 10
660.4435076128
 20
631.5190338744
 30
0.0
 11
659.5420767676
 21
631.5187954558
 31
0.0
  0
LINE
  5
234
  8
0
  6
CONTINUOUS
 62
     7
 10
660.4452305596
 20
631.5190338744
 30
0.0
 11
660.6505946379
 21
631.5190338744
 31
0.0
  0
LINE
  5
235
  8
0
  6
CONTINUOUS
 62
     7
 10
660.6505946379
 20
631.5190338744
 30
0.0
 11
661.2767116289
 21
631.5190338744
 31
0.0
  0
LINE
  5
236
  8
0
  6
CONTINUOUS
 62
     7
 10
661.2767116289
 20
631.5190338744
 30
0.0
 11
661.8950707029
 21
631.5190338744
 31
0.0
  0
LINE
  5
237
  8
0
  6
CONTINUOUS
 62
     7
 10
662.6781304489
 20
631.5190338744
 30
0.0
 11
661.8950707029
 21
631.5190338744
 31
0.0
  0
LINE
  5
238
  8
0
  6
CONTINUOUS
 62
     7
 10
662.6781304489
 20
631.5190338744
 30
0.0
 11
684.8022514145
 21
631.5190338744
 31
0.0
  0
LINE
  5
239
  8
0
  6
CONTINUOUS
 62
     7
 10
684.8022514145
 20
631.5190338744
 30
0.0
 11
693.4446827631
 21
631.5190338744
 31
0.0
  0
LINE
  5
23A
  8
0
  6
CONTINUOUS
 62
     7
 10
693.4446827631
 20
631.4190321816
 30
0.0
 11
693.4446827631
 21
631.5190338744
 31
0.0
  0
POLYLINE
  5
23B
  8
0
  6
CONTINUOUS
 62
     7
 66
     1
 10
0.0
 20
0.0
 30
0.0
  0
VERTEX
  5
537
  8
0
  6
CONTINUOUS
 62
     7
 10
693.4410841327
 20
613.8362431182
 30
0.0
  0
VERTEX
  5
538
  8
0
  6
CONTINUOUS
 62
     7
 10
693.3679790358
 20
613.7161099567
 30
0.0
  0
VERTEX
  5
539
  8
0
  6
CONTINUOUS
 62
     7
 10
693.1177363853
 20
613.2574373139
 30
0.0
  0
VERTEX
  5
53A
  8
0
  6
CONTINUOUS
 62
     7
 10
692.7237422328
 20
612.4002331151
 30
0.0
  0
VERTEX
  5
53B
  8
0
  6
CONTINUOUS
 62
     7
 10
692.3237019341
 20
611.3054746045
 30
0.0
  0
VERTEX
  5
53C
  8
0
  6
CONTINUOUS
 62
     7
 10
691.9297934632
 20
609.8612540616
 30
0.0
  0
VERTEX
  5
53D
  8
0
  6
CONTINUOUS
 62
     7
 10
691.5912726085
 20
608.0217206134
 30
0.0
  0
VERTEX
  5
53E
  8
0
  6
CONTINUOUS
 62
     7
 10
691.3657398085
 20
605.9289121284
 30
0.0
  0
VERTEX
  5
53F
  8
0
  6
CONTINUOUS
 62
     7
 10
691.2438781123
 20
603.2655232801
 30
0.0
  0
VERTEX
  5
540
  8
0
  6
CONTINUOUS
 62
     7
 10
691.2354515056
 20
600.5186581267
 30
0.0
  0
VERTEX
  5
541
  8
0
  6
CONTINUOUS
 62
     7
 10
691.4385990362
 20
594.781517352
 30
0.0
  0
VERTEX
  5
542
  8
0
  6
CONTINUOUS
 62
     7
 10
692.133559392
 20
590.428307022
 30
0.0
  0
SEQEND
  5
649
  8
0
  6
CONTINUOUS
 62
     7
  0
POLYLINE
  5
23C
  8
0
  6
CONTINUOUS
 62
     7
 66
     1
 10
0.0
 20
0.0
 30
0.0
  0
VERTEX
  5
543
  8
0
  6
CONTINUOUS
 62
     7
 10
575.4453935783
 20
613.8409667863
 30
0.0
  0
VERTEX
  5
544
  8
0
  6
CONTINUOUS
 62
     7
 10
575.5281807046
 20
613.7037717952
 30
0.0
  0
VERTEX
  5
545
  8
0
  6
CONTINUOUS
 62
     7
 10
575.7832587819
 20
613.2281267299
 30
0.0
  0
VERTEX
  5
546
  8
0
  6
CONTINUOUS
 62
     7
 10
576.1779570143
 20
612.3490029229
 30
0.0
  0
VERTEX
  5
547
  8
0
  6
CONTINUOUS
 62
     7
 10
576.5707478981
 20
611.2440520181
 30
0.0
  0
VERTEX
  5
548
  8
0
  6
CONTINUOUS
 62
     7
 10
576.9543000619
 20
609.7977155103
 30
0.0
  0
VERTEX
  5
549
  8
0
  6
CONTINUOUS
 62
     7
 10
577.2890434723
 20
607.9216146125
 30
0.0
  0
VERTEX
  5
54A
  8
0
  6
CONTINUOUS
 62
     7
 10
577.5092751841
 20
605.7919108523
 30
0.0
  0
VERTEX
  5
54B
  8
0
  6
CONTINUOUS
 62
     7
 10
577.6261822443
 20
603.0241095676
 30
0.0
  0
VERTEX
  5
54C
  8
0
  6
CONTINUOUS
 62
     7
 10
577.6272663038
 20
600.1715355767
 30
0.0
  0
VERTEX
  5
54D
  8
0
  6
CONTINUOUS
 62
     7
 10
577.5735029142
 20
597.2008102788
 30
0.0
  0
VERTEX
  5
54E
  8
0
  6
CONTINUOUS
 62
     7
 10
577.3746022146
 20
594.2115032329
 30
0.0
  0
VERTEX
  5
54F
  8
0
  6
CONTINUOUS
 62
     7
 10
576.6825773876
 20
590.1768052234
 30
0.0
  0
SEQEND
  5
648
  8
0
  6
CONTINUOUS
 62
     7
  0
POLYLINE
  5
23D
  8
0
  6
CONTINUOUS
 62
     7
 66
     1
 10
0.0
 20
0.0
 30
0.0
  0
VERTEX
  5
550
  8
0
  6
CONTINUOUS
 62
     7
 10
578.4363583784
 20
473.8530435814
 30
0.0
  0
VERTEX
  5
551
  8
0
  6
CONTINUOUS
 62
     7
 10
578.5510973196
 20
474.3411162151
 30
0.0
  0
VERTEX
  5
552
  8
0
  6
CONTINUOUS
 62
     7
 10
579.4093967538
 20
477.7113863482
 30
0.0
  0
VERTEX
  5
553
  8
0
  6
CONTINUOUS
 62
     7
 10
580.3178982
 20
480.8034331752
 30
0.0
  0
VERTEX
  5
554
  8
0
  6
CONTINUOUS
 62
     7
 10
581.2722393434
 20
483.6024114145
 30
0.0
  0
VERTEX
  5
555
  8
0
  6
CONTINUOUS
 62
     7
 10
582.2678380768
 20
486.0948951198
 30
0.0
  0
VERTEX
  5
556
  8
0
  6
CONTINUOUS
 62
     7
 10
583.2999223034
 20
488.2689186586
 30
0.0
  0
VERTEX
  5
557
  8
0
  6
CONTINUOUS
 62
     7
 10
584.3635336618
 20
490.1140549435
 30
0.0
  0
VERTEX
  5
558
  8
0
  6
CONTINUOUS
 62
     7
 10
585.2417969267
 20
491.3577170326
 30
0.0
  0
SEQEND
  5
647
  8
0
  6
CONTINUOUS
 62
     7
  0
POLYLINE
  5
23E
  8
0
  6
CONTINUOUS
 62
     7
 66
     1
 10
0.0
 20
0.0
 30
0.0
  0
VERTEX
  5
559
  8
0
  6
CONTINUOUS
 62
     7
 10
690.4530064325
 20
473.8530435814
 30
0.0
  0
VERTEX
  5
55A
  8
0
  6
CONTINUOUS
 62
     7
 10
690.3382674913
 20
474.3411162151
 30
0.0
  0
VERTEX
  5
55B
  8
0
  6
CONTINUOUS
 62
     7
 10
689.4799680571
 20
477.7113863482
 30
0.0
  0
VERTEX
  5
55C
  8
0
  6
CONTINUOUS
 62
     7
 10
688.5714666109
 20
480.8034331752
 30
0.0
  0
VERTEX
  5
55D
  8
0
  6
CONTINUOUS
 62
     7
 10
687.6171254675
 20
483.6024114145
 30
0.0
  0
VERTEX
  5
55E
  8
0
  6
CONTINUOUS
 62
     7
 10
686.6215267341
 20
486.0948951198
 30
0.0
  0
VERTEX
  5
55F
  8
0
  6
CONTINUOUS
 62
     7
 10
685.5894425075
 20
488.2689186586
 30
0.0
  0
VERTEX
  5
560
  8
0
  6
CONTINUOUS
 62
     7
 10
684.5258311491
 20
490.1140549435
 30
0.0
  0
VERTEX
  5
561
  8
0
  6
CONTINUOUS
 62
     7
 10
683.6475678842
 20
491.3577170326
 30
0.0
  0
SEQEND
  5
646
  8
0
  6
CONTINUOUS
 62
     7
  0
LINE
  5
23F
  8
0
  6
CONTINUOUS
 62
     7
 10
671.1066276889
 20
685.8190291776
 30
0.0
 11
597.782737122
 21
685.8190291776
 31
0.0
  0
LINE
  5
240
  8
0
  6
CONTINUOUS
 62
     7
 10
597.782737122
 20
685.8190291776
 30
0.0
 11
597.8190549772
 21
689.2190271272
 31
0.0
  0
LINE
  5
241
  8
0
  6
CONTINUOUS
 62
     7
 10
671.0703098338
 20
689.2190271272
 30
0.0
 11
597.8190549772
 21
689.2190271272
 31
0.0
  0
LINE
  5
242
  8
0
  6
CONTINUOUS
 62
     7
 10
671.0703098338
 20
689.2190271272
 30
0.0
 11
671.1066276889
 21
685.8190291776
 31
0.0
  0
ARC
  5
243
  8
0
  6
CONTINUOUS
 62
     7
 10
576.9657526437
 20
732.8799557598
 30
0.0
 40
48.38529639543472
 50
295.5300415191
 51
311.7079645026
  0
POLYLINE
  5
244
  8
0
  6
CONTINUOUS
 62
     7
 66
     1
 10
0.0
 20
0.0
 30
0.0
  0
VERTEX
  5
562
  8
0
  6
CONTINUOUS
 62
     7
 10
609.0909955214
 20
692.9113262548
 30
0.0
  0
VERTEX
  5
563
  8
0
  6
CONTINUOUS
 62
     7
 10
616.5634920012
 20
694.6811967744
 30
0.0
  0
VERTEX
  5
564
  8
0
  6
CONTINUOUS
 62
     7
 10
624.1219691123
 20
696.016400422
 30
0.0
  0
VERTEX
  5
565
  8
0
  6
CONTINUOUS
 62
     7
 10
631.9569239981
 20
696.7018240346
 30
0.0
  0
VERTEX
  5
566
  8
0
  6
CONTINUOUS
 62
     7
 10
639.8175899062
 20
696.5513521089
 30
0.0
  0
VERTEX
  5
567
  8
0
  6
CONTINUOUS
 62
     7
 10
644.8483984108
 20
696.0047775163
 30
0.0
  0
VERTEX
  5
568
  8
0
  6
CONTINUOUS
 62
     7
 10
649.8419526155
 20
695.1775842561
 30
0.0
  0
VERTEX
  5
569
  8
0
  6
CONTINUOUS
 62
     7
 10
659.7983692895
 20
692.9113262548
 30
0.0
  0
SEQEND
  5
645
  8
0
  6
CONTINUOUS
 62
     7
  0
ARC
  5
245
  8
0
  6
CONTINUOUS
 62
     7
 10
691.3949079462
 20
732.0847642446
 30
0.0
 40
47.44007490566884
 50
228.129754426
 51
244.6322395524
  0
LINE
  5
246
  8
0
  6
CONTINUOUS
 62
     7
 10
612.5243720721
 20
649.5629095687
 30
0.0
 11
614.5264529745
 21
649.9190324201
 31
0.0
  0
LINE
  5
247
  8
0
  6
CONTINUOUS
 62
     7
 10
625.1525213133
 20
649.9190324201
 30
0.0
 11
614.5264529745
 21
649.9190324201
 31
0.0
  0
ARC
  5
248
  8
0
  6
CONTINUOUS
 62
     7
 10
634.4502289986
 20
792.4596639371
 30
0.0
 40
142.8435472868489
 50
266.2679707756
 51
273.5250120982
  0
LINE
  5
249
  8
0
  6
CONTINUOUS
 62
     7
 10
643.2328592177
 20
649.8863690747
 30
0.0
 11
650.708137558
 21
648.5566937579
 31
0.0
  0
LINE
  5
24A
  8
0
  6
CONTINUOUS
 62
     7
 10
650.708137558
 20
648.5566937579
 30
0.0
 11
658.3670736413
 21
649.9190324201
 31
0.0
  0
LINE
  5
24B
  8
0
  6
CONTINUOUS
 62
     7
 10
659.2803974758
 20
649.9190324201
 30
0.0
 11
658.3670736413
 21
649.9190324201
 31
0.0
  0
LINE
  5
24C
  8
0
  6
CONTINUOUS
 62
     7
 10
659.2803974758
 20
649.9190324201
 30
0.0
 11
658.7022249709
 21
649.8187178029
 31
0.0
  0
POLYLINE
  5
24D
  8
0
  6
CONTINUOUS
 62
     7
 66
     1
 10
0.0
 20
0.0
 30
0.0
  0
VERTEX
  5
56A
  8
0
  6
CONTINUOUS
 62
     7
 10
658.7022249709
 20
649.8187178029
 30
0.0
  0
VERTEX
  5
56B
  8
0
  6
CONTINUOUS
 62
     7
 10
656.7821954499
 20
649.4428956164
 30
0.0
  0
VERTEX
  5
56C
  8
0
  6
CONTINUOUS
 62
     7
 10
655.1868454676
 20
649.0225040568
 30
0.0
  0
VERTEX
  5
56D
  8
0
  6
CONTINUOUS
 62
     7
 10
653.948996694
 20
648.5662006988
 30
0.0
  0
VERTEX
  5
56E
  8
0
  6
CONTINUOUS
 62
     7
 10
653.0941114883
 20
648.0833434714
 30
0.0
  0
VERTEX
  5
56F
  8
0
  6
CONTINUOUS
 62
     7
 10
652.6397825341
 20
647.5839012517
 30
0.0
  0
SEQEND
  5
644
  8
0
  6
CONTINUOUS
 62
     7
  0
POLYLINE
  5
24E
  8
0
  6
CONTINUOUS
 62
     7
 66
     1
 10
0.0
 20
0.0
 30
0.0
  0
VERTEX
  5
570
  8
0
  6
CONTINUOUS
 62
     7
 10
616.2495822768
 20
647.5839012517
 30
0.0
  0
VERTEX
  5
571
  8
0
  6
CONTINUOUS
 62
     7
 10
615.7952533226
 20
648.0833434714
 30
0.0
  0
VERTEX
  5
572
  8
0
  6
CONTINUOUS
 62
     7
 10
614.940368117
 20
648.5662006988
 30
0.0
  0
VERTEX
  5
573
  8
0
  6
CONTINUOUS
 62
     7
 10
613.7025193434
 20
649.0225040568
 30
0.0
  0
VERTEX
  5
574
  8
0
  6
CONTINUOUS
 62
     7
 10
612.107169361
 20
649.4428956164
 30
0.0
  0
VERTEX
  5
575
  8
0
  6
CONTINUOUS
 62
     7
 10
610.18713984
 20
649.8187178029
 30
0.0
  0
SEQEND
  5
643
  8
0
  6
CONTINUOUS
 62
     7
  0
LINE
  5
24F
  8
0
  6
CONTINUOUS
 62
     7
 10
610.18713984
 20
649.8187178029
 30
0.0
 11
609.6089673351
 21
649.9190324201
 31
0.0
  0
LINE
  5
250
  8
0
  6
CONTINUOUS
 62
     7
 10
610.5222911696
 20
649.9190324201
 30
0.0
 11
609.6089673351
 21
649.9190324201
 31
0.0
  0
LINE
  5
251
  8
0
  6
CONTINUOUS
 62
     7
 10
610.5222911696
 20
649.9190324201
 30
0.0
 11
612.5243720721
 21
649.5629095687
 31
0.0
  0
LINE
  5
252
  8
0
  6
CONTINUOUS
 62
     7
 10
560.3195713024
 20
549.6190333022
 30
0.0
 11
565.7537491183
 21
549.6190333022
 31
0.0
  0
LINE
  5
253
  8
0
  6
CONTINUOUS
 62
     7
 10
559.4446794252
 20
559.6190386666
 30
0.0
 11
564.9078325491
 21
559.6190386666
 31
0.0
  0
LINE
  5
254
  8
0
  6
CONTINUOUS
 62
     7
 10
708.5697935085
 20
549.6190333022
 30
0.0
 11
703.1356156926
 21
549.6190333022
 31
0.0
  0
LINE
  5
255
  8
0
  6
CONTINUOUS
 62
     7
 10
709.4446853857
 20
559.6190386666
 30
0.0
 11
703.9815322618
 21
559.6190386666
 31
0.0
  0
LINE
  5
256
  8
0
  6
CONTINUOUS
 62
     7
 10
564.6563531022
 20
571.5190314902
 30
0.0
 11
559.7589151125
 21
571.5190314902
 31
0.0
  0
LINE
  5
257
  8
0
  6
CONTINUOUS
 62
     7
 10
566.0634623032
 20
571.5190314902
 30
0.0
 11
564.6563531022
 21
571.5190314902
 31
0.0
  0
LINE
  5
258
  8
0
  6
CONTINUOUS
 62
     7
 10
702.8259025078
 20
571.5190314902
 30
0.0
 11
704.2330117087
 21
571.5190314902
 31
0.0
  0
LINE
  5
259
  8
0
  6
CONTINUOUS
 62
     7
 10
709.1304496984
 20
571.5190314902
 30
0.0
 11
704.2330117087
 21
571.5190314902
 31
0.0
  0
LINE
  5
25A
  8
0
  6
CONTINUOUS
 62
     7
 10
704.2330117087
 20
589.519038166
 30
0.0
 11
704.2330117087
 21
571.5190314902
 31
0.0
  0
LINE
  5
25B
  8
0
  6
CONTINUOUS
 62
     7
 10
702.8259025078
 20
589.519038166
 30
0.0
 11
704.2330117087
 21
589.519038166
 31
0.0
  0
LINE
  5
25C
  8
0
  6
CONTINUOUS
 62
     7
 10
564.6563531022
 20
589.519038166
 30
0.0
 11
564.6563531022
 21
571.5190314902
 31
0.0
  0
LINE
  5
25D
  8
0
  6
CONTINUOUS
 62
     7
 10
564.6563531022
 20
589.519038166
 30
0.0
 11
566.0634623032
 21
589.519038166
 31
0.0
  0
POLYLINE
  5
25E
  8
0
  6
CONTINUOUS
 62
     7
 66
     1
 10
0.0
 20
0.0
 30
0.0
  0
VERTEX
  5
576
  8
0
  6
CONTINUOUS
 62
     7
 10
657.9681621055
 20
631.4190321816
 30
0.0
  0
VERTEX
  5
577
  8
0
  6
CONTINUOUS
 62
     7
 10
658.330336691
 20
631.711273755
 30
0.0
  0
VERTEX
  5
578
  8
0
  6
CONTINUOUS
 62
     7
 10
658.7022249709
 20
631.6126280679
 30
0.0
  0
SEQEND
  5
642
  8
0
  6
CONTINUOUS
 62
     7
  0
LINE
  5
25F
  8
0
  6
CONTINUOUS
 62
     7
 10
653.228600056
 20
631.4190321816
 30
0.0
 11
657.9681621055
 21
631.4190321816
 31
0.0
  0
POLYLINE
  5
260
  8
0
  6
CONTINUOUS
 62
     7
 66
     1
 10
0.0
 20
0.0
 30
0.0
  0
VERTEX
  5
579
  8
0
  6
CONTINUOUS
 62
     7
 10
610.18713984
 20
631.6126280679
 30
0.0
  0
VERTEX
  5
57A
  8
0
  6
CONTINUOUS
 62
     7
 10
610.5590281199
 20
631.711273755
 30
0.0
  0
VERTEX
  5
57B
  8
0
  6
CONTINUOUS
 62
     7
 10
610.9212027054
 20
631.4190321816
 30
0.0
  0
SEQEND
  5
641
  8
0
  6
CONTINUOUS
 62
     7
  0
LINE
  5
261
  8
0
  6
CONTINUOUS
 62
     7
 10
610.9212027054
 20
631.4190321816
 30
0.0
 11
615.6607647549
 21
631.4190321816
 31
0.0
  0
LINE
  5
262
  8
0
  6
CONTINUOUS
 62
     7
 10
650.708137558
 20
670.4190367116
 30
0.0
 11
650.708137558
 21
648.5566937579
 31
0.0
  0
LINE
  5
263
  8
0
  6
CONTINUOUS
 62
     7
 10
650.708137558
 20
670.4190367116
 30
0.0
 11
660.0958150934
 21
670.4190367116
 31
0.0
  0
LINE
  5
264
  8
0
  6
CONTINUOUS
 62
     7
 10
660.0958150934
 20
670.4190367116
 30
0.0
 11
661.1082167487
 21
649.9190324201
 31
0.0
  0
LINE
  5
265
  8
0
  6
CONTINUOUS
 62
     7
 10
643.4170021798
 20
670.4190367116
 30
0.0
 11
650.708137558
 21
670.4190367116
 31
0.0
  0
LINE
  5
266
  8
0
  6
CONTINUOUS
 62
     7
 10
643.4170021798
 20
670.4190367116
 30
0.0
 11
643.2328592177
 21
649.8863690747
 31
0.0
  0
LINE
  5
267
  8
0
  6
CONTINUOUS
 62
     7
 10
609.9446830462
 20
741.8190234555
 30
0.0
 11
658.9446817647
 21
741.8190234555
 31
0.0
  0
LINE
  5
268
  8
0
  6
CONTINUOUS
 62
     7
 10
659.7983692895
 20
692.9113262548
 30
0.0
 11
658.9446817647
 21
741.8190234555
 31
0.0
  0
LINE
  5
269
  8
0
  6
CONTINUOUS
 62
     7
 10
609.0909955214
 20
692.9113262548
 30
0.0
 11
609.9446830462
 21
741.8190234555
 31
0.0
  0
LINE
  5
26A
  8
0
  6
CONTINUOUS
 62
     7
 10
698.2396901708
 20
519.3879151
 30
0.0
 11
698.2572213869
 21
518.1706243409
 31
0.0
  0
ARC
  5
26B
  8
0
  6
CONTINUOUS
 62
     7
 10
697.6121972654
 20
522.962919363
 30
0.0
 40
0.3573104228361852
 50
157.6078715237
 51
187.0546675001
  0
LINE
  5
26C
  8
0
  6
CONTINUOUS
 62
     7
 10
697.2575918894
 20
522.9190358175
 30
0.0
 11
697.2575918894
 21
519.6790316357
 31
0.0
  0
ARC
  5
26D
  8
0
  6
CONTINUOUS
 62
     7
 10
697.6098021815
 20
519.6348255931
 30
0.0
 40
0.3549736103660738
 50
172.8461935385
 51
202.4912674376
  0
ARC
  5
26E
  8
0
  6
CONTINUOUS
 62
     7
 10
696.9721082032
 20
514.4003848902
 30
0.0
 40
0.6003558680809771
 50
352.4724337793
 51
16.4729120599
  0
LINE
  5
26F
  8
0
  6
CONTINUOUS
 62
     7
 10
697.567290173
 20
514.3217363609
 30
0.0
 11
697.1242712002
 21
506.0679161204
 31
0.0
  0
ARC
  5
270
  8
0
  6
CONTINUOUS
 62
     7
 10
697.6183544437
 20
505.9892578451
 30
0.0
 40
0.5003052825764772
 50
170.9543959273
 51
199.8911375129
  0
ARC
  5
271
  8
0
  6
CONTINUOUS
 62
     7
 10
697.6122597472
 20
518.0344990804
 30
0.0
 40
0.3573720905098304
 50
157.6101712314
 51
187.0529950671
  0
LINE
  5
272
  8
0
  6
CONTINUOUS
 62
     7
 10
697.2575918894
 20
517.9906183137
 30
0.0
 11
697.2575918894
 21
514.7506215824
 31
0.0
  0
ARC
  5
273
  8
0
  6
CONTINUOUS
 62
     7
 10
697.609752904
 20
514.7064089047
 30
0.0
 40
0.3549255430390809
 50
172.8441401073
 51
202.4933208689
  0
LINE
  5
274
  8
0
  6
CONTINUOUS
 62
     7
 10
612.5243720721
 20
670.4190367116
 30
0.0
 11
612.5243720721
 21
649.5629095687
 31
0.0
  0
LINE
  5
275
  8
0
  6
CONTINUOUS
 62
     7
 10
618.2774552266
 20
670.4190367116
 30
0.0
 11
618.3327552985
 21
649.9190324201
 31
0.0
  0
LINE
  5
276
  8
0
  6
CONTINUOUS
 62
     7
 10
612.5243720721
 20
670.4190367116
 30
0.0
 11
618.2774552266
 21
670.4190367116
 31
0.0
  0
LINE
  5
277
  8
0
  6
CONTINUOUS
 62
     7
 10
603.1366945367
 20
670.4190367116
 30
0.0
 11
602.124294744
 21
649.9190324201
 31
0.0
  0
LINE
  5
278
  8
0
  6
CONTINUOUS
 62
     7
 10
603.1366945367
 20
670.4190367116
 30
0.0
 11
612.5243720721
 21
670.4190367116
 31
0.0
  0
LINE
  5
279
  8
0
  6
CONTINUOUS
 62
     7
 10
618.2774552266
 20
670.4190367116
 30
0.0
 11
643.4170021798
 21
670.4190367116
 31
0.0
  0
LINE
  5
27A
  8
0
  6
CONTINUOUS
 62
     7
 10
610.0480095606
 20
631.5190338744
 30
0.0
 11
610.18713984
 21
631.6126280679
 31
0.0
  0
LINE
  5
27B
  8
0
  6
CONTINUOUS
 62
     7
 10
610.6868558686
 20
631.4190321816
 30
0.0
 11
610.9212027054
 21
631.4190321816
 31
0.0
  0
LINE
  5
27C
  8
0
  6
CONTINUOUS
 62
     7
 10
658.7022249709
 20
631.6126280679
 30
0.0
 11
658.8418395381
 21
631.5187656535
 31
0.0
  0
LINE
  5
27D
  8
0
  6
CONTINUOUS
 62
     7
 10
657.9681621055
 20
631.4190321816
 30
0.0
 11
658.2827367942
 21
631.4190321816
 31
0.0
  0
LINE
  5
27E
  8
0
  6
CONTINUOUS
 62
     7
 10
608.9720768045
 20
649.9190324201
 30
0.0
 11
609.6089673351
 21
649.9190324201
 31
0.0
  0
LINE
  5
27F
  8
0
  6
CONTINUOUS
 62
     7
 10
608.9720768045
 20
631.8608665122
 30
0.0
 11
609.3481988768
 21
631.5193915023
 31
0.0
  0
LINE
  5
280
  8
0
  6
CONTINUOUS
 62
     7
 10
659.2803974758
 20
649.9190324201
 30
0.0
 11
659.9172880064
 21
649.9190324201
 31
0.0
  0
LINE
  5
281
  8
0
  6
CONTINUOUS
 62
     7
 10
659.5411100547
 20
631.5193617
 30
0.0
 11
659.9172880064
 21
631.8608665122
 31
0.0
  0
POLYLINE
  5
282
  8
0
  6
CONTINUOUS
 62
     7
 66
     1
 10
0.0
 20
0.0
 30
0.0
  0
VERTEX
  5
57C
  8
0
  6
CONTINUOUS
 62
     7
 10
659.9172880064
 20
631.8608665122
 30
0.0
  0
VERTEX
  5
57D
  8
0
  6
CONTINUOUS
 62
     7
 10
660.0879547309
 20
631.9617622747
 30
0.0
  0
VERTEX
  5
57E
  8
0
  6
CONTINUOUS
 62
     7
 10
660.2639169555
 20
631.8479472055
 30
0.0
  0
VERTEX
  5
57F
  8
0
  6
CONTINUOUS
 62
     7
 10
660.4450126301
 20
631.5195554151
 30
0.0
  0
SEQEND
  5
640
  8
0
  6
CONTINUOUS
 62
     7
  0
POLYLINE
  5
283
  8
0
  6
CONTINUOUS
 62
     7
 66
     1
 10
0.0
 20
0.0
 30
0.0
  0
VERTEX
  5
580
  8
0
  6
CONTINUOUS
 62
     7
 10
608.444225521
 20
631.5192573918
 30
0.0
  0
VERTEX
  5
581
  8
0
  6
CONTINUOUS
 62
     7
 10
608.6253640364
 20
631.8478428973
 30
0.0
  0
VERTEX
  5
582
  8
0
  6
CONTINUOUS
 62
     7
 10
608.8013709645
 20
631.9617622747
 30
0.0
  0
VERTEX
  5
583
  8
0
  6
CONTINUOUS
 62
     7
 10
608.9720768045
 20
631.8608665122
 30
0.0
  0
SEQEND
  5
63F
  8
0
  6
CONTINUOUS
 62
     7
  0
LINE
  5
284
  8
0
  6
CONTINUOUS
 62
     7
 10
659.9172880064
 20
649.9190324201
 30
0.0
 11
662.6781304489
 21
649.9190324201
 31
0.0
  0
LINE
  5
285
  8
0
  6
CONTINUOUS
 62
     7
 10
606.211234362
 20
649.9190324201
 30
0.0
 11
608.9720768045
 21
649.9190324201
 31
0.0
  0
LINE
  5
286
  8
0
  6
CONTINUOUS
 62
     7
 10
662.6781304489
 20
649.9190324201
 30
0.0
 11
684.8022514145
 21
649.9190324201
 31
0.0
  0
LINE
  5
287
  8
0
  6
CONTINUOUS
 62
     7
 10
584.0871133964
 20
649.9190324201
 30
0.0
 11
606.211234362
 21
649.9190324201
 31
0.0
  0
LINE
  5
288
  8
0
  6
CONTINUOUS
 62
     7
 10
699.6728764038
 20
518.1706243409
 30
0.0
 11
698.7683088641
 21
518.1706243409
 31
0.0
  0
ARC
  5
289
  8
0
  6
CONTINUOUS
 62
     7
 10
699.3215890624
 20
518.0805808113
 30
0.0
 40
0.362643948564462
 50
356.6684773401
 51
14.3767806893
  0
LINE
  5
28A
  8
0
  6
CONTINUOUS
 62
     7
 10
699.9046863179
 20
506.0679161204
 30
0.0
 11
699.683620141
 21
518.0595063819
 31
0.0
  0
ARC
  5
28B
  8
0
  6
CONTINUOUS
 62
     7
 10
697.2623497822
 20
505.9888445564
 30
0.0
 40
2.643519373866467
 50
356.31704466
 51
1.7140569426
  0
ARC
  5
28C
  8
0
  6
CONTINUOUS
 62
     7
 10
700.1822663963
 20
505.9094078855
 30
0.0
 40
0.4320071868009653
 50
177.2483199673
 51
192.0748037693
  0
LINE
  5
28D
  8
0
  6
CONTINUOUS
 62
     7
 10
699.6947364073
 20
508.2279139413
 30
0.0
 11
699.7507573228
 21
505.9301474346
 31
0.0
  0
ARC
  5
28E
  8
0
  6
CONTINUOUS
 62
     7
 10
699.3245031362
 20
508.2489427889
 30
0.0
 40
0.3708299980577319
 50
356.7491548272
 51
14.0600744524
  0
LINE
  5
28F
  8
0
  6
CONTINUOUS
 62
     7
 10
699.684223638
 20
508.3390319003
 30
0.0
 11
699.2291049223
 21
508.3390319003
 31
0.0
  0
ARC
  5
290
  8
0
  6
CONTINUOUS
 62
     7
 10
699.4429438128
 20
508.2480109166
 30
0.0
 40
0.2324045837958215
 50
156.9428665099
 51
184.9607962622
  0
LINE
  5
291
  8
0
  6
CONTINUOUS
 62
     7
 10
699.105946825
 20
505.9301474346
 30
0.0
 11
699.2114097934
 21
508.2279139413
 31
0.0
  0
ARC
  5
292
  8
0
  6
CONTINUOUS
 62
     7
 10
698.8907041963
 20
505.9100356449
 30
0.0
 40
0.2161801871630189
 50
335.1061016081
 51
5.3380905295
  0
LINE
  5
293
  8
0
  6
CONTINUOUS
 62
     7
 10
699.0867988329
 20
505.8190369262
 30
0.0
 11
698.632820056
 21
505.8190369262
 31
0.0
  0
ARC
  5
294
  8
0
  6
CONTINUOUS
 62
     7
 10
699.0959358833
 20
505.9891002067
 30
0.0
 40
0.4933536144570165
 50
170.8072998034
 51
200.1640144347
  0
LINE
  5
295
  8
0
  6
CONTINUOUS
 62
     7
 10
699.0570859175
 20
514.3217363609
 30
0.0
 11
698.6089185934
 21
506.0679161204
 31
0.0
  0
ARC
  5
296
  8
0
  6
CONTINUOUS
 62
     7
 10
698.4719926417
 20
514.4006492508
 30
0.0
 40
0.5903908751567616
 50
352.3187367128
 51
16.732296277
  0
LINE
  5
297
  8
0
  6
CONTINUOUS
 62
     7
 10
699.0373865824
 20
514.5706230058
 30
0.0
 11
698.7683088641
 21
514.5706230058
 31
0.0
  0
ARC
  5
298
  8
0
  6
CONTINUOUS
 62
     7
 10
699.0918133738
 20
514.7063609742
 30
0.0
 40
0.3508275414368786
 50
172.7522169064
 51
202.7622399416
  0
LINE
  5
299
  8
0
  6
CONTINUOUS
 62
     7
 10
698.7437890034
 20
517.9906183137
 30
0.0
 11
698.7437890034
 21
514.7506215824
 31
0.0
  0
ARC
  5
29A
  8
0
  6
CONTINUOUS
 62
     7
 10
699.0929045255
 20
518.0347359071
 30
0.0
 40
0.3518920429138192
 50
157.2839084488
 51
187.2022690399
  0
ARC
  5
29B
  8
0
  6
CONTINUOUS
 62
     7
 10
698.6744656267
 20
511.8391472758
 30
0.0
 40
0.9188609842695997
 50
349.3308506235
 51
4.9178201504
  0
LINE
  5
29C
  8
0
  6
CONTINUOUS
 62
     7
 10
699.5899439912
 20
511.91791829
 30
0.0
 11
699.4987712364
 21
514.7025131835
 31
0.0
  0
POLYLINE
  5
29D
  8
0
  6
CONTINUOUS
 62
     7
 66
     1
 10
0.0
 20
0.0
 30
0.0
  0
VERTEX
  5
584
  8
0
  6
CONTINUOUS
 62
     7
 10
699.4987712364
 20
514.7025131835
 30
0.0
  0
VERTEX
  5
585
  8
0
  6
CONTINUOUS
 62
     7
 10
699.4964019518
 20
514.7484460129
 30
0.0
  0
VERTEX
  5
586
  8
0
  6
CONTINUOUS
 62
     7
 10
699.4931609492
 20
514.7832923783
 30
0.0
  0
VERTEX
  5
587
  8
0
  6
CONTINUOUS
 62
     7
 10
699.489167438
 20
514.8060390009
 30
0.0
  0
VERTEX
  5
588
  8
0
  6
CONTINUOUS
 62
     7
 10
699.4847641449
 20
514.8136311425
 30
0.0
  0
VERTEX
  5
589
  8
0
  6
CONTINUOUS
 62
     7
 10
699.4803310494
 20
514.8060390009
 30
0.0
  0
VERTEX
  5
58A
  8
0
  6
CONTINUOUS
 62
     7
 10
699.476270483
 20
514.7832700266
 30
0.0
  0
VERTEX
  5
58B
  8
0
  6
CONTINUOUS
 62
     7
 10
699.4729624252
 20
514.7483342542
 30
0.0
  0
VERTEX
  5
58C
  8
0
  6
CONTINUOUS
 62
     7
 10
699.4705484371
 20
514.7025131835
 30
0.0
  0
SEQEND
  5
63E
  8
0
  6
CONTINUOUS
 62
     7
  0
LINE
  5
29E
  8
0
  6
CONTINUOUS
 62
     7
 10
699.4705484371
 20
514.7025131835
 30
0.0
 11
699.3659795384
 21
511.91791829
 31
0.0
  0
ARC
  5
29F
  8
0
  6
CONTINUOUS
 62
     7
 10
700.0968650409
 20
511.839122861
 30
0.0
 40
0.735120627732849
 50
173.8468120615
 51
193.3782520103
  0
LINE
  5
2A0
  8
0
  6
CONTINUOUS
 62
     7
 10
699.5774419169
 20
511.6690316452
 30
0.0
 11
699.3816928129
 21
511.6690316452
 31
0.0
  0
LINE
  5
2A1
  8
0
  6
CONTINUOUS
 62
     7
 10
697.1478969912
 20
505.8190369262
 30
0.0
 11
698.632820056
 21
505.8190369262
 31
0.0
  0
LINE
  5
2A2
  8
0
  6
CONTINUOUS
 62
     7
 10
697.1242712002
 20
506.0679161204
 30
0.0
 11
698.6089185934
 21
506.0679161204
 31
0.0
  0
LINE
  5
2A3
  8
0
  6
CONTINUOUS
 62
     7
 10
697.567290173
 20
514.3217363609
 30
0.0
 11
699.0570859175
 21
514.3217363609
 31
0.0
  0
LINE
  5
2A4
  8
0
  6
CONTINUOUS
 62
     7
 10
697.2818286281
 20
514.5706230058
 30
0.0
 11
698.7683088641
 21
514.5706230058
 31
0.0
  0
LINE
  5
2A5
  8
0
  6
CONTINUOUS
 62
     7
 10
697.2575918894
 20
514.7506215824
 30
0.0
 11
698.7437890034
 21
514.7506215824
 31
0.0
  0
LINE
  5
2A6
  8
0
  6
CONTINUOUS
 62
     7
 10
697.2575918894
 20
517.9906183137
 30
0.0
 11
698.7437890034
 21
517.9906183137
 31
0.0
  0
LINE
  5
2A7
  8
0
  6
CONTINUOUS
 62
     7
 10
697.2575918894
 20
522.9190358175
 30
0.0
 11
698.7437890034
 21
522.9190358175
 31
0.0
  0
LINE
  5
2A8
  8
0
  6
CONTINUOUS
 62
     7
 10
698.7437890034
 20
522.9190358175
 30
0.0
 11
698.7437890034
 21
519.6790316357
 31
0.0
  0
LINE
  5
2A9
  8
0
  6
CONTINUOUS
 62
     7
 10
697.2575918894
 20
519.6790316357
 30
0.0
 11
698.7437890034
 21
519.6790316357
 31
0.0
  0
LINE
  5
2AA
  8
0
  6
CONTINUOUS
 62
     7
 10
699.8453200917
 20
523.0990343942
 30
0.0
 11
698.7683088641
 21
523.0990343942
 31
0.0
  0
ARC
  5
2AB
  8
0
  6
CONTINUOUS
 62
     7
 10
699.2624293475
 20
523.0094418094
 30
0.0
 40
0.589735916288705
 50
357.9082381172
 51
8.7382003904
  0
LINE
  5
2AC
  8
0
  6
CONTINUOUS
 62
     7
 10
699.9445767264
 20
511.6370686544
 30
0.0
 11
699.8517722945
 21
522.9879164352
 31
0.0
  0
POLYLINE
  5
2AD
  8
0
  6
CONTINUOUS
 62
     7
 66
     1
 10
0.0
 20
0.0
 30
0.0
  0
VERTEX
  5
58D
  8
0
  6
CONTINUOUS
 62
     7
 10
699.9445767264
 20
511.6370686544
 30
0.0
  0
VERTEX
  5
58E
  8
0
  6
CONTINUOUS
 62
     7
 10
699.9446065287
 20
511.5911656274
 30
0.0
  0
VERTEX
  5
58F
  8
0
  6
CONTINUOUS
 62
     7
 10
699.9446437817
 20
511.5562894596
 30
0.0
  0
VERTEX
  5
590
  8
0
  6
CONTINUOUS
 62
     7
 10
699.944673584
 20
511.5335502876
 30
0.0
  0
VERTEX
  5
591
  8
0
  6
CONTINUOUS
 62
     7
 10
699.9446810346
 20
511.5259506954
 30
0.0
  0
VERTEX
  5
592
  8
0
  6
CONTINUOUS
 62
     7
 10
699.9446810346
 20
511.5259655966
 30
0.0
  0
SEQEND
  5
63D
  8
0
  6
CONTINUOUS
 62
     7
  0
LINE
  5
2AE
  8
0
  6
CONTINUOUS
 62
     7
 10
699.9446810346
 20
505.8190369262
 30
0.0
 11
699.9354721169
 21
505.8190369262
 31
0.0
  0
ARC
  5
2AF
  8
0
  6
CONTINUOUS
 62
     7
 10
701.8048309379
 20
505.9100865076
 30
0.0
 40
1.871574852302321
 50
179.3858495896
 51
182.7884627056
  0
LINE
  5
2B0
  8
0
  6
CONTINUOUS
 62
     7
 10
699.7373015742
 20
519.3879151
 30
0.0
 11
699.9333636026
 21
505.9301474346
 31
0.0
  0
ARC
  5
2B1
  8
0
  6
CONTINUOUS
 62
     7
 10
699.3339622397
 20
519.4090817456
 30
0.0
 40
0.4038943496614077
 50
356.9959587872
 51
12.8682547835
  0
LINE
  5
2B2
  8
0
  6
CONTINUOUS
 62
     7
 10
699.727712677
 20
519.499033059
 30
0.0
 11
698.7683088641
 21
519.499033059
 31
0.0
  0
ARC
  5
2B3
  8
0
  6
CONTINUOUS
 62
     7
 10
699.091829366
 20
519.6347732059
 30
0.0
 40
0.3508431310994706
 50
172.7528993238
 51
202.7615575243
  0
ARC
  5
2B4
  8
0
  6
CONTINUOUS
 62
     7
 10
699.0928751389
 20
522.9631517894
 30
0.0
 40
0.3518626848856022
 50
157.2829361327
 51
187.2026070193
  0
LINE
  5
2B5
  8
0
  6
CONTINUOUS
 62
     7
 10
697.2818286281
 20
523.0990343942
 30
0.0
 11
698.7683088641
 21
523.0990343942
 31
0.0
  0
LINE
  5
2B6
  8
0
  6
CONTINUOUS
 62
     7
 10
697.2818286281
 20
519.499033059
 30
0.0
 11
698.7683088641
 21
519.499033059
 31
0.0
  0
LINE
  5
2B7
  8
0
  6
CONTINUOUS
 62
     7
 10
697.2818286281
 20
518.1706243409
 30
0.0
 11
698.7683088641
 21
518.1706243409
 31
0.0
  0
POLYLINE
  5
2B8
  8
0
  6
CONTINUOUS
 62
     7
 66
     1
 10
0.0
 20
0.0
 30
0.0
  0
VERTEX
  5
593
  8
0
  6
CONTINUOUS
 62
     7
 10
576.6825773876
 20
590.1768052234
 30
0.0
  0
VERTEX
  5
594
  8
0
  6
CONTINUOUS
 62
     7
 10
576.5812830191
 20
589.8251825227
 30
0.0
  0
VERTEX
  5
595
  8
0
  6
CONTINUOUS
 62
     7
 10
576.4941186767
 20
589.519038166
 30
0.0
  0
SEQEND
  5
63C
  8
0
  6
CONTINUOUS
 62
     7
  0
ARC
  5
2B9
  8
0
  6
CONTINUOUS
 62
     7
 10
586.4446824055
 20
559.5190339459
 30
0.0
 40
110.1159485895229
 50
15.8095187283
 51
16.3018419119
  0
LINE
  5
2BA
  8
0
  6
CONTINUOUS
 62
     7
 10
575.4446820478
 20
649.9190324201
 30
0.0
 11
584.0871133964
 21
649.9190324201
 31
0.0
  0
LINE
  5
2BB
  8
0
  6
CONTINUOUS
 62
     7
 10
601.9446835976
 20
651.4190280093
 30
0.0
 11
576.9446813624
 21
651.4190280093
 31
0.0
  0
LINE
  5
2BC
  8
0
  6
CONTINUOUS
 62
     7
 10
684.8022514145
 20
649.9190324201
 30
0.0
 11
693.4446827631
 21
649.9190324201
 31
0.0
  0
LINE
  5
2BD
  8
0
  6
CONTINUOUS
 62
     7
 10
666.9446812134
 20
651.4190280093
 30
0.0
 11
691.9446834485
 21
651.4190280093
 31
0.0
  0
POLYLINE
  5
2BE
  8
0
  6
CONTINUOUS
 62
     7
 66
     1
 10
0.0
 20
0.0
 30
0.0
  0
VERTEX
  5
596
  8
0
  6
CONTINUOUS
 62
     7
 10
648.4446828376
 20
682.9781525983
 30
0.0
  0
VERTEX
  5
597
  8
0
  6
CONTINUOUS
 62
     7
 10
648.3271462034
 20
683.0956929578
 30
0.0
  0
VERTEX
  5
598
  8
0
  6
CONTINUOUS
 62
     7
 10
647.9765107046
 20
683.4463172807
 30
0.0
  0
VERTEX
  5
599
  8
0
  6
CONTINUOUS
 62
     7
 10
647.3986641626
 20
684.0241545095
 30
0.0
  0
VERTEX
  5
59A
  8
0
  6
CONTINUOUS
 62
     7
 10
646.6033081646
 20
684.8195188893
 30
0.0
  0
VERTEX
  5
59B
  8
0
  6
CONTINUOUS
 62
     7
 10
645.6037978764
 20
685.8190291776
 30
0.0
  0
SEQEND
  5
63B
  8
0
  6
CONTINUOUS
 62
     7
  0
POLYLINE
  5
2BF
  8
0
  6
CONTINUOUS
 62
     7
 66
     1
 10
0.0
 20
0.0
 30
0.0
  0
VERTEX
  5
59C
  8
0
  6
CONTINUOUS
 62
     7
 10
623.2855669345
 20
685.8190291776
 30
0.0
  0
VERTEX
  5
59D
  8
0
  6
CONTINUOUS
 62
     7
 10
622.2860566463
 20
684.8195188893
 30
0.0
  0
VERTEX
  5
59E
  8
0
  6
CONTINUOUS
 62
     7
 10
621.4907006483
 20
684.0241545095
 30
0.0
  0
VERTEX
  5
59F
  8
0
  6
CONTINUOUS
 62
     7
 10
620.9128541063
 20
683.4463172807
 30
0.0
  0
VERTEX
  5
5A0
  8
0
  6
CONTINUOUS
 62
     7
 10
620.5622186075
 20
683.0956929578
 30
0.0
  0
VERTEX
  5
5A1
  8
0
  6
CONTINUOUS
 62
     7
 10
620.4446819733
 20
682.9781525983
 30
0.0
  0
SEQEND
  5
63A
  8
0
  6
CONTINUOUS
 62
     7
  0
ARC
  5
2C0
  8
0
  6
CONTINUOUS
 62
     7
 10
634.4446824055
 20
696.9781168855
 30
0.0
 40
13.99997784733999
 50
232.8520614836
 51
307.1479385164
  0
LINE
  5
2C1
  8
0
  6
CONTINUOUS
 62
     7
 10
699.105946825
 20
505.9301474346
 30
0.0
 11
699.7507573228
 21
505.9301474346
 31
0.0
  0
LINE
  5
2C2
  8
0
  6
CONTINUOUS
 62
     7
 10
698.2396901708
 20
519.3879151
 30
0.0
 11
698.4621123533
 21
519.3879151
 31
0.0
  0
LINE
  5
2C3
  8
0
  6
CONTINUOUS
 62
     7
 10
699.412530766
 20
505.8190369262
 30
0.0
 11
699.7598172288
 21
505.8190369262
 31
0.0
  0
LINE
  5
2C4
  8
0
  6
CONTINUOUS
 62
     7
 10
559.5024214249
 20
559.5190369739
 30
0.0
 11
559.4446794252
 21
559.5190369739
 31
0.0
  0
LINE
  5
2C5
  8
0
  6
CONTINUOUS
 62
     7
 10
709.4446853857
 20
559.5190369739
 30
0.0
 11
709.3869433861
 21
559.5190369739
 31
0.0
  0
LINE
  5
2C6
  8
0
  6
CONTINUOUS
 62
     7
 10
665.7526702742
 20
670.4190367116
 30
0.0
 11
666.7029322247
 21
651.1772864713
 31
0.0
  0
LINE
  5
2C7
  8
0
  6
CONTINUOUS
 62
     7
 10
660.0958150934
 20
670.4190367116
 30
0.0
 11
665.7526702742
 21
670.4190367116
 31
0.0
  0
LINE
  5
2C8
  8
0
  6
CONTINUOUS
 62
     8
 10
693.8187056343
 20
549.6190333022
 30
0.0
 11
693.9923637669
 21
559.6190386666
 31
0.0
  0
LINE
  5
2C9
  8
0
  6
CONTINUOUS
 62
     8
 10
575.0706591766
 20
549.6190333022
 30
0.0
 11
574.897001044
 21
559.6190386666
 31
0.0
  0
LINE
  5
2CA
  8
0
  6
CONTINUOUS
 62
     8
 10
575.1648494165
 20
571.5190314902
 30
0.0
 11
575.0908688764
 21
559.6190386666
 31
0.0
  0
LINE
  5
2CB
  8
0
  6
CONTINUOUS
 62
     8
 10
693.7245153944
 20
571.5190314902
 30
0.0
 11
693.7984959345
 21
559.6190386666
 31
0.0
  0
LINE
  5
2CC
  8
0
  6
CONTINUOUS
 62
     8
 10
575.8404159109
 20
548.5799231781
 30
0.0
 11
575.0706591766
 21
549.6190333022
 31
0.0
  0
LINE
  5
2CD
  8
0
  6
CONTINUOUS
 62
     8
 10
693.0489489
 20
548.5799231781
 30
0.0
 11
693.8187056343
 21
549.6190333022
 31
0.0
  0
LINE
  5
2CE
  8
0
  6
CONTINUOUS
 62
     8
 10
645.5770493607
 20
640.8784979238
 30
0.0
 11
645.5770493607
 21
631.6467070235
 31
0.0
  0
LINE
  5
2CF
  8
0
  6
CONTINUOUS
 62
     8
 10
617.5406393717
 20
642.0603537215
 30
0.0
 11
617.5406393717
 21
631.4412200107
 31
0.0
  0
LINE
  5
2D0
  8
0
  6
CONTINUOUS
 62
     8
 10
623.3123154502
 20
640.8784979238
 30
0.0
 11
623.3123154502
 21
631.6467070235
 31
0.0
  0
LINE
  5
2D1
  8
0
  6
CONTINUOUS
 62
     8
 10
616.9126727741
 20
646.24749061
 30
0.0
 11
651.9766920369
 21
646.24749061
 31
0.0
  0
LINE
  5
2D2
  8
0
  6
CONTINUOUS
 62
     8
 10
651.3487254392
 20
642.0603537215
 30
0.0
 11
651.3487254392
 21
631.4412200107
 31
0.0
  0
LINE
  5
2D3
  8
0
  6
CONTINUOUS
 62
     8
 10
652.6397825341
 20
647.5839012517
 30
0.0
 11
652.6397825341
 21
634.4667368783
 31
0.0
  0
LINE
  5
2D4
  8
0
  6
CONTINUOUS
 62
     8
 10
616.2495822768
 20
647.5839012517
 30
0.0
 11
616.2495822768
 21
634.4667368783
 31
0.0
  0
LINE
  5
2D5
  8
0
  6
CONTINUOUS
 62
     8
 10
565.7537491183
 20
549.6190333022
 30
0.0
 11
564.9078325491
 21
559.6190386666
 31
0.0
  0
LINE
  5
2D6
  8
0
  6
CONTINUOUS
 62
     8
 10
703.1356156926
 20
549.6190333022
 30
0.0
 11
703.9815322618
 21
559.6190386666
 31
0.0
  0
LINE
  5
2D7
  8
0
  6
CONTINUOUS
 62
     8
 10
693.7245153944
 20
589.519038166
 30
0.0
 11
693.7245153944
 21
571.5190314902
 31
0.0
  0
LINE
  5
2D8
  8
0
  6
CONTINUOUS
 62
     8
 10
575.1648494165
 20
589.519038166
 30
0.0
 11
575.1648494165
 21
571.5190314902
 31
0.0
  0
LINE
  5
2D9
  8
0
  6
CONTINUOUS
 62
     8
 10
699.2573947768
 20
548.5442796005
 30
0.0
 11
703.1356156926
 21
549.6190333022
 31
0.0
  0
LINE
  5
2DA
  8
0
  6
CONTINUOUS
 62
     8
 10
569.6319700341
 20
548.5442796005
 30
0.0
 11
565.7537491183
 21
549.6190333022
 31
0.0
  0
LINE
  5
2DB
  8
0
  6
CONTINUOUS
 62
     8
 10
702.8259025078
 20
571.5190314902
 30
0.0
 11
703.1234488945
 21
559.6190386666
 31
0.0
  0
LINE
  5
2DC
  8
0
  6
CONTINUOUS
 62
     8
 10
566.0634623032
 20
571.5190314902
 30
0.0
 11
565.7659159164
 21
559.6190386666
 31
0.0
  0
LINE
  5
2DD
  8
0
  6
CONTINUOUS
 62
     8
 10
702.8259025078
 20
589.519038166
 30
0.0
 11
702.8259025078
 21
571.5190314902
 31
0.0
  0
LINE
  5
2DE
  8
0
  6
CONTINUOUS
 62
     8
 10
566.0634623032
 20
589.519038166
 30
0.0
 11
566.0634623032
 21
571.5190314902
 31
0.0
  0
LINE
  5
2DF
  8
0
  6
CONTINUOUS
 62
     8
 10
577.4446823757
 20
529.6190374745
 30
0.0
 11
577.4446823757
 21
548.5372760548
 31
0.0
  0
LINE
  5
2E0
  8
0
  6
CONTINUOUS
 62
     8
 10
691.4446824353
 20
529.6190374745
 30
0.0
 11
691.4446824353
 21
548.5372760548
 31
0.0
  0
LINE
  5
2E1
  8
0
  6
CONTINUOUS
 62
     8
 10
682.3245571117
 20
529.6190374745
 30
0.0
 11
682.3245571117
 21
505.8424764527
 31
0.0
  0
LINE
  5
2E2
  8
0
  6
CONTINUOUS
 62
     8
 10
586.5648076992
 20
529.6190374745
 30
0.0
 11
586.5648076992
 21
505.8424764527
 31
0.0
  0
LINE
  5
2E3
  8
0
  6
CONTINUOUS
 62
     8
 10
695.0899497728
 20
529.6190374745
 30
0.0
 11
695.0899497728
 21
495.9585138811
 31
0.0
  0
LINE
  5
2E4
  8
0
  6
CONTINUOUS
 62
     8
 10
695.0899497728
 20
483.589302118
 30
0.0
 11
695.0899497728
 21
480.5792489304
 31
0.0
  0
LINE
  5
2E5
  8
0
  6
CONTINUOUS
 62
     8
 10
573.7994150381
 20
529.6190374745
 30
0.0
 11
573.7994150381
 21
495.9585138811
 31
0.0
  0
LINE
  5
2E6
  8
0
  6
CONTINUOUS
 62
     8
 10
573.7994150381
 20
483.589302118
 30
0.0
 11
573.7994150381
 21
480.5792489304
 31
0.0
  0
LINE
  5
2E7
  8
0
  6
CONTINUOUS
 62
     8
 10
658.7022249709
 20
649.8187178029
 30
0.0
 11
658.7022249709
 21
631.6126280679
 31
0.0
  0
LINE
  5
2E8
  8
0
  6
CONTINUOUS
 62
     8
 10
610.18713984
 20
649.8187178029
 30
0.0
 11
610.18713984
 21
631.6126280679
 31
0.0
  0
LINE
  5
2E9
  8
0
  6
CONTINUOUS
 62
     8
 10
608.9720768045
 20
649.9190324201
 30
0.0
 11
608.9720768045
 21
631.8608665122
 31
0.0
  0
LINE
  5
2EA
  8
0
  6
CONTINUOUS
 62
     8
 10
659.9172880064
 20
649.9190324201
 30
0.0
 11
659.9172880064
 21
631.8608665122
 31
0.0
  0
LINE
  5
2EB
  8
0
  6
CONTINUOUS
 62
     8
 10
662.6781304489
 20
649.9190324201
 30
0.0
 11
662.6781304489
 21
631.5190338744
 31
0.0
  0
LINE
  5
2EC
  8
0
  6
CONTINUOUS
 62
     8
 10
606.211234362
 20
649.9190324201
 30
0.0
 11
606.211234362
 21
631.5190338744
 31
0.0
  0
LINE
  5
2ED
  8
0
  6
CONTINUOUS
 62
     8
 10
684.8022514145
 20
649.9190324201
 30
0.0
 11
684.8022514145
 21
631.5190338744
 31
0.0
  0
LINE
  5
2EE
  8
0
  6
CONTINUOUS
 62
     8
 10
584.0871133964
 20
649.9190324201
 30
0.0
 11
584.0871133964
 21
631.5190338744
 31
0.0
  0
INSERT
  5
2FA
  8
FORMAT
  2
SW_CENTERMARKSYMBOL_0
 10
634.4446824055
 20
430.8190339459
 30
0.0
  0
LINE
  5
2FB
  8
0
  6
CONTINUOUS
 62
     7
 10
121.4428126165
 20
-95.3687768138
 30
0.0
 11
143.9428135106
 21
-95.3687768138
 31
0.0
  0
LINE
  5
2FC
  8
0
  6
CONTINUOUS
 62
     7
 10
143.9428135106
 20
82.6312262856
 30
0.0
 11
121.4428126165
 21
82.6312262856
 31
0.0
  0
LINE
  5
2FD
  8
0
  6
CONTINUOUS
 62
     7
 10
-23.5571832111
 20
82.6312262856
 30
0.0
 11
-46.0571841052
 21
82.6312262856
 31
0.0
  0
LINE
  5
2FE
  8
0
  6
CONTINUOUS
 62
     7
 10
-46.0571841052
 20
-95.3687768138
 30
0.0
 11
-23.5571832111
 21
-95.3687768138
 31
0.0
  0
LINE
  5
2FF
  8
0
  6
CONTINUOUS
 62
     7
 10
-5.3769842437
 20
37.1973511123
 30
0.0
 11
-23.5571832111
 21
40.7312248193
 31
0.0
  0
LINE
  5
300
  8
0
  6
CONTINUOUS
 62
     7
 10
121.4428126165
 20
40.7312248193
 30
0.0
 11
103.2626136491
 21
37.1973511123
 31
0.0
  0
LINE
  5
301
  8
0
  6
CONTINUOUS
 62
     7
 10
103.2626136491
 20
-49.9349016405
 30
0.0
 11
121.4428126165
 21
-53.4687753475
 31
0.0
  0
LINE
  5
302
  8
0
  6
CONTINUOUS
 62
     7
 10
-23.5571832111
 20
-53.4687753475
 30
0.0
 11
-5.3769842437
 21
-49.9349016405
 31
0.0
  0
LINE
  5
303
  8
0
  6
CONTINUOUS
 62
     7
 10
73.442814062
 20
-30.8687746234
 30
0.0
 11
73.442814062
 21
18.1312240951
 31
0.0
  0
LINE
  5
304
  8
0
  6
CONTINUOUS
 62
     7
 10
74.2965015867
 20
18.9849116199
 30
0.0
 11
73.442814062
 21
18.1312240951
 31
0.0
  0
POLYLINE
  5
305
  8
0
  6
CONTINUOUS
 62
     7
 66
     1
 10
0.0
 20
0.0
 30
0.0
  0
VERTEX
  5
5A2
  8
0
  6
CONTINUOUS
 62
     7
 10
74.2965015867
 20
-31.7224621481
 30
0.0
  0
VERTEX
  5
5A3
  8
0
  6
CONTINUOUS
 62
     7
 10
74.2656077543
 20
-24.2499656684
 30
0.0
  0
VERTEX
  5
5A4
  8
0
  6
CONTINUOUS
 62
     7
 10
74.2423023382
 20
-16.6914885572
 30
0.0
  0
VERTEX
  5
5A5
  8
0
  6
CONTINUOUS
 62
     7
 10
74.2303385684
 20
-8.8565336715
 30
0.0
  0
VERTEX
  5
5A6
  8
0
  6
CONTINUOUS
 62
     7
 10
74.2329648981
 20
-0.9958677634
 30
0.0
  0
VERTEX
  5
5A7
  8
0
  6
CONTINUOUS
 62
     7
 10
74.2425053665
 20
4.0349407413
 30
0.0
  0
VERTEX
  5
5A8
  8
0
  6
CONTINUOUS
 62
     7
 10
74.2569445917
 20
9.028494946
 30
0.0
  0
VERTEX
  5
5A9
  8
0
  6
CONTINUOUS
 62
     7
 10
74.2965015867
 20
18.9849116199
 30
0.0
  0
SEQEND
  5
639
  8
0
  6
CONTINUOUS
 62
     7
  0
LINE
  5
306
  8
0
  6
CONTINUOUS
 62
     7
 10
74.2965015867
 20
-31.7224621481
 30
0.0
 11
73.442814062
 21
-30.8687746234
 31
0.0
  0
LINE
  5
307
  8
0
  6
CONTINUOUS
 62
     7
 10
73.442814062
 20
18.1312240951
 30
0.0
 11
24.4428153435
 21
18.1312240951
 31
0.0
  0
LINE
  5
308
  8
0
  6
CONTINUOUS
 62
     7
 10
23.5891278187
 20
18.9849116199
 30
0.0
 11
24.4428153435
 21
18.1312240951
 31
0.0
  0
POLYLINE
  5
309
  8
0
  6
CONTINUOUS
 62
     7
 66
     1
 10
0.0
 20
0.0
 30
0.0
  0
VERTEX
  5
5AA
  8
0
  6
CONTINUOUS
 62
     7
 10
48.9428147027
 20
18.917765125
 30
0.0
  0
VERTEX
  5
5AB
  8
0
  6
CONTINUOUS
 62
     7
 10
43.569907202
 20
18.9213749313
 30
0.0
  0
VERTEX
  5
5AC
  8
0
  6
CONTINUOUS
 62
     7
 10
38.5390986973
 20
18.9309153997
 30
0.0
  0
VERTEX
  5
5AD
  8
0
  6
CONTINUOUS
 62
     7
 10
33.5455444926
 20
18.9453546249
 30
0.0
  0
VERTEX
  5
5AE
  8
0
  6
CONTINUOUS
 62
     7
 10
23.5891278187
 20
18.9849116199
 30
0.0
  0
SEQEND
  5
638
  8
0
  6
CONTINUOUS
 62
     7
  0
POLYLINE
  5
30A
  8
0
  6
CONTINUOUS
 62
     7
 66
     1
 10
0.0
 20
0.0
 30
0.0
  0
VERTEX
  5
5AF
  8
0
  6
CONTINUOUS
 62
     7
 10
74.2965015867
 20
18.9849116199
 30
0.0
  0
VERTEX
  5
5B0
  8
0
  6
CONTINUOUS
 62
     7
 10
68.0896780738
 20
18.9588085108
 30
0.0
  0
VERTEX
  5
5B1
  8
0
  6
CONTINUOUS
 62
     7
 10
61.8243665719
 20
18.9375222021
 30
0.0
  0
VERTEX
  5
5B2
  8
0
  6
CONTINUOUS
 62
     7
 10
55.4054306173
 20
18.9230215096
 30
0.0
  0
VERTEX
  5
5B3
  8
0
  6
CONTINUOUS
 62
     7
 10
48.9428147027
 20
18.917765125
 30
0.0
  0
SEQEND
  5
637
  8
0
  6
CONTINUOUS
 62
     7
  0
LINE
  5
30B
  8
0
  6
CONTINUOUS
 62
     7
 10
24.4428153435
 20
18.1312240951
 30
0.0
 11
24.4428153435
 21
-30.8687746234
 31
0.0
  0
LINE
  5
30C
  8
0
  6
CONTINUOUS
 62
     7
 10
23.5891278187
 20
-31.7224621481
 30
0.0
 11
24.4428153435
 21
-30.8687746234
 31
0.0
  0
POLYLINE
  5
30D
  8
0
  6
CONTINUOUS
 62
     7
 66
     1
 10
0.0
 20
0.0
 30
0.0
  0
VERTEX
  5
5B4
  8
0
  6
CONTINUOUS
 62
     7
 10
23.5891278187
 20
18.9849116199
 30
0.0
  0
VERTEX
  5
5B5
  8
0
  6
CONTINUOUS
 62
     7
 10
23.6200216511
 20
11.5124151402
 30
0.0
  0
VERTEX
  5
5B6
  8
0
  6
CONTINUOUS
 62
     7
 10
23.6433270672
 20
3.953938029
 30
0.0
  0
VERTEX
  5
5B7
  8
0
  6
CONTINUOUS
 62
     7
 10
23.655290837
 20
-3.8810168567
 30
0.0
  0
VERTEX
  5
5B8
  8
0
  6
CONTINUOUS
 62
     7
 10
23.6526645073
 20
-11.7416827648
 30
0.0
  0
VERTEX
  5
5B9
  8
0
  6
CONTINUOUS
 62
     7
 10
23.6431240389
 20
-16.7724912695
 30
0.0
  0
VERTEX
  5
5BA
  8
0
  6
CONTINUOUS
 62
     7
 10
23.6286848137
 20
-21.7660454742
 30
0.0
  0
VERTEX
  5
5BB
  8
0
  6
CONTINUOUS
 62
     7
 10
23.5891278187
 20
-31.7224621481
 30
0.0
  0
SEQEND
  5
636
  8
0
  6
CONTINUOUS
 62
     7
  0
LINE
  5
30E
  8
0
  6
CONTINUOUS
 62
     7
 10
24.4428153435
 20
-30.8687746234
 30
0.0
 11
73.442814062
 21
-30.8687746234
 31
0.0
  0
POLYLINE
  5
30F
  8
0
  6
CONTINUOUS
 62
     7
 66
     1
 10
0.0
 20
0.0
 30
0.0
  0
VERTEX
  5
5BC
  8
0
  6
CONTINUOUS
 62
     7
 10
48.9428147027
 20
-31.6553156532
 30
0.0
  0
VERTEX
  5
5BD
  8
0
  6
CONTINUOUS
 62
     7
 10
54.3157222034
 20
-31.6589254595
 30
0.0
  0
VERTEX
  5
5BE
  8
0
  6
CONTINUOUS
 62
     7
 10
59.3465307081
 20
-31.6684659279
 30
0.0
  0
VERTEX
  5
5BF
  8
0
  6
CONTINUOUS
 62
     7
 10
64.3400849128
 20
-31.6829051531
 30
0.0
  0
VERTEX
  5
5C0
  8
0
  6
CONTINUOUS
 62
     7
 10
74.2965015867
 20
-31.7224621481
 30
0.0
  0
SEQEND
  5
635
  8
0
  6
CONTINUOUS
 62
     7
  0
POLYLINE
  5
310
  8
0
  6
CONTINUOUS
 62
     7
 66
     1
 10
0.0
 20
0.0
 30
0.0
  0
VERTEX
  5
5C1
  8
0
  6
CONTINUOUS
 62
     7
 10
23.5891278187
 20
-31.7224621481
 30
0.0
  0
VERTEX
  5
5C2
  8
0
  6
CONTINUOUS
 62
     7
 10
29.7959513316
 20
-31.696359039
 30
0.0
  0
VERTEX
  5
5C3
  8
0
  6
CONTINUOUS
 62
     7
 10
36.0612628335
 20
-31.6750727303
 30
0.0
  0
VERTEX
  5
5C4
  8
0
  6
CONTINUOUS
 62
     7
 10
42.4801987881
 20
-31.6605720378
 30
0.0
  0
VERTEX
  5
5C5
  8
0
  6
CONTINUOUS
 62
     7
 10
48.9428147027
 20
-31.6553156532
 30
0.0
  0
SEQEND
  5
634
  8
0
  6
CONTINUOUS
 62
     7
  0
ARC
  5
311
  8
0
  6
CONTINUOUS
 62
     7
 10
48.9428147027
 20
-6.3687752641
 30
0.0
 40
46.0
 50
127.2303705097
 51
232.7696294903
  0
ARC
  5
312
  8
0
  6
CONTINUOUS
 62
     7
 10
48.9838186232
 20
58.8425196692
 30
0.0
 40
39.92477560034344
 50
225.7242429122
 51
269.9411555365
  0
ARC
  5
313
  8
0
  6
CONTINUOUS
 62
     7
 10
48.9783425746
 20
-71.5666296283
 30
0.0
 40
39.91132978805325
 50
90.0510029957
 51
134.2835985556
  0
ARC
  5
314
  8
0
  6
CONTINUOUS
 62
     7
 10
48.9072868308
 20
58.8290791001
 30
0.0
 40
39.91132978805328
 50
270.0510029957
 51
314.2835985556
  0
ARC
  5
315
  8
0
  6
CONTINUOUS
 62
     7
 10
48.9428147027
 20
-6.3687752641
 30
0.0
 40
46.00000000000001
 50
307.2303705097
 51
52.7696294903
  0
ARC
  5
316
  8
0
  6
CONTINUOUS
 62
     7
 10
48.9018107822
 20
-71.5800701974
 30
0.0
 40
39.92477560034346
 50
45.7242429122
 51
89.9411555365
  0
LINE
  5
317
  8
0
  6
CONTINUOUS
 62
     7
 10
21.1596965143
 20
30.2931700193
 30
0.0
 11
21.1118377099
 21
30.2568521642
 31
0.0
  0
ARC
  5
318
  8
0
  6
CONTINUOUS
 62
     7
 10
48.9428147027
 20
59.2087083719
 30
0.0
 40
40.1
 50
226.1441924265
 51
313.8558075735
  0
LINE
  5
319
  8
0
  6
CONTINUOUS
 62
     7
 10
76.7737916955
 20
30.2568521642
 30
0.0
 11
76.7259328911
 21
30.2931700193
 31
0.0
  0
ARC
  5
31A
  8
0
  6
CONTINUOUS
 62
     7
 10
48.9428147027
 20
-71.9462589001
 30
0.0
 40
40.09999999999999
 50
46.1441924265
 51
133.8558075735
  0
LINE
  5
31B
  8
0
  6
CONTINUOUS
 62
     7
 10
21.1118377099
 20
-42.9944026924
 30
0.0
 11
21.1596965143
 21
-43.0307205475
 31
0.0
  0
LINE
  5
31C
  8
0
  6
CONTINUOUS
 62
     7
 10
76.7259328911
 20
-43.0307205475
 30
0.0
 11
76.7737916955
 21
-42.9944026924
 31
0.0
  0
LINE
  5
31D
  8
0
  6
CONTINUOUS
 62
     7
 10
36.5453000465
 20
21.0732702457
 30
0.0
 11
32.6793595502
 21
24.9392126047
 31
0.0
  0
LINE
  5
31E
  8
0
  6
CONTINUOUS
 62
     7
 10
32.6793595502
 20
24.9392126047
 30
0.0
 11
32.6793595502
 21
25.9516123974
 31
0.0
  0
LINE
  5
31F
  8
0
  6
CONTINUOUS
 62
     7
 10
38.0004170635
 20
20.630554884
 30
0.0
 11
32.6793595502
 21
25.9516123974
 31
0.0
  0
LINE
  5
320
  8
0
  6
CONTINUOUS
 62
     7
 10
32.6793595502
 20
24.9392126047
 30
0.0
 11
31.0580945858
 21
23.3179476403
 31
0.0
  0
LINE
  5
321
  8
0
  6
CONTINUOUS
 62
     7
 10
32.6793595502
 20
25.9516123974
 30
0.0
 11
30.3876652667
 21
23.6599199765
 31
0.0
  0
LINE
  5
322
  8
0
  6
CONTINUOUS
 62
     7
 10
61.3403293589
 20
-33.8108207739
 30
0.0
 11
65.2062698552
 21
-37.6767631329
 31
0.0
  0
POLYLINE
  5
323
  8
0
  6
CONTINUOUS
 62
     7
 66
     1
 10
0.0
 20
0.0
 30
0.0
  0
VERTEX
  5
5C6
  8
0
  6
CONTINUOUS
 62
     7
 10
46.7031487548
 20
-31.9088533229
 30
0.0
  0
VERTEX
  5
5C7
  8
0
  6
CONTINUOUS
 62
     7
 10
49.2226022522
 20
-32.0053383417
 30
0.0
  0
VERTEX
  5
5C8
  8
0
  6
CONTINUOUS
 62
     7
 10
51.1824806506
 20
-31.9088533229
 30
0.0
  0
SEQEND
  5
633
  8
0
  6
CONTINUOUS
 62
     7
  0
POLYLINE
  5
324
  8
0
  6
CONTINUOUS
 62
     7
 66
     1
 10
0.0
 20
0.0
 30
0.0
  0
VERTEX
  5
5C9
  8
0
  6
CONTINUOUS
 62
     7
 10
51.1824806506
 20
19.1713027947
 30
0.0
  0
VERTEX
  5
5CA
  8
0
  6
CONTINUOUS
 62
     7
 10
48.6630271532
 20
19.2677878135
 30
0.0
  0
VERTEX
  5
5CB
  8
0
  6
CONTINUOUS
 62
     7
 10
46.7031487548
 20
19.1713027947
 30
0.0
  0
SEQEND
  5
632
  8
0
  6
CONTINUOUS
 62
     7
  0
LINE
  5
325
  8
0
  6
CONTINUOUS
 62
     7
 10
65.2062698552
 20
-37.6767631329
 30
0.0
 11
66.8275348196
 21
-36.0554981685
 31
0.0
  0
ARC
  5
326
  8
0
  6
CONTINUOUS
 62
     7
 10
48.9428147027
 20
-6.3687752641
 30
0.0
 40
26.35396576440267
 50
78.4886711287
 51
101.5113288713
  0
ARC
  5
327
  8
0
  6
CONTINUOUS
 62
     7
 10
48.9428147027
 20
-6.3687752641
 30
0.0
 40
26.35396576440267
 50
258.4886711287
 51
281.5113288713
  0
LINE
  5
328
  8
0
  6
CONTINUOUS
 62
     7
 10
65.2062698552
 20
-37.6767631329
 30
0.0
 11
65.2062698552
 21
-38.6891629256
 31
0.0
  0
LINE
  5
329
  8
0
  6
CONTINUOUS
 62
     7
 10
59.8852123419
 20
-33.3681054122
 30
0.0
 11
65.2062698552
 21
-38.6891629256
 31
0.0
  0
LINE
  5
32A
  8
0
  6
CONTINUOUS
 62
     7
 10
65.2062698552
 20
-38.6891629256
 30
0.0
 11
67.4979641387
 21
-36.3974705047
 31
0.0
  0
CIRCLE
  5
32B
  8
0
  6
CONTINUOUS
 62
     7
 10
48.9428147027
 20
38.6312247359
 30
0.0
 40
12.49999999999999
  0
ARC
  5
32C
  8
0
  6
CONTINUOUS
 62
     7
 10
48.9428147027
 20
38.6312247359
 30
0.0
 40
14.00000000000001
 50
157.5
 51
22.5
  0
ARC
  5
32D
  8
0
  6
CONTINUOUS
 62
     7
 10
48.9428147027
 20
38.6312247359
 30
0.0
 40
14.00000000000001
 50
22.5
 51
157.5
  0
ARC
  5
32E
  8
0
  6
CONTINUOUS
 62
     7
 10
48.9428147027
 20
-51.3687752641
 30
0.0
 40
14.00000000000001
 50
337.5
 51
202.5
  0
ARC
  5
32F
  8
0
  6
CONTINUOUS
 62
     7
 10
48.9428147027
 20
-51.3687752641
 30
0.0
 40
14.00000000000001
 50
202.5
 51
337.5
  0
CIRCLE
  5
330
  8
0
  6
CONTINUOUS
 62
     7
 10
48.9428147027
 20
-51.3687752641
 30
0.0
 40
12.49999999999999
  0
LINE
  5
331
  8
0
  6
CONTINUOUS
 62
     7
 10
36.008501547
 20
43.988793745
 30
0.0
 11
28.1182221422
 21
24.9399725639
 31
0.0
  0
LINE
  5
332
  8
0
  6
CONTINUOUS
 62
     7
 10
69.7674072632
 20
24.9399725639
 30
0.0
 11
61.8771278584
 21
43.988793745
 31
0.0
  0
LINE
  5
333
  8
0
  6
CONTINUOUS
 62
     7
 10
6.5264656493
 20
-24.1691492207
 30
0.0
 11
3.4590355405
 21
-23.9007848955
 31
0.0
  0
LINE
  5
334
  8
0
  6
CONTINUOUS
 62
     7
 10
3.4590355405
 20
11.1632343673
 30
0.0
 11
6.5264656493
 21
11.4315986925
 31
0.0
  0
LINE
  5
335
  8
0
  6
CONTINUOUS
 62
     7
 10
94.4265938649
 20
11.1632343673
 30
0.0
 11
91.3591637561
 21
11.4315986925
 31
0.0
  0
LINE
  5
336
  8
0
  6
CONTINUOUS
 62
     7
 10
91.3591637561
 20
-24.1691492207
 30
0.0
 11
94.4265938649
 21
-23.9007848955
 31
0.0
  0
LINE
  5
337
  8
0
  6
CONTINUOUS
 62
     7
 10
61.8771278584
 20
-56.7263442732
 30
0.0
 11
69.7674072632
 21
-37.6775230921
 31
0.0
  0
LINE
  5
338
  8
0
  6
CONTINUOUS
 62
     7
 10
28.1182221422
 20
-37.6775230921
 30
0.0
 11
36.008501547
 21
-56.7263442732
 31
0.0
  0
ARC
  5
339
  8
0
  6
CONTINUOUS
 62
     7
 10
101.3429377134
 20
7.5467973851
 30
0.0
 40
2.999876013977016
 50
359.9978235272
 51
85.0021490096
  0
ARC
  5
33A
  8
0
  6
CONTINUOUS
 62
     7
 10
101.3429793629
 20
7.5465706223
 30
0.0
 40
2.999834364385854
 50
291.9192534207
 51
0.002154588
  0
ARC
  5
33B
  8
0
  6
CONTINUOUS
 62
     7
 10
101.342980426
 20
-20.2841204324
 30
0.0
 40
2.999833301344342
 50
359.9978316956
 51
68.0807602957
  0
ARC
  5
33C
  8
0
  6
CONTINUOUS
 62
     7
 10
101.3429386521
 20
-20.2843487735
 30
0.0
 40
2.99987507533293
 50
274.9978345616
 51
0.0021929016
  0
POLYLINE
  5
33D
  8
0
  6
CONTINUOUS
 62
     7
 66
     1
 10
0.0
 20
0.0
 30
0.0
  0
VERTEX
  5
5CC
  8
0
  6
CONTINUOUS
 62
     7
 10
94.4265938649
 20
-23.9007848955
 30
0.0
  0
VERTEX
  5
5CD
  8
0
  6
CONTINUOUS
 62
     7
 10
96.4723742852
 20
-23.7218014605
 30
0.0
  0
VERTEX
  5
5CE
  8
0
  6
CONTINUOUS
 62
     7
 10
98.3894422004
 20
-23.554079578
 30
0.0
  0
VERTEX
  5
5CF
  8
0
  6
CONTINUOUS
 62
     7
 10
100.1180365035
 20
-23.402847693
 30
0.0
  0
VERTEX
  5
5D0
  8
0
  6
CONTINUOUS
 62
     7
 10
101.6042820463
 20
-23.2728182978
 30
0.0
  0
SEQEND
  5
631
  8
0
  6
CONTINUOUS
 62
     7
  0
POLYLINE
  5
33E
  8
0
  6
CONTINUOUS
 62
     7
 66
     1
 10
0.0
 20
0.0
 30
0.0
  0
VERTEX
  5
5D1
  8
0
  6
CONTINUOUS
 62
     7
 10
101.6042820463
 20
10.5352677696
 30
0.0
  0
VERTEX
  5
5D2
  8
0
  6
CONTINUOUS
 62
     7
 10
100.1180365035
 20
10.6652971648
 30
0.0
  0
VERTEX
  5
5D3
  8
0
  6
CONTINUOUS
 62
     7
 10
98.3894422004
 20
10.8165290498
 30
0.0
  0
VERTEX
  5
5D4
  8
0
  6
CONTINUOUS
 62
     7
 10
96.4723742852
 20
10.9842509323
 30
0.0
  0
VERTEX
  5
5D5
  8
0
  6
CONTINUOUS
 62
     7
 10
94.4265938649
 20
11.1632343673
 30
0.0
  0
SEQEND
  5
630
  8
0
  6
CONTINUOUS
 62
     7
  0
ARC
  5
33F
  8
0
  6
CONTINUOUS
 62
     7
 10
-3.4573092466
 20
-20.2843487735
 30
0.0
 40
2.999875075332932
 50
179.9978070984
 51
265.0021654384
  0
ARC
  5
340
  8
0
  6
CONTINUOUS
 62
     7
 10
-3.4573510206
 20
-20.2841204324
 30
0.0
 40
2.999833301344353
 50
111.9192397043
 51
180.0021683044
  0
ARC
  5
341
  8
0
  6
CONTINUOUS
 62
     7
 10
-3.4573499575
 20
7.5465706223
 30
0.0
 40
2.999834364385849
 50
179.997845412
 51
248.0807465793
  0
ARC
  5
342
  8
0
  6
CONTINUOUS
 62
     7
 10
-3.457308308
 20
7.5467973851
 30
0.0
 40
2.999876013977008
 50
94.9978509904
 51
180.0021764728
  0
POLYLINE
  5
343
  8
0
  6
CONTINUOUS
 62
     7
 66
     1
 10
0.0
 20
0.0
 30
0.0
  0
VERTEX
  5
5D6
  8
0
  6
CONTINUOUS
 62
     7
 10
3.4590355405
 20
-23.9007848955
 30
0.0
  0
VERTEX
  5
5D7
  8
0
  6
CONTINUOUS
 62
     7
 10
1.4132551202
 20
-23.7218014605
 30
0.0
  0
VERTEX
  5
5D8
  8
0
  6
CONTINUOUS
 62
     7
 10
-0.503812795
 20
-23.554079578
 30
0.0
  0
VERTEX
  5
5D9
  8
0
  6
CONTINUOUS
 62
     7
 10
-2.2324070981
 20
-23.402847693
 30
0.0
  0
VERTEX
  5
5DA
  8
0
  6
CONTINUOUS
 62
     7
 10
-3.7186526409
 20
-23.2728182978
 30
0.0
  0
SEQEND
  5
62F
  8
0
  6
CONTINUOUS
 62
     7
  0
POLYLINE
  5
344
  8
0
  6
CONTINUOUS
 62
     7
 66
     1
 10
0.0
 20
0.0
 30
0.0
  0
VERTEX
  5
5DB
  8
0
  6
CONTINUOUS
 62
     7
 10
-3.7186526409
 20
10.5352677696
 30
0.0
  0
VERTEX
  5
5DC
  8
0
  6
CONTINUOUS
 62
     7
 10
-2.2324070981
 20
10.6652971648
 30
0.0
  0
VERTEX
  5
5DD
  8
0
  6
CONTINUOUS
 62
     7
 10
-0.503812795
 20
10.8165290498
 30
0.0
  0
VERTEX
  5
5DE
  8
0
  6
CONTINUOUS
 62
     7
 10
1.4132551202
 20
10.9842509323
 30
0.0
  0
VERTEX
  5
5DF
  8
0
  6
CONTINUOUS
 62
     7
 10
3.4590355405
 20
11.1632343673
 30
0.0
  0
SEQEND
  5
62E
  8
0
  6
CONTINUOUS
 62
     7
  0
POLYLINE
  5
345
  8
0
  6
CONTINUOUS
 62
     7
 66
     1
 10
0.0
 20
0.0
 30
0.0
  0
VERTEX
  5
5E0
  8
0
  6
CONTINUOUS
 62
     7
 10
75.8790700981
 20
45.7870472514
 30
0.0
  0
VERTEX
  5
5E1
  8
0
  6
CONTINUOUS
 62
     7
 10
78.4226070443
 20
42.9927442514
 30
0.0
  0
VERTEX
  5
5E2
  8
0
  6
CONTINUOUS
 62
     7
 10
80.6533350894
 20
39.8672331416
 30
0.0
  0
SEQEND
  5
62D
  8
0
  6
CONTINUOUS
 62
     7
  0
ARC
  5
346
  8
0
  6
CONTINUOUS
 62
     7
 10
-54.5833969816
 20
-4.738893174
 30
0.0
 40
149.6816854234034
 50
6.0689491859
 51
16.4594532436
  0
ARC
  5
347
  8
0
  6
CONTINUOUS
 62
     7
 10
-39.6661131007
 20
-11.702408672
 30
0.0
 40
134.5840980030002
 50
343.2752926225
 51
354.811792475
  0
POLYLINE
  5
348
  8
0
  6
CONTINUOUS
 62
     7
 66
     1
 10
0.0
 20
0.0
 30
0.0
  0
VERTEX
  5
5E3
  8
0
  6
CONTINUOUS
 62
     7
 10
75.9199421206
 20
-58.4240261174
 30
0.0
  0
VERTEX
  5
5E4
  8
0
  6
CONTINUOUS
 62
     7
 10
78.35511596
 20
-55.7023551024
 30
0.0
  0
VERTEX
  5
5E5
  8
0
  6
CONTINUOUS
 62
     7
 10
80.5160581419
 20
-52.6990372396
 30
0.0
  0
SEQEND
  5
62C
  8
0
  6
CONTINUOUS
 62
     7
  0
POLYLINE
  5
349
  8
0
  6
CONTINUOUS
 62
     7
 66
     1
 10
0.0
 20
0.0
 30
0.0
  0
VERTEX
  5
5E6
  8
0
  6
CONTINUOUS
 62
     7
 10
75.2204220095
 20
-66.0409930802
 30
0.0
  0
VERTEX
  5
5E7
  8
0
  6
CONTINUOUS
 62
     7
 10
71.7824428627
 20
-67.0273977972
 30
0.0
  0
VERTEX
  5
5E8
  8
0
  6
CONTINUOUS
 62
     7
 10
63.3223365346
 20
-68.7346797145
 30
0.0
  0
SEQEND
  5
62B
  8
0
  6
CONTINUOUS
 62
     7
  0
ARC
  5
34A
  8
0
  6
CONTINUOUS
 62
     7
 10
122.3796790257
 20
-73.058022361
 30
0.0
 40
59.21537801751116
 50
172.0894985809
 51
175.813082764
  0
POLYLINE
  5
34B
  8
0
  6
CONTINUOUS
 62
     7
 66
     1
 10
0.0
 20
0.0
 30
0.0
  0
VERTEX
  5
5E9
  8
0
  6
CONTINUOUS
 62
     7
 10
63.7277794355
 20
-64.130880282
 30
0.0
  0
VERTEX
  5
5EA
  8
0
  6
CONTINUOUS
 62
     7
 10
63.3448326314
 20
-63.3657876111
 30
0.0
  0
VERTEX
  5
5EB
  8
0
  6
CONTINUOUS
 62
     7
 10
62.4288601154
 20
-63.1805922545
 30
0.0
  0
VERTEX
  5
5EC
  8
0
  6
CONTINUOUS
 62
     7
 10
61.6669115895
 20
-63.1990436173
 30
0.0
  0
VERTEX
  5
5ED
  8
0
  6
CONTINUOUS
 62
     7
 10
60.624376061
 20
-63.3453841961
 30
0.0
  0
VERTEX
  5
5EE
  8
0
  6
CONTINUOUS
 62
     7
 10
59.5752598071
 20
-63.5773654736
 30
0.0
  0
VERTEX
  5
5EF
  8
0
  6
CONTINUOUS
 62
     7
 10
58.2514890754
 20
-63.9144520915
 30
0.0
  0
VERTEX
  5
5F0
  8
0
  6
CONTINUOUS
 62
     7
 10
56.6070653783
 20
-64.336151228
 30
0.0
  0
VERTEX
  5
5F1
  8
0
  6
CONTINUOUS
 62
     7
 10
54.6999230334
 20
-64.764965669
 30
0.0
  0
VERTEX
  5
5F2
  8
0
  6
CONTINUOUS
 62
     7
 10
51.0792665934
 20
-65.2815516747
 30
0.0
  0
VERTEX
  5
5F3
  8
0
  6
CONTINUOUS
 62
     7
 10
49.0121713862
 20
-65.366816119
 30
0.0
  0
VERTEX
  5
5F4
  8
0
  6
CONTINUOUS
 62
     7
 10
46.9433515152
 20
-65.2920718945
 30
0.0
  0
VERTEX
  5
5F5
  8
0
  6
CONTINUOUS
 62
     7
 10
44.7262321884
 20
-65.0345351256
 30
0.0
  0
VERTEX
  5
5F6
  8
0
  6
CONTINUOUS
 62
     7
 10
42.6447164552
 20
-64.6478350914
 30
0.0
  0
VERTEX
  5
5F7
  8
0
  6
CONTINUOUS
 62
     7
 10
40.9323043475
 20
-64.2414096452
 30
0.0
  0
VERTEX
  5
5F8
  8
0
  6
CONTINUOUS
 62
     7
 10
39.45339297
 20
-63.8538863219
 30
0.0
  0
VERTEX
  5
5F9
  8
0
  6
CONTINUOUS
 62
     7
 10
38.1165306369
 20
-63.5134059645
 30
0.0
  0
VERTEX
  5
5FA
  8
0
  6
CONTINUOUS
 62
     7
 10
37.0714367652
 20
-63.2898326672
 30
0.0
  0
VERTEX
  5
5FB
  8
0
  6
CONTINUOUS
 62
     7
 10
35.812951746
 20
-63.1128590263
 30
0.0
  0
VERTEX
  5
5FC
  8
0
  6
CONTINUOUS
 62
     7
 10
34.969469654
 20
-63.129563228
 30
0.0
  0
VERTEX
  5
5FD
  8
0
  6
CONTINUOUS
 62
     7
 10
34.439720335
 20
-63.3626918948
 30
0.0
  0
VERTEX
  5
5FE
  8
0
  6
CONTINUOUS
 62
     7
 10
34.1578499699
 20
-64.0576522506
 30
0.0
  0
SEQEND
  5
62A
  8
0
  6
CONTINUOUS
 62
     7
  0
ARC
  5
34C
  8
0
  6
CONTINUOUS
 62
     7
 10
-21.2118969871
 20
-72.79646372
 30
0.0
 40
55.92085377534093
 50
4.1704166738
 51
8.0505572096
  0
POLYLINE
  5
34D
  8
0
  6
CONTINUOUS
 62
     7
 66
     1
 10
0.0
 20
0.0
 30
0.0
  0
VERTEX
  5
5FF
  8
0
  6
CONTINUOUS
 62
     7
 10
34.5608872646
 20
-68.7297176278
 30
0.0
  0
VERTEX
  5
600
  8
0
  6
CONTINUOUS
 62
     7
 10
29.0785721788
 20
-67.7233788825
 30
0.0
  0
VERTEX
  5
601
  8
0
  6
CONTINUOUS
 62
     7
 10
22.6665429124
 20
-66.0346191085
 30
0.0
  0
SEQEND
  5
629
  8
0
  6
CONTINUOUS
 62
     7
  0
POLYLINE
  5
34E
  8
0
  6
CONTINUOUS
 62
     7
 66
     1
 10
0.0
 20
0.0
 30
0.0
  0
VERTEX
  5
602
  8
0
  6
CONTINUOUS
 62
     7
 10
22.0065593073
 20
-58.5245977796
 30
0.0
  0
VERTEX
  5
603
  8
0
  6
CONTINUOUS
 62
     7
 10
19.4630223611
 20
-55.7302947796
 30
0.0
  0
VERTEX
  5
604
  8
0
  6
CONTINUOUS
 62
     7
 10
17.232294316
 20
-52.6047836698
 30
0.0
  0
SEQEND
  5
628
  8
0
  6
CONTINUOUS
 62
     7
  0
ARC
  5
34F
  8
0
  6
CONTINUOUS
 62
     7
 10
165.9764760688
 20
-4.6372555383
 30
0.0
 40
163.5891282167059
 50
186.751423814
 51
196.2480804785
  0
ARC
  5
350
  8
0
  6
CONTINUOUS
 62
     7
 10
138.0294965893
 20
-1.2422111218
 30
0.0
 40
135.1012451122467
 50
163.2494970595
 51
174.7394796461
  0
POLYLINE
  5
351
  8
0
  6
CONTINUOUS
 62
     7
 66
     1
 10
0.0
 20
0.0
 30
0.0
  0
VERTEX
  5
605
  8
0
  6
CONTINUOUS
 62
     7
 10
21.9656872848
 20
45.6864755892
 30
0.0
  0
VERTEX
  5
606
  8
0
  6
CONTINUOUS
 62
     7
 10
19.5305134454
 20
42.9648045742
 30
0.0
  0
VERTEX
  5
607
  8
0
  6
CONTINUOUS
 62
     7
 10
17.3695712635
 20
39.9614867114
 30
0.0
  0
SEQEND
  5
627
  8
0
  6
CONTINUOUS
 62
     7
  0
POLYLINE
  5
352
  8
0
  6
CONTINUOUS
 62
     7
 66
     1
 10
0.0
 20
0.0
 30
0.0
  0
VERTEX
  5
608
  8
0
  6
CONTINUOUS
 62
     7
 10
22.6652073959
 20
53.303442552
 30
0.0
  0
VERTEX
  5
609
  8
0
  6
CONTINUOUS
 62
     7
 10
25.9658239135
 20
54.2542558455
 30
0.0
  0
VERTEX
  5
60A
  8
0
  6
CONTINUOUS
 62
     7
 10
34.5632928708
 20
55.9971291863
 30
0.0
  0
SEQEND
  5
626
  8
0
  6
CONTINUOUS
 62
     7
  0
ARC
  5
353
  8
0
  6
CONTINUOUS
 62
     7
 10
-23.5511301576
 20
60.220556464
 30
0.0
 40
58.26768831779329
 50
352.059206703
 51
355.8433746419
  0
POLYLINE
  5
354
  8
0
  6
CONTINUOUS
 62
     7
 66
     1
 10
0.0
 20
0.0
 30
0.0
  0
VERTEX
  5
60B
  8
0
  6
CONTINUOUS
 62
     7
 10
63.7277794355
 20
51.3201017224
 30
0.0
  0
VERTEX
  5
60C
  8
0
  6
CONTINUOUS
 62
     7
 10
63.3114884892
 20
50.5773011886
 30
0.0
  0
VERTEX
  5
60D
  8
0
  6
CONTINUOUS
 62
     7
 10
62.3377572099
 20
50.4169795953
 30
0.0
  0
VERTEX
  5
60E
  8
0
  6
CONTINUOUS
 62
     7
 10
61.5902534971
 20
50.4455339455
 30
0.0
  0
VERTEX
  5
60F
  8
0
  6
CONTINUOUS
 62
     7
 10
60.5806784058
 20
50.5959164643
 30
0.0
  0
VERTEX
  5
610
  8
0
  6
CONTINUOUS
 62
     7
 10
59.5236142451
 20
50.8354898833
 30
0.0
  0
VERTEX
  5
611
  8
0
  6
CONTINUOUS
 62
     7
 10
58.1924059713
 20
51.1798929714
 30
0.0
  0
VERTEX
  5
612
  8
0
  6
CONTINUOUS
 62
     7
 10
56.5454551304
 20
51.6060177528
 30
0.0
  0
VERTEX
  5
613
  8
0
  6
CONTINUOUS
 62
     7
 10
54.6423789399
 20
52.035335108
 30
0.0
  0
VERTEX
  5
614
  8
0
  6
CONTINUOUS
 62
     7
 10
51.01834436
 20
52.5486354076
 30
0.0
  0
VERTEX
  5
615
  8
0
  6
CONTINUOUS
 62
     7
 10
48.9355821307
 20
52.6293028437
 30
0.0
  0
VERTEX
  5
616
  8
0
  6
CONTINUOUS
 62
     7
 10
46.853050944
 20
52.5477264368
 30
0.0
  0
VERTEX
  5
617
  8
0
  6
CONTINUOUS
 62
     7
 10
44.6396210516
 20
52.2852313065
 30
0.0
  0
VERTEX
  5
618
  8
0
  6
CONTINUOUS
 62
     7
 10
42.5662264513
 20
51.897950127
 30
0.0
  0
VERTEX
  5
619
  8
0
  6
CONTINUOUS
 62
     7
 10
40.8786853129
 20
51.4991056465
 30
0.0
  0
VERTEX
  5
61A
  8
0
  6
CONTINUOUS
 62
     7
 10
39.4227999547
 20
51.1216070794
 30
0.0
  0
VERTEX
  5
61B
  8
0
  6
CONTINUOUS
 62
     7
 10
38.0799222091
 20
50.7849898481
 30
0.0
  0
VERTEX
  5
61C
  8
0
  6
CONTINUOUS
 62
     7
 10
37.0334257656
 20
50.5666319572
 30
0.0
  0
VERTEX
  5
61D
  8
0
  6
CONTINUOUS
 62
     7
 10
35.7495789701
 20
50.3890548193
 30
0.0
  0
VERTEX
  5
61E
  8
0
  6
CONTINUOUS
 62
     7
 10
34.9010062689
 20
50.4168715619
 30
0.0
  0
VERTEX
  5
61F
  8
0
  6
CONTINUOUS
 62
     7
 10
34.3899625638
 20
50.7013049268
 30
0.0
  0
VERTEX
  5
620
  8
0
  6
CONTINUOUS
 62
     7
 10
34.1578499699
 20
51.3933297538
 30
0.0
  0
SEQEND
  5
625
  8
0
  6
CONTINUOUS
 62
     7
  0
ARC
  5
355
  8
0
  6
CONTINUOUS
 62
     7
 10
120.2448051417
 20
60.1817343109
 30
0.0
 40
57.07404003087063
 50
184.2096305095
 51
188.0113433739
  0
POLYLINE
  5
356
  8
0
  6
CONTINUOUS
 62
     7
 66
     1
 10
0.0
 20
0.0
 30
0.0
  0
VERTEX
  5
621
  8
0
  6
CONTINUOUS
 62
     7
 10
63.3247421408
 20
55.9921670996
 30
0.0
  0
VERTEX
  5
622
  8
0
  6
CONTINUOUS
 62
     7
 10
68.7412127206
 20
55.0000887655
 30
0.0
  0
VERTEX
  5
623
  8
0
  6
CONTINUOUS
 62
     7
 10
75.219086493
 20
53.2970685803
 30
0.0
  0
SEQEND
  5
624
  8
0
  6
CONTINUOUS
 62
     7
  0
LINE
  5
357
  8
0
  6
CONTINUOUS
 62
     7
 10
34.1578499699
 20
51.3933297538
 30
0.0
 11
34.1578499699
 21
52.1708909713
 31
0.0
  0
ARC
  5
358
  8
0
  6
CONTINUOUS
 62
     7
 10
48.9428205631
 20
49.0568798392
 30
0.0
 40
15.96677417803279
 50
25.7444142477
 51
154.2358157735
  0
LINE
  5
359
  8
0
  6
CONTINUOUS
 62
     7
 10
63.7277794355
 20
51.3201017224
 30
0.0
 11
63.7277794355
 21
52.2273738229
 31
0.0
  0
ARC
  5
35A
  8
0
  6
CONTINUOUS
 62
     7
 10
48.9428086702
 20
-61.7954278074
 30
0.0
 40
15.96634080280788
 50
205.7411904512
 51
334.23903957
  0
LINE
  5
35B
  8
0
  6
CONTINUOUS
 62
     7
 10
34.1578499699
 20
-64.0576522506
 30
0.0
 11
34.1578499699
 21
-64.9649243511
 31
0.0
  0
LINE
  5
35C
  8
0
  6
CONTINUOUS
 62
     7
 10
63.7277794355
 20
-64.130880282
 30
0.0
 11
63.7277794355
 21
-64.9084414995
 31
0.0
  0
ARC
  5
35D
  8
0
  6
CONTINUOUS
 62
     7
 10
86.6664268501
 20
49.8992299415
 30
0.0
 40
12.68576894116982
 50
13.7341834522
 51
72.7203159486
  0
ARC
  5
35E
  8
0
  6
CONTINUOUS
 62
     7
 10
-143.5571852973
 20
-6.3687752641
 30
0.0
 40
249.6857689411698
 50
12.3112460813
 51
13.7341834522
  0
ARC
  5
35F
  8
0
  6
CONTINUOUS
 62
     7
 10
87.9428147027
 20
50.6312247359
 30
0.0
 40
13.00000000000004
 50
235.8937649701
 51
343.1813616576
  0
ARC
  5
360
  8
0
  6
CONTINUOUS
 62
     7
 10
87.9428147027
 20
50.6312247359
 30
0.0
 40
13.00000000000003
 50
100.3535517451
 51
201.8778510258
  0
ARC
  5
361
  8
0
  6
CONTINUOUS
 62
     7
 10
48.9428147027
 20
-71.3687752641
 30
0.0
 40
139.6857689411698
 50
72.7203159486
 51
74.7832013108
  0
ARC
  5
362
  8
0
  6
CONTINUOUS
 62
     7
 10
9.9428147027
 20
50.6312247359
 30
0.0
 40
13.00000000000001
 50
196.8186383424
 51
304.8401603426
  0
ARC
  5
363
  8
0
  6
CONTINUOUS
 62
     7
 10
241.4428147027
 20
-6.3687752641
 30
0.0
 40
249.6857689411698
 50
166.2658165478
 51
167.6887539187
  0
ARC
  5
364
  8
0
  6
CONTINUOUS
 62
     7
 10
9.9428147027
 20
50.6312247359
 30
0.0
 40
13.00000000000002
 50
337.6436840813
 51
79.6464482549
  0
ARC
  5
365
  8
0
  6
CONTINUOUS
 62
     7
 10
48.9428147027
 20
-71.3687752641
 30
0.0
 40
139.6857689411698
 50
105.2167986892
 51
107.2796840514
  0
ARC
  5
366
  8
0
  6
CONTINUOUS
 62
     7
 10
11.2192025553
 20
49.8992299415
 30
0.0
 40
12.68576894116978
 50
107.2796840514
 51
166.2658165478
  0
ARC
  5
367
  8
0
  6
CONTINUOUS
 62
     7
 10
48.9428147027
 20
58.6312247359
 30
0.0
 40
139.6857689411698
 50
252.7203159486
 51
254.7832013108
  0
ARC
  5
368
  8
0
  6
CONTINUOUS
 62
     7
 10
11.2192025553
 20
-62.6367804697
 30
0.0
 40
12.68576894116979
 50
193.7341834522
 51
252.7203159486
  0
ARC
  5
369
  8
0
  6
CONTINUOUS
 62
     7
 10
241.4428147027
 20
-6.3687752641
 30
0.0
 40
249.6857689411698
 50
192.3112460813
 51
193.7341834522
  0
ARC
  5
36A
  8
0
  6
CONTINUOUS
 62
     7
 10
9.9428147027
 20
-63.3687752641
 30
0.0
 40
13.00000000000002
 50
55.8937649702
 51
163.1813616576
  0
ARC
  5
36B
  8
0
  6
CONTINUOUS
 62
     7
 10
9.9428147027
 20
-63.3687752641
 30
0.0
 40
13.00000000000002
 50
280.3535517451
 51
21.8778510257
  0
ARC
  5
36C
  8
0
  6
CONTINUOUS
 62
     7
 10
87.9428147027
 20
-63.3687752641
 30
0.0
 40
13.00000000000001
 50
16.8186383424
 51
124.8401603426
  0
ARC
  5
36D
  8
0
  6
CONTINUOUS
 62
     7
 10
-143.5571852973
 20
-6.3687752641
 30
0.0
 40
249.6857689411698
 50
346.2658165478
 51
347.6887539187
  0
ARC
  5
36E
  8
0
  6
CONTINUOUS
 62
     7
 10
86.6664268501
 20
-62.6367804697
 30
0.0
 40
12.68576894116982
 50
287.2796840514
 51
346.2658165478
  0
ARC
  5
36F
  8
0
  6
CONTINUOUS
 62
     7
 10
48.9428147027
 20
58.6312247359
 30
0.0
 40
139.6857689411698
 50
285.2167986892
 51
287.2796840514
  0
ARC
  5
370
  8
0
  6
CONTINUOUS
 62
     7
 10
87.9428147027
 20
-63.3687752641
 30
0.0
 40
13.00000000000001
 50
157.6436840814
 51
259.6464482549
  0
ARC
  5
371
  8
0
  6
CONTINUOUS
 62
     7
 10
86.6664268501
 20
49.8992299415
 30
0.0
 40
12.99738140784312
 50
13.7341834522
 51
72.7203159486
  0
ARC
  5
372
  8
0
  6
CONTINUOUS
 62
     7
 10
48.9428147027
 20
-71.3687752641
 30
0.0
 40
139.6857689411698
 50
74.7832013108
 51
105.2167986892
  0
ARC
  5
373
  8
0
  6
CONTINUOUS
 62
     7
 10
48.9428147027
 20
-71.3687752641
 30
0.0
 40
139.9973814078431
 50
72.7203159486
 51
107.2796840514
  0
ARC
  5
374
  8
0
  6
CONTINUOUS
 62
     7
 10
11.2192025553
 20
49.8992299415
 30
0.0
 40
12.99738140784308
 50
107.2796840514
 51
166.2658165478
  0
ARC
  5
375
  8
0
  6
CONTINUOUS
 62
     7
 10
-143.5571852973
 20
-6.3687752641
 30
0.0
 40
249.6857689411698
 50
347.6887539187
 51
12.3112460813
  0
ARC
  5
376
  8
0
  6
CONTINUOUS
 62
     7
 10
241.4428147027
 20
-6.3687752641
 30
0.0
 40
249.6857689411698
 50
167.6887539187
 51
192.3112460813
  0
ARC
  5
377
  8
0
  6
CONTINUOUS
 62
     7
 10
241.4428147027
 20
-6.3687752641
 30
0.0
 40
249.9973814078431
 50
166.2658165478
 51
193.7341834522
  0
ARC
  5
378
  8
0
  6
CONTINUOUS
 62
     7
 10
-143.5571852973
 20
-6.3687752641
 30
0.0
 40
249.9973814078431
 50
346.2658165478
 51
13.7341834522
  0
ARC
  5
379
  8
0
  6
CONTINUOUS
 62
     7
 10
86.6664268501
 20
-62.6367804697
 30
0.0
 40
12.9973814078431
 50
287.2796840514
 51
346.2658165478
  0
ARC
  5
37A
  8
0
  6
CONTINUOUS
 62
     7
 10
11.2192025553
 20
-62.6367804697
 30
0.0
 40
12.9973814078431
 50
193.7341834522
 51
252.7203159486
  0
ARC
  5
37B
  8
0
  6
CONTINUOUS
 62
     7
 10
48.9428147027
 20
58.6312247359
 30
0.0
 40
139.6857689411698
 50
254.7832013108
 51
285.2167986892
  0
ARC
  5
37C
  8
0
  6
CONTINUOUS
 62
     7
 10
48.9428147027
 20
58.6312247359
 30
0.0
 40
139.9973814078431
 50
252.7203159486
 51
287.2796840514
  0
ARC
  5
37D
  8
0
  6
CONTINUOUS
 62
     7
 10
48.9428147027
 20
-71.3687752641
 30
0.0
 40
140.0
 50
88.3543758885
 51
91.6456241115
  0
ARC
  5
37E
  8
0
  6
CONTINUOUS
 62
     7
 10
48.9428147027
 20
58.6312247359
 30
0.0
 40
140.0
 50
268.3543758885
 51
271.6456241115
  0
ARC
  5
37F
  8
0
  6
CONTINUOUS
 62
     7
 10
-143.5571852973
 20
-6.3687752641
 30
0.0
 40
249.9999999999999
 50
358.8258500194
 51
1.1741499806
  0
ARC
  5
380
  8
0
  6
CONTINUOUS
 62
     7
 10
241.4428147027
 20
-6.3687752641
 30
0.0
 40
249.9999999999999
 50
178.8258500194
 51
181.1741499806
  0
ARC
  5
381
  8
0
  6
CONTINUOUS
 62
     7
 10
87.7322185474
 20
-63.3360578456
 30
0.0
 40
12.99999999999996
 50
284.7850480541
 51
348.5511948561
  0
ARC
  5
382
  8
0
  6
CONTINUOUS
 62
     7
 10
10.153410858
 20
-63.3360578456
 30
0.0
 40
12.99999999999996
 50
191.4488051439
 51
255.2149519459
  0
ARC
  5
383
  8
0
  6
CONTINUOUS
 62
     7
 10
87.7322185474
 20
50.5985073173
 30
0.0
 40
12.99999999999996
 50
11.4488051439
 51
75.2149519459
  0
ARC
  5
384
  8
0
  6
CONTINUOUS
 62
     7
 10
10.153410858
 20
50.5985073173
 30
0.0
 40
12.99999999999996
 50
104.7850480541
 51
168.5511948561
  0
ARC
  5
385
  8
0
  6
CONTINUOUS
 62
     7
 10
291.4428147027
 20
-6.3687752641
 30
0.0
 40
299.9999999999999
 50
168.5511948561
 51
191.4488051439
  0
ARC
  5
386
  8
0
  6
CONTINUOUS
 62
     7
 10
-193.5571852973
 20
-6.3687752641
 30
0.0
 40
300.0
 50
348.5511948561
 51
11.4488051439
  0
ARC
  5
387
  8
0
  6
CONTINUOUS
 62
     7
 10
48.9428147027
 20
83.6312247359
 30
0.0
 40
165.0
 50
255.2149519459
 51
284.7850480541
  0
ARC
  5
388
  8
0
  6
CONTINUOUS
 62
     7
 10
48.9428147027
 20
-96.3687752641
 30
0.0
 40
165.0
 50
75.2149519459
 51
104.7850480541
  0
LINE
  5
389
  8
0
  6
CONTINUOUS
 62
     7
 10
121.4428126165
 20
-10.8687750704
 30
0.0
 11
121.4428126165
 21
-95.3687768138
 31
0.0
  0
LINE
  5
38A
  8
0
  6
CONTINUOUS
 62
     7
 10
121.4428126165
 20
-1.8687754578
 30
0.0
 11
121.4428126165
 21
82.6312262856
 31
0.0
  0
LINE
  5
38B
  8
0
  6
CONTINUOUS
 62
     7
 10
143.9428135106
 20
-95.3687768138
 30
0.0
 11
143.9428135106
 21
82.6312262856
 31
0.0
  0
LINE
  5
38C
  8
0
  6
CONTINUOUS
 62
     7
 10
-23.5571832111
 20
-1.8687754578
 30
0.0
 11
-23.5571832111
 21
82.6312262856
 31
0.0
  0
LINE
  5
38D
  8
0
  6
CONTINUOUS
 62
     7
 10
-23.5571832111
 20
-10.8687750704
 30
0.0
 11
-23.5571832111
 21
-95.3687768138
 31
0.0
  0
LINE
  5
38E
  8
0
  6
CONTINUOUS
 62
     7
 10
-46.0571841052
 20
-95.3687768138
 30
0.0
 11
-46.0571841052
 21
82.6312262856
 31
0.0
  0
LINE
  5
38F
  8
0
  6
CONTINUOUS
 62
     7
 10
-23.5571832111
 20
-10.8687750704
 30
0.0
 11
-8.5234352103
 21
-10.8687750704
 31
0.0
  0
LINE
  5
390
  8
0
  6
CONTINUOUS
 62
     7
 10
-23.5571832111
 20
-6.3687752641
 30
0.0
 11
-23.5571832111
 21
-10.8687750704
 31
0.0
  0
LINE
  5
391
  8
0
  6
CONTINUOUS
 62
     7
 10
-23.5571832111
 20
-6.3687752641
 30
0.0
 11
-23.5571832111
 21
-1.8687754578
 31
0.0
  0
LINE
  5
392
  8
0
  6
CONTINUOUS
 62
     7
 10
-23.5571832111
 20
-1.8687754578
 30
0.0
 11
-8.5234352103
 21
-1.8687754578
 31
0.0
  0
LINE
  5
393
  8
0
  6
CONTINUOUS
 62
     7
 10
121.4428126165
 20
-6.3687752641
 30
0.0
 11
121.4428126165
 21
-1.8687754578
 31
0.0
  0
LINE
  5
394
  8
0
  6
CONTINUOUS
 62
     7
 10
121.4428126165
 20
-6.3687752641
 30
0.0
 11
121.4428126165
 21
-10.8687750704
 31
0.0
  0
LINE
  5
395
  8
0
  6
CONTINUOUS
 62
     7
 10
121.4428126165
 20
-10.8687750704
 30
0.0
 11
106.4090646157
 21
-10.8687750704
 31
0.0
  0
LINE
  5
396
  8
0
  6
CONTINUOUS
 62
     7
 10
121.4428126165
 20
-1.8687754578
 30
0.0
 11
106.4090646157
 21
-1.8687754578
 31
0.0
  0
LINE
  5
397
  8
0
  6
CONTINUOUS
 62
     8
 10
3.4590355405
 20
11.1632343673
 30
0.0
 11
3.4590355405
 21
0.503337133
 31
0.0
  0
LINE
  5
398
  8
0
  6
CONTINUOUS
 62
     8
 10
3.4590355405
 20
-13.2408876612
 30
0.0
 11
3.4590355405
 21
-23.9007848955
 31
0.0
  0
LINE
  5
399
  8
0
  6
CONTINUOUS
 62
     8
 10
94.4265938649
 20
11.1632343673
 30
0.0
 11
94.4265938649
 21
0.503337133
 31
0.0
  0
LINE
  5
39A
  8
0
  6
CONTINUOUS
 62
     8
 10
94.4265938649
 20
-13.2408876612
 30
0.0
 11
94.4265938649
 21
-23.9007848955
 31
0.0
  0
LINE
  5
39B
  8
0
  6
CONTINUOUS
 62
     8
 10
98.989478434
 20
52.9110577249
 30
0.0
 11
99.2921843478
 21
52.9850382649
 31
0.0
  0
LINE
  5
39C
  8
0
  6
CONTINUOUS
 62
     8
 10
90.4345616052
 20
62.0124448382
 30
0.0
 11
90.5271201679
 21
62.3099912249
 31
0.0
  0
LINE
  5
39D
  8
0
  6
CONTINUOUS
 62
     8
 10
7.4510678002
 20
62.0124448382
 30
0.0
 11
7.3585092375
 21
62.3099912249
 31
0.0
  0
LINE
  5
39E
  8
0
  6
CONTINUOUS
 62
     8
 10
-1.1038490286
 20
52.9110577249
 30
0.0
 11
-1.4065549424
 21
52.9850382649
 31
0.0
  0
LINE
  5
39F
  8
0
  6
CONTINUOUS
 62
     8
 10
-1.1038490286
 20
-65.6486082531
 30
0.0
 11
-1.4065549424
 21
-65.7225887931
 31
0.0
  0
LINE
  5
3A0
  8
0
  6
CONTINUOUS
 62
     8
 10
98.989478434
 20
-65.6486082531
 30
0.0
 11
99.2921843478
 21
-65.7225887931
 31
0.0
  0
LINE
  5
3A1
  8
0
  6
CONTINUOUS
 62
     8
 10
90.4345616052
 20
-74.7499953664
 30
0.0
 11
90.5271201679
 21
-75.0475417531
 31
0.0
  0
LINE
  5
3A2
  8
0
  6
CONTINUOUS
 62
     8
 10
7.4510678002
 20
-74.7499953664
 30
0.0
 11
7.3585092375
 21
-75.0475417531
 31
0.0
  0
LINE
  5
3A3
  8
FORMAT
  6
CENTERX2
 10
48.9428147027
 20
-86.9394529678
 30
0.0
 11
48.9428147027
 21
74.0342737541
 31
0.0
  0
LINE
  5
3A4
  8
FORMAT
  6
CENTERX2
 10
-54.2296761772
 20
-6.3687752641
 30
0.0
 11
151.2617029103
 21
-6.3687752641
 31
0.0
  0
ENDSEC
  0
EOF
