  0
SECTION
  2
HEADER
  9
$ACADVER
  1
AC1009
  9
$DWGCODEPAGE
  3
ansi_1252
  9
$INSBASE
 10
0.0
 20
0.0
 30
0.0
  9
$EXTMIN
 10
0.0
 20
0.0
 30
0.0
  9
$EXTMAX
 10
3200.0
 20
2400.0
 30
0.0
  9
$LIMMIN
 10
0.0
 20
0.0
  9
$LIMMAX
 10
3200.0
 20
2400.0
  9
$ORTHOMODE
 70
     0
  9
$REGENMODE
 70
     1
  9
$FILLMODE
 70
     1
  9
$QTEXTMODE
 70
     0
  9
$MIRRTEXT
 70
     1
  9
$DRAGMODE
 70
     2
  9
$LTSCALE
 40
1.0
  9
$OSMODE
 70
    37
  9
$ATTMODE
 70
     1
  9
$TEXTSIZE
 40
3.5
  9
$TRACEWID
 40
1.0
  9
$TEXTSTYLE
  7
STANDARD
  9
$CLAYER
  8
0
  9
$CELTYPE
  6
BYLAYER
  9
$CECOLOR
 62
   256
  9
$DIMSCALE
 40
1.0
  9
$DIMASZ
 40
3.302
  9
$DIMEXO
 40
1.0
  9
$DIMDLI
 40
3.75
  9
$DIMRND
 40
0.0
  9
$DIMDLE
 40
0.0
  9
$DIMEXE
 40
1.0
  9
$DIMTP
 40
0.0
  9
$DIMTM
 40
0.0
  9
$DIMTXT
 40
3.5
  9
$DIMCEN
 40
2.5
  9
$DIMTSZ
 40
0.0
  9
$DIMTOL
 70
     0
  9
$DIMLIM
 70
     0
  9
$DIMTIH
 70
     1
  9
$DIMTOH
 70
     1
  9
$DIMSE1
 70
     0
  9
$DIMSE2
 70
     0
  9
$DIMTAD
 70
     1
  9
$DIMZIN
 70
     0
  9
$DIMBLK
  1

  9
$DIMASO
 70
     1
  9
$DIMSHO
 70
     1
  9
$DIMPOST
  1

  9
$DIMAPOST
  1

  9
$DIMALT
 70
     0
  9
$DIMALTD
 70
     3
  9
$DIMALTF
 40
0.0393700787
  9
$DIMLFAC
 40
1.0
  9
$DIMTOFL
 70
     1
  9
$DIMTVP
 40
0.0
  9
$DIMTIX
 70
     0
  9
$DIMSOXD
 70
     0
  9
$DIMSAH
 70
     0
  9
$DIMBLK1
  1

  9
$DIMBLK2
  1

  9
$DIMSTYLE
  2
ISO-25
  9
$DIMCLRD
 70
     0
  9
$DIMCLRE
 70
     0
  9
$DIMCLRT
 70
     0
  9
$DIMTFAC
 40
1.0
  9
$DIMGAP
 40
1.524
  9
$LUNITS
 70
     2
  9
$LUPREC
 70
     8
  9
$SKETCHINC
 40
1.0
  9
$FILLETRAD
 40
10.0
  9
$AUNITS
 70
     0
  9
$AUPREC
 70
     2
  9
$MENU
  1
.
  9
$ELEVATION
 40
0.0
  9
$PELEVATION
 40
0.0
  9
$THICKNESS
 40
0.0
  9
$LIMCHECK
 70
     0
  9
$CHAMFERA
 40
10.0
  9
$CHAMFERB
 40
10.0
  9
$SKPOLY
 70
     0
  9
$TDCREATE
 40
2458222.325766979
  9
$TDUPDATE
 40
2458222.325767882
  9
$TDINDWG
 40
0.0000000116
  9
$TDUSRTIMER
 40
0.0000000116
  9
$USRTIMER
 70
     1
  9
$ANGBASE
 50
0.0
  9
$ANGDIR
 70
     0
  9
$PDMODE
 70
     0
  9
$PDSIZE
 40
-1.0
  9
$PLINEWID
 40
0.0
  9
$COORDS
 70
     1
  9
$SPLFRAME
 70
     0
  9
$SPLINETYPE
 70
     6
  9
$SPLINESEGS
 70
     8
  9
$ATTDIA
 70
     0
  9
$ATTREQ
 70
     1
  9
$HANDLING
 70
     1
  9
$HANDSEED
  5
718
  9
$SURFTAB1
 70
     6
  9
$SURFTAB2
 70
     6
  9
$SURFTYPE
 70
     6
  9
$SURFU
 70
     6
  9
$SURFV
 70
     6
  9
$UCSNAME
  2

  9
$UCSORG
 10
0.0
 20
0.0
 30
0.0
  9
$UCSXDIR
 10
1.0
 20
0.0
 30
0.0
  9
$UCSYDIR
 10
0.0
 20
1.0
 30
0.0
  9
$PUCSNAME
  2

  9
$PUCSORG
 10
0.0
 20
0.0
 30
0.0
  9
$PUCSXDIR
 10
1.0
 20
0.0
 30
0.0
  9
$PUCSYDIR
 10
0.0
 20
1.0
 30
0.0
  9
$USERI1
 70
     0
  9
$USERI2
 70
     0
  9
$USERI3
 70
     0
  9
$USERI4
 70
     0
  9
$USERI5
 70
     0
  9
$USERR1
 40
0.0
  9
$USERR2
 40
0.0
  9
$USERR3
 40
0.0
  9
$USERR4
 40
0.0
  9
$USERR5
 40
0.0
  9
$WORLDVIEW
 70
     1
  9
$SHADEDGE
 70
     3
  9
$SHADEDIF
 70
    70
  9
$TILEMODE
 70
     1
  9
$MAXACTVP
 70
    64
  9
$PLIMCHECK
 70
     0
  9
$PEXTMIN
 10
1.0000000000E+20
 20
1.0000000000E+20
 30
1.0000000000E+20
  9
$PEXTMAX
 10
-1.0000000000E+20
 20
-1.0000000000E+20
 30
-1.0000000000E+20
  9
$PLIMMIN
 10
0.0
 20
0.0
  9
$PLIMMAX
 10
420.0
 20
297.0
  9
$UNITMODE
 70
     0
  9
$VISRETAIN
 70
     1
  9
$PLINEGEN
 70
     0
  9
$PSLTSCALE
 70
     1
  0
ENDSEC
  0
SECTION
  2
TABLES
  0
TABLE
  2
VPORT
 70
     1
  0
VPORT
  2
*ACTIVE
 70
     0
 10
0.0
 20
0.0
 11
1.0
 21
1.0
 12
1600.0
 22
1200.0
 13
0.0
 23
0.0
 14
10.0
 24
10.0
 15
10.0
 25
10.0
 16
0.0
 26
0.0
 36
1.0
 17
0.0
 27
0.0
 37
0.0
 40
2400.0
 41
1.3333333333
 42
50.0
 43
0.0
 44
0.0
 50
0.0
 51
0.0
 71
     0
 72
  2000
 73
     1
 74
     3
 75
     0
 76
     0
 77
     0
 78
     0
  0
ENDTAB
  0
TABLE
  2
LTYPE
 70
     6
  0
LTYPE
  2
CONTINUOUS
 70
     0
  3
Solid line
 72
    65
 73
     0
 40
0.0
  0
LTYPE
  2
HIDDEN
 70
     0
  3
Hidden __ __ __ __ __ __ __ __ __ __ __ __ __ __
 72
    65
 73
     2
 40
1.905
 49
1.27
 49
-0.635
  0
LTYPE
  2
PHANTOM
 70
     0
  3
Phantom ______  __  __  ______  __  __  ______
 72
    65
 73
     6
 40
12.7
 49
6.35
 49
-1.27
 49
1.27
 49
-1.27
 49
1.27
 49
-1.27
  0
LTYPE
  2
CENTER
 70
     0
  3
Center ____ _ ____ _ ____ _ ____ _ ____ _ ____
 72
    65
 73
     4
 40
10.16
 49
6.35
 49
-1.27
 49
1.27
 49
-1.27
  0
LTYPE
  2
CENTERX2
 70
     0
  3
Center (2x) ________  __  ________  __  _____
 72
    65
 73
     4
 40
20.32
 49
12.7
 49
-2.54
 49
2.54
 49
-2.54
  0
LTYPE
  2
DOT2
 70
     0
  3
Dot (.5x) ........................................
 72
    65
 73
     2
 40
0.635
 49
0.0
 49
-0.635
  0
ENDTAB
  0
TABLE
  2
LAYER
 70
     3
  0
LAYER
  2
0
 70
     0
 62
     7
  6
CONTINUOUS
  0
LAYER
  2
FORMAT
 70
     0
 62
     7
  6
CONTINUOUS
  0
LAYER
  2
PROTOTYPE
 70
     0
 62
    -7
  6
CONTINUOUS
  0
ENDTAB
  0
TABLE
  2
STYLE
 70
     1
  0
STYLE
  2
STANDARD
 70
     0
 40
0.0
 41
1.0
 50
0.0
 71
     0
 42
3.5
  3
txt
  4

  0
ENDTAB
  0
TABLE
  2
VIEW
 70
     0
  0
ENDTAB
  0
TABLE
  2
UCS
 70
     0
  0
ENDTAB
  0
TABLE
  2
APPID
 70
     1
  0
APPID
  2
ACAD
 70
     0
  0
ENDTAB
  0
TABLE
  2
DIMSTYLE
 70
     1
  0
DIMSTYLE
  2
ISO-25
 70
     0
  3

  4

  5

  6

  7

 40
1.0
 41
2.5
 42
0.625
 43
3.75
 44
1.25
 45
0.0
 46
0.0
 47
0.0
 48
0.0
140
2.5
141
2.5
142
0.0
143
0.0393700787
144
1.0
145
0.0
146
1.0
147
0.625
 71
     0
 72
     0
 73
     0
 74
     0
 75
     0
 76
     0
 77
     1
 78
     8
170
     0
171
     3
172
     1
173
     0
174
     0
175
     0
176
     0
177
     0
178
     0
  0
ENDTAB
  0
ENDSEC
  0
SECTION
  2
BLOCKS
  0
BLOCK
  8
0
  2
$MODEL_SPACE
 70
     0
 10
0.0
 20
0.0
 30
0.0
  3
$MODEL_SPACE
  1

  0
ENDBLK
  5
21
  8
0
  0
BLOCK
 67
     1
  8
0
  2
$PAPER_SPACE
 70
     0
 10
0.0
 20
0.0
 30
0.0
  3
$PAPER_SPACE
  1

  0
ENDBLK
  5
1D
 67
     1
  8
0
  0
BLOCK
  8
0
  2
SW_CENTERMARKSYMBOL_0
 70
     0
 10
0.0
 20
0.0
 30
0.0
  3
SW_CENTERMARKSYMBOL_0
  1

  0
LINE
  5
CC
  8
FORMAT
 62
     0
 10
0.0
 20
0.0
 30
0.0
 11
0.0
 21
2.5
 31
0.0
  0
LINE
  5
CD
  8
FORMAT
 62
     0
 10
0.0
 20
0.0
 30
0.0
 11
-2.5
 21
0.0
 31
0.0
  0
LINE
  5
CE
  8
FORMAT
 62
     0
 10
0.0
 20
0.0
 30
0.0
 11
0.0
 21
-2.5
 31
0.0
  0
LINE
  5
CF
  8
FORMAT
 62
     0
 10
0.0
 20
0.0
 30
0.0
 11
2.5
 21
0.0
 31
0.0
  0
LINE
  5
D0
  8
FORMAT
 62
     0
 10
0.0
 20
5.0
 30
0.0
 11
0.0
 21
578.1631370621
 31
0.0
  0
LINE
  5
D1
  8
FORMAT
 62
     0
 10
-5.0
 20
0.0
 30
0.0
 11
-1075.0141256619
 21
0.0
 31
0.0
  0
LINE
  5
D2
  8
FORMAT
 62
     0
 10
0.0
 20
-5.0
 30
0.0
 11
0.0
 21
-579.6339530406
 31
0.0
  0
LINE
  5
D3
  8
FORMAT
 62
     0
 10
5.0
 20
0.0
 30
0.0
 11
704.5059286065
 21
0.0
 31
0.0
  0
ENDBLK
  5
CB
  8
0
  0
BLOCK
  8
0
  2
SW_CENTERMARKSYMBOL_1
 70
     0
 10
0.0
 20
0.0
 30
0.0
  3
SW_CENTERMARKSYMBOL_1
  1

  0
LINE
  5
2BA
  8
FORMAT
 62
     0
 10
0.0
 20
0.0
 30
0.0
 11
0.0
 21
2.5
 31
0.0
  0
LINE
  5
2BB
  8
FORMAT
 62
     0
 10
0.0
 20
0.0
 30
0.0
 11
-2.5
 21
0.0
 31
0.0
  0
LINE
  5
2BC
  8
FORMAT
 62
     0
 10
0.0
 20
0.0
 30
0.0
 11
0.0
 21
-2.5
 31
0.0
  0
LINE
  5
2BD
  8
FORMAT
 62
     0
 10
0.0
 20
0.0
 30
0.0
 11
2.5
 21
0.0
 31
0.0
  0
LINE
  5
2BE
  8
FORMAT
 62
     0
 10
0.0
 20
5.0
 30
0.0
 11
0.0
 21
576.1159439095
 31
0.0
  0
LINE
  5
2BF
  8
FORMAT
 62
     0
 10
-5.0
 20
0.0
 30
0.0
 11
-280.0795931453
 21
0.0
 31
0.0
  0
LINE
  5
2C0
  8
FORMAT
 62
     0
 10
0.0
 20
-5.0
 30
0.0
 11
0.0
 21
-592.7910863639
 31
0.0
  0
LINE
  5
2C1
  8
FORMAT
 62
     0
 10
5.0
 20
0.0
 30
0.0
 11
477.9680283339
 21
0.0
 31
0.0
  0
ENDBLK
  5
2B9
  8
0
  0
ENDSEC
  0
SECTION
  2
ENTITIES
  0
POLYLINE
  5
46
  8
0
  6
CONTINUOUS
 62
     7
 66
     1
 10
0.0
 20
0.0
 30
0.0
  0
VERTEX
  5
2C3
  8
0
  6
CONTINUOUS
 62
     7
 10
152.0978150991
 20
2228.5918432749
 30
0.0
  0
VERTEX
  5
2C4
  8
0
  6
CONTINUOUS
 62
     7
 10
152.1509824422
 20
2228.5978335417
 30
0.0
  0
VERTEX
  5
2C5
  8
0
  6
CONTINUOUS
 62
     7
 10
152.4540124562
 20
2228.626801399
 30
0.0
  0
VERTEX
  5
2C6
  8
0
  6
CONTINUOUS
 62
     7
 10
153.0566154149
 20
2228.6740678823
 30
0.0
  0
VERTEX
  5
2C7
  8
0
  6
CONTINUOUS
 62
     7
 10
154.0037332204
 20
2228.7353414572
 30
0.0
  0
VERTEX
  5
2C8
  8
0
  6
CONTINUOUS
 62
     7
 10
155.3139625219
 20
2228.8061815775
 30
0.0
  0
VERTEX
  5
2C9
  8
0
  6
CONTINUOUS
 62
     7
 10
156.9844422963
 20
2228.8829225576
 30
0.0
  0
VERTEX
  5
2CA
  8
0
  6
CONTINUOUS
 62
     7
 10
159.0039668706
 20
2228.9629715956
 30
0.0
  0
VERTEX
  5
2CB
  8
0
  6
CONTINUOUS
 62
     7
 10
161.3604961065
 20
2229.0447789705
 30
0.0
  0
VERTEX
  5
2CC
  8
0
  6
CONTINUOUS
 62
     7
 10
164.0438972142
 20
2229.1273612058
 30
0.0
  0
VERTEX
  5
2CD
  8
0
  6
CONTINUOUS
 62
     7
 10
167.0458255437
 20
2229.2101222551
 30
0.0
  0
VERTEX
  5
2CE
  8
0
  6
CONTINUOUS
 62
     7
 10
170.3594861654
 20
2229.2926448858
 30
0.0
  0
VERTEX
  5
2CF
  8
0
  6
CONTINUOUS
 62
     7
 10
173.9789186147
 20
2229.3746906793
 30
0.0
  0
VERTEX
  5
2D0
  8
0
  6
CONTINUOUS
 62
     7
 10
177.8987584737
 20
2229.4559914148
 30
0.0
  0
VERTEX
  5
2D1
  8
0
  6
CONTINUOUS
 62
     7
 10
182.1138797429
 20
2229.5364576853
 30
0.0
  0
VERTEX
  5
2D2
  8
0
  6
CONTINUOUS
 62
     7
 10
186.6191564229
 20
2229.6159404791
 30
0.0
  0
VERTEX
  5
2D3
  8
0
  6
CONTINUOUS
 62
     7
 10
191.4095817235
 20
2229.6942907846
 30
0.0
  0
VERTEX
  5
2D4
  8
0
  6
CONTINUOUS
 62
     7
 10
196.4801488546
 20
2229.771419195
 30
0.0
  0
VERTEX
  5
2D5
  8
0
  6
CONTINUOUS
 62
     7
 10
201.8253741887
 20
2229.8472661054
 30
0.0
  0
VERTEX
  5
2D6
  8
0
  6
CONTINUOUS
 62
     7
 10
207.4401317266
 20
2229.9216825044
 30
0.0
  0
VERTEX
  5
2D7
  8
0
  6
CONTINUOUS
 62
     7
 10
213.3185802129
 20
2229.994668392
 30
0.0
  0
VERTEX
  5
2D8
  8
0
  6
CONTINUOUS
 62
     7
 10
219.4551168111
 20
2230.0660747564
 30
0.0
  0
VERTEX
  5
2D9
  8
0
  6
CONTINUOUS
 62
     7
 10
225.8437810567
 20
2230.1358419931
 30
0.0
  0
VERTEX
  5
2DA
  8
0
  6
CONTINUOUS
 62
     7
 10
232.478314462
 20
2230.2039104975
 30
0.0
  0
VERTEX
  5
2DB
  8
0
  6
CONTINUOUS
 62
     7
 10
239.352518144
 20
2230.2702504671
 30
0.0
  0
VERTEX
  5
2DC
  8
0
  6
CONTINUOUS
 62
     7
 10
246.4596567777
 20
2230.3347128904
 30
0.0
  0
VERTEX
  5
2DD
  8
0
  6
CONTINUOUS
 62
     7
 10
253.793054643
 20
2230.3972977674
 30
0.0
  0
VERTEX
  5
2DE
  8
0
  6
CONTINUOUS
 62
     7
 10
261.3457976011
 20
2230.4579454935
 30
0.0
  0
VERTEX
  5
2DF
  8
0
  6
CONTINUOUS
 62
     7
 10
269.1106138852
 20
2230.5165666616
 30
0.0
  0
VERTEX
  5
2E0
  8
0
  6
CONTINUOUS
 62
     7
 10
277.0802913335
 20
2230.5731016672
 30
0.0
  0
VERTEX
  5
2E1
  8
0
  6
CONTINUOUS
 62
     7
 10
285.247260156
 20
2230.6275207079
 30
0.0
  0
VERTEX
  5
2E2
  8
0
  6
CONTINUOUS
 62
     7
 10
293.6037717488
 20
2230.679764179
 30
0.0
  0
VERTEX
  5
2E3
  8
0
  6
CONTINUOUS
 62
     7
 10
302.1420179036
 20
2230.729772476
 30
0.0
  0
VERTEX
  5
2E4
  8
0
  6
CONTINUOUS
 62
     7
 10
310.8538923886
 20
2230.7775157965
 30
0.0
  0
VERTEX
  5
2E5
  8
0
  6
CONTINUOUS
 62
     7
 10
319.7312889722
 20
2230.8229345358
 30
0.0
  0
VERTEX
  5
2E6
  8
0
  6
CONTINUOUS
 62
     7
 10
328.7658033994
 20
2230.8659690893
 30
0.0
  0
VERTEX
  5
2E7
  8
0
  6
CONTINUOUS
 62
     7
 10
337.9489718106
 20
2230.906619457
 30
0.0
  0
VERTEX
  5
2E8
  8
0
  6
CONTINUOUS
 62
     7
 10
347.2721515325
 20
2230.9448260343
 30
0.0
  0
VERTEX
  5
2E9
  8
0
  6
CONTINUOUS
 62
     7
 10
356.7266402868
 20
2230.9805590189
 30
0.0
  0
VERTEX
  5
2EA
  8
0
  6
CONTINUOUS
 62
     7
 10
366.3034973767
 20
2231.013758806
 30
0.0
  0
VERTEX
  5
2EB
  8
0
  6
CONTINUOUS
 62
     7
 10
375.9937225011
 20
2231.0444253958
 30
0.0
  0
VERTEX
  5
2EC
  8
0
  6
CONTINUOUS
 62
     7
 10
385.7883153585
 20
2231.0725289858
 30
0.0
  0
VERTEX
  5
2ED
  8
0
  6
CONTINUOUS
 62
     7
 10
395.6779776242
 20
2231.0980397737
 30
0.0
  0
VERTEX
  5
2EE
  8
0
  6
CONTINUOUS
 62
     7
 10
405.6535301831
 20
2231.120898155
 30
0.0
  0
VERTEX
  5
2EF
  8
0
  6
CONTINUOUS
 62
     7
 10
415.7055555013
 20
2231.1411339319
 30
0.0
  0
VERTEX
  5
2F0
  8
0
  6
CONTINUOUS
 62
     7
 10
425.8246360448
 20
2231.1586874998
 30
0.0
  0
VERTEX
  5
2F1
  8
0
  6
CONTINUOUS
 62
     7
 10
436.0012946752
 20
2231.1735588587
 30
0.0
  0
VERTEX
  5
2F2
  8
0
  6
CONTINUOUS
 62
     7
 10
446.2259946492
 20
2231.1857480085
 30
0.0
  0
VERTEX
  5
2F3
  8
0
  6
CONTINUOUS
 62
     7
 10
456.4891396192
 20
2231.195225147
 30
0.0
  0
VERTEX
  5
2F4
  8
0
  6
CONTINUOUS
 62
     7
 10
466.7811332372
 20
2231.2019902742
 30
0.0
  0
VERTEX
  5
2F5
  8
0
  6
CONTINUOUS
 62
     7
 10
477.0923195508
 20
2231.2060433901
 30
0.0
  0
VERTEX
  5
2F6
  8
0
  6
CONTINUOUS
 62
     7
 10
487.412983003
 20
2231.2073546922
 30
0.0
  0
VERTEX
  5
2F7
  8
0
  6
CONTINUOUS
 62
     7
 10
497.7334676412
 20
2231.2059241808
 30
0.0
  0
VERTEX
  5
2F8
  8
0
  6
CONTINUOUS
 62
     7
 10
508.044117513
 20
2231.2018114603
 30
0.0
  0
VERTEX
  5
2F9
  8
0
  6
CONTINUOUS
 62
     7
 10
518.335276666
 20
2231.1949271238
 30
0.0
  0
VERTEX
  5
2FA
  8
0
  6
CONTINUOUS
 62
     7
 10
528.5972891477
 20
2231.1853605783
 30
0.0
  0
VERTEX
  5
2FB
  8
0
  6
CONTINUOUS
 62
     7
 10
538.8205586103
 20
2231.1730820215
 30
0.0
  0
VERTEX
  5
2FC
  8
0
  6
CONTINUOUS
 62
     7
 10
548.9954291013
 20
2231.1581212557
 30
0.0
  0
VERTEX
  5
2FD
  8
0
  6
CONTINUOUS
 62
     7
 10
559.1124234822
 20
2231.1404484785
 30
0.0
  0
VERTEX
  5
2FE
  8
0
  6
CONTINUOUS
 62
     7
 10
569.16200501
 20
2231.1201232946
 30
0.0
  0
VERTEX
  5
2FF
  8
0
  6
CONTINUOUS
 62
     7
 10
579.1347561506
 20
2231.0971755064
 30
0.0
  0
VERTEX
  5
300
  8
0
  6
CONTINUOUS
 62
     7
 10
589.0214381841
 20
2231.0715753114
 30
0.0
  0
VERTEX
  5
301
  8
0
  6
CONTINUOUS
 62
     7
 10
598.8126335767
 20
2231.0433823145
 30
0.0
  0
VERTEX
  5
302
  8
0
  6
CONTINUOUS
 62
     7
 10
608.4991632131
 20
2231.0126263178
 30
0.0
  0
VERTEX
  5
303
  8
0
  6
CONTINUOUS
 62
     7
 10
618.0720863965
 20
2230.9793371237
 30
0.0
  0
VERTEX
  5
304
  8
0
  6
CONTINUOUS
 62
     7
 10
627.5222836164
 20
2230.9435147321
 30
0.0
  0
VERTEX
  5
305
  8
0
  6
CONTINUOUS
 62
     7
 10
636.8409333852
 20
2230.9052187479
 30
0.0
  0
VERTEX
  5
306
  8
0
  6
CONTINUOUS
 62
     7
 10
646.0192738202
 20
2230.8644789732
 30
0.0
  0
VERTEX
  5
307
  8
0
  6
CONTINUOUS
 62
     7
 10
655.048662248
 20
2230.8213550127
 30
0.0
  0
VERTEX
  5
308
  8
0
  6
CONTINUOUS
 62
     7
 10
663.9206944135
 20
2230.7758468664
 30
0.0
  0
VERTEX
  5
309
  8
0
  6
CONTINUOUS
 62
     7
 10
672.6270256665
 20
2230.728014139
 30
0.0
  0
VERTEX
  5
30A
  8
0
  6
CONTINUOUS
 62
     7
 10
681.1593709615
 20
2230.6779462374
 30
0.0
  0
VERTEX
  5
30B
  8
0
  6
CONTINUOUS
 62
     7
 10
689.5098028806
 20
2230.6256133592
 30
0.0
  0
VERTEX
  5
30C
  8
0
  6
CONTINUOUS
 62
     7
 10
697.6704536107
 20
2230.5711049116
 30
0.0
  0
VERTEX
  5
30D
  8
0
  6
CONTINUOUS
 62
     7
 10
705.6335745481
 20
2230.5144804991
 30
0.0
  0
VERTEX
  5
30E
  8
0
  6
CONTINUOUS
 62
     7
 10
713.391715112
 20
2230.4557997263
 30
0.0
  0
VERTEX
  5
30F
  8
0
  6
CONTINUOUS
 62
     7
 10
720.9375439313
 20
2230.3950923956
 30
0.0
  0
VERTEX
  5
310
  8
0
  6
CONTINUOUS
 62
     7
 10
728.2639382508
 20
2230.3324181116
 30
0.0
  0
VERTEX
  5
311
  8
0
  6
CONTINUOUS
 62
     7
 10
735.3639243272
 20
2230.2678662813
 30
0.0
  0
VERTEX
  5
312
  8
0
  6
CONTINUOUS
 62
     7
 10
742.2307966378
 20
2230.201466707
 30
0.0
  0
VERTEX
  5
313
  8
0
  6
CONTINUOUS
 62
     7
 10
748.8579986718
 20
2230.1333087957
 30
0.0
  0
VERTEX
  5
314
  8
0
  6
CONTINUOUS
 62
     7
 10
755.2392421392
 20
2230.063452152
 30
0.0
  0
VERTEX
  5
315
  8
0
  6
CONTINUOUS
 62
     7
 10
761.3683877614
 20
2229.9919563806
 30
0.0
  0
VERTEX
  5
316
  8
0
  6
CONTINUOUS
 62
     7
 10
767.2395346788
 20
2229.9189108885
 30
0.0
  0
VERTEX
  5
317
  8
0
  6
CONTINUOUS
 62
     7
 10
772.8469906476
 20
2229.8443752802
 30
0.0
  0
VERTEX
  5
318
  8
0
  6
CONTINUOUS
 62
     7
 10
778.1852720407
 20
2229.7684389627
 30
0.0
  0
VERTEX
  5
319
  8
0
  6
CONTINUOUS
 62
     7
 10
783.2490442422
 20
2229.6911913431
 30
0.0
  0
VERTEX
  5
31A
  8
0
  6
CONTINUOUS
 62
     7
 10
788.0332110551
 20
2229.6126920259
 30
0.0
  0
VERTEX
  5
31B
  8
0
  6
CONTINUOUS
 62
     7
 10
792.5328252938
 20
2229.5330602205
 30
0.0
  0
VERTEX
  5
31C
  8
0
  6
CONTINUOUS
 62
     7
 10
796.7431185868
 20
2229.4524151361
 30
0.0
  0
VERTEX
  5
31D
  8
0
  6
CONTINUOUS
 62
     7
 10
800.6593523648
 20
2229.3708461798
 30
0.0
  0
VERTEX
  5
31E
  8
0
  6
CONTINUOUS
 62
     7
 10
804.2768178609
 20
2229.288502363
 30
0.0
  0
VERTEX
  5
31F
  8
0
  6
CONTINUOUS
 62
     7
 10
807.5908361104
 20
2229.2055326975
 30
0.0
  0
VERTEX
  5
320
  8
0
  6
CONTINUOUS
 62
     7
 10
810.5963407186
 20
2229.1221457994
 30
0.0
  0
VERTEX
  5
321
  8
0
  6
CONTINUOUS
 62
     7
 10
813.2879076627
 20
2229.0386694944
 30
0.0
  0
VERTEX
  5
322
  8
0
  6
CONTINUOUS
 62
     7
 10
815.6591592458
 20
2228.9554614103
 30
0.0
  0
VERTEX
  5
323
  8
0
  6
CONTINUOUS
 62
     7
 10
817.7019594339
 20
2228.8732666052
 30
0.0
  0
VERTEX
  5
324
  8
0
  6
CONTINUOUS
 62
     7
 10
819.4052813676
 20
2228.7931877649
 30
0.0
  0
VERTEX
  5
325
  8
0
  6
CONTINUOUS
 62
     7
 10
820.7529125837
 20
2228.7174600637
 30
0.0
  0
VERTEX
  5
326
  8
0
  6
CONTINUOUS
 62
     7
 10
821.6257331994
 20
2228.6578256166
 30
0.0
  0
VERTEX
  5
327
  8
0
  6
CONTINUOUS
 62
     7
 10
822.1547542241
 20
2228.6134797609
 30
0.0
  0
VERTEX
  5
328
  8
0
  6
CONTINUOUS
 62
     7
 10
822.3673341897
 20
2228.5915154493
 30
0.0
  0
VERTEX
  5
329
  8
0
  6
CONTINUOUS
 62
     7
 10
822.3541615632
 20
2228.5934227979
 30
0.0
  0
SEQEND
  5
717
  8
0
  6
CONTINUOUS
 62
     7
  0
POLYLINE
  5
47
  8
0
  6
CONTINUOUS
 62
     7
 66
     1
 10
0.0
 20
0.0
 30
0.0
  0
VERTEX
  5
32A
  8
0
  6
CONTINUOUS
 62
     7
 10
137.2309861806
 20
2240.7927948511
 30
0.0
  0
VERTEX
  5
32B
  8
0
  6
CONTINUOUS
 62
     7
 10
137.3766599324
 20
2238.8885456598
 30
0.0
  0
VERTEX
  5
32C
  8
0
  6
CONTINUOUS
 62
     7
 10
137.806290212
 20
2237.0404440439
 30
0.0
  0
VERTEX
  5
32D
  8
0
  6
CONTINUOUS
 62
     7
 10
138.4708820012
 20
2235.3591162241
 30
0.0
  0
VERTEX
  5
32E
  8
0
  6
CONTINUOUS
 62
     7
 10
139.3210826543
 20
2233.8646191633
 30
0.0
  0
VERTEX
  5
32F
  8
0
  6
CONTINUOUS
 62
     7
 10
140.3036056188
 20
2232.5737315691
 30
0.0
  0
VERTEX
  5
330
  8
0
  6
CONTINUOUS
 62
     7
 10
141.3570581105
 20
2231.4984637773
 30
0.0
  0
VERTEX
  5
331
  8
0
  6
CONTINUOUS
 62
     7
 10
142.4131332067
 20
2230.6413787878
 30
0.0
  0
VERTEX
  5
332
  8
0
  6
CONTINUOUS
 62
     7
 10
143.4115110067
 20
2229.9865025556
 30
0.0
  0
VERTEX
  5
333
  8
0
  6
CONTINUOUS
 62
     7
 10
144.3210778859
 20
2229.4981020963
 30
0.0
  0
VERTEX
  5
334
  8
0
  6
CONTINUOUS
 62
     7
 10
145.1374231008
 20
2229.1359442747
 30
0.0
  0
VERTEX
  5
335
  8
0
  6
CONTINUOUS
 62
     7
 10
145.8649573949
 20
2228.8676339662
 30
0.0
  0
VERTEX
  5
336
  8
0
  6
CONTINUOUS
 62
     7
 10
146.5263305333
 20
2228.6644417322
 30
0.0
  0
VERTEX
  5
337
  8
0
  6
CONTINUOUS
 62
     7
 10
147.1440730718
 20
2228.5067576444
 30
0.0
  0
VERTEX
  5
338
  8
0
  6
CONTINUOUS
 62
     7
 10
147.7440534261
 20
2228.3805150068
 30
0.0
  0
VERTEX
  5
339
  8
0
  6
CONTINUOUS
 62
     7
 10
148.3644185689
 20
2228.2742697275
 30
0.0
  0
VERTEX
  5
33A
  8
0
  6
CONTINUOUS
 62
     7
 10
149.0801511434
 20
2228.1765181101
 30
0.0
  0
VERTEX
  5
33B
  8
0
  6
CONTINUOUS
 62
     7
 10
150.0905690816
 20
2228.070481447
 30
0.0
  0
VERTEX
  5
33C
  8
0
  6
CONTINUOUS
 62
     7
 10
151.7128883031
 20
2227.9449540651
 30
0.0
  0
VERTEX
  5
33D
  8
0
  6
CONTINUOUS
 62
     7
 10
153.4305749562
 20
2227.8432983434
 30
0.0
  0
VERTEX
  5
33E
  8
0
  6
CONTINUOUS
 62
     7
 10
155.5741964009
 20
2227.7403313196
 30
0.0
  0
VERTEX
  5
33F
  8
0
  6
CONTINUOUS
 62
     7
 10
157.9360900548
 20
2227.6450830972
 30
0.0
  0
VERTEX
  5
340
  8
0
  6
CONTINUOUS
 62
     7
 10
160.55952889
 20
2227.5536793745
 30
0.0
  0
VERTEX
  5
341
  8
0
  6
CONTINUOUS
 62
     7
 10
163.4614406255
 20
2227.4646598375
 30
0.0
  0
VERTEX
  5
342
  8
0
  6
CONTINUOUS
 62
     7
 10
166.6487394002
 20
2227.3773688352
 30
0.0
  0
VERTEX
  5
343
  8
0
  6
CONTINUOUS
 62
     7
 10
169.7007356313
 20
2227.3020285642
 30
0.0
  0
SEQEND
  5
716
  8
0
  6
CONTINUOUS
 62
     7
  0
POLYLINE
  5
48
  8
0
  6
CONTINUOUS
 62
     7
 66
     1
 10
0.0
 20
0.0
 30
0.0
  0
VERTEX
  5
344
  8
0
  6
CONTINUOUS
 62
     7
 10
229.2965589193
 20
2226.4130252874
 30
0.0
  0
VERTEX
  5
345
  8
0
  6
CONTINUOUS
 62
     7
 10
233.3978949216
 20
2226.371391443
 30
0.0
  0
VERTEX
  5
346
  8
0
  6
CONTINUOUS
 62
     7
 10
240.3369484571
 20
2226.3051408804
 30
0.0
  0
VERTEX
  5
347
  8
0
  6
CONTINUOUS
 62
     7
 10
247.5060163167
 20
2226.2407976663
 30
0.0
  0
VERTEX
  5
348
  8
0
  6
CONTINUOUS
 62
     7
 10
254.8986611989
 20
2226.1783916033
 30
0.0
  0
VERTEX
  5
349
  8
0
  6
CONTINUOUS
 62
     7
 10
262.5079093602
 20
2226.1179524935
 30
0.0
  0
VERTEX
  5
34A
  8
0
  6
CONTINUOUS
 62
     7
 10
270.3267870572
 20
2226.0595697439
 30
0.0
  0
VERTEX
  5
34B
  8
0
  6
CONTINUOUS
 62
     7
 10
278.3480225232
 20
2226.0032731569
 30
0.0
  0
VERTEX
  5
34C
  8
0
  6
CONTINUOUS
 62
     7
 10
286.5642247823
 20
2225.9491521395
 30
0.0
  0
VERTEX
  5
34D
  8
0
  6
CONTINUOUS
 62
     7
 10
294.9677048352
 20
2225.8972066915
 30
0.0
  0
VERTEX
  5
34E
  8
0
  6
CONTINUOUS
 62
     7
 10
303.5506544736
 20
2225.8475262201
 30
0.0
  0
VERTEX
  5
34F
  8
0
  6
CONTINUOUS
 62
     7
 10
312.305086675
 20
2225.8001405275
 30
0.0
  0
VERTEX
  5
350
  8
0
  6
CONTINUOUS
 62
     7
 10
321.2228356031
 20
2225.7550794161
 30
0.0
  0
VERTEX
  5
351
  8
0
  6
CONTINUOUS
 62
     7
 10
330.2956162122
 20
2225.7124322927
 30
0.0
  0
VERTEX
  5
352
  8
0
  6
CONTINUOUS
 62
     7
 10
339.5149050382
 20
2225.6721693552
 30
0.0
  0
VERTEX
  5
353
  8
0
  6
CONTINUOUS
 62
     7
 10
348.8721786168
 20
2225.6343502081
 30
0.0
  0
VERTEX
  5
354
  8
0
  6
CONTINUOUS
 62
     7
 10
358.35873467
 20
2225.5990642584
 30
0.0
  0
VERTEX
  5
355
  8
0
  6
CONTINUOUS
 62
     7
 10
367.965632501
 20
2225.5662817037
 30
0.0
  0
VERTEX
  5
356
  8
0
  6
CONTINUOUS
 62
     7
 10
377.683931413
 20
2225.5360323465
 30
0.0
  0
VERTEX
  5
357
  8
0
  6
CONTINUOUS
 62
     7
 10
387.5045715001
 20
2225.5083757913
 30
0.0
  0
VERTEX
  5
358
  8
0
  6
CONTINUOUS
 62
     7
 10
397.418373647
 20
2225.4833418405
 30
0.0
  0
VERTEX
  5
359
  8
0
  6
CONTINUOUS
 62
     7
 10
407.4160395292
 20
2225.4609304941
 30
0.0
  0
VERTEX
  5
35A
  8
0
  6
CONTINUOUS
 62
     7
 10
417.4883304265
 20
2225.4411715544
 30
0.0
  0
VERTEX
  5
35B
  8
0
  6
CONTINUOUS
 62
     7
 10
427.6257692006
 20
2225.4240948236
 30
0.0
  0
VERTEX
  5
35C
  8
0
  6
CONTINUOUS
 62
     7
 10
437.818878713
 20
2225.4097003019
 30
0.0
  0
VERTEX
  5
35D
  8
0
  6
CONTINUOUS
 62
     7
 10
448.0581222203
 20
2225.3979879892
 30
0.0
  0
VERTEX
  5
35E
  8
0
  6
CONTINUOUS
 62
     7
 10
458.3340225843
 20
2225.3889876879
 30
0.0
  0
VERTEX
  5
35F
  8
0
  6
CONTINUOUS
 62
     7
 10
468.6369238523
 20
2225.3827292002
 30
0.0
  0
VERTEX
  5
360
  8
0
  6
CONTINUOUS
 62
     7
 10
478.9571700719
 20
2225.3791529215
 30
0.0
  0
VERTEX
  5
361
  8
0
  6
CONTINUOUS
 62
     7
 10
479.23099381
 20
2225.3791529215
 30
0.0
  0
SEQEND
  5
715
  8
0
  6
CONTINUOUS
 62
     7
  0
POLYLINE
  5
49
  8
0
  6
CONTINUOUS
 62
     7
 66
     1
 10
0.0
 20
0.0
 30
0.0
  0
VERTEX
  5
362
  8
0
  6
CONTINUOUS
 62
     7
 10
495.2310262349
 20
2225.3794509447
 30
0.0
  0
VERTEX
  5
363
  8
0
  6
CONTINUOUS
 62
     7
 10
499.6111927655
 20
2225.3802556074
 30
0.0
  0
VERTEX
  5
364
  8
0
  6
CONTINUOUS
 62
     7
 10
509.9256573346
 20
2225.3848749674
 30
0.0
  0
VERTEX
  5
365
  8
0
  6
CONTINUOUS
 62
     7
 10
520.2189026502
 20
2225.392236141
 30
0.0
  0
VERTEX
  5
366
  8
0
  6
CONTINUOUS
 62
     7
 10
530.4813323644
 20
2225.402309326
 30
0.0
  0
VERTEX
  5
367
  8
0
  6
CONTINUOUS
 62
     7
 10
540.7033501294
 20
2225.4150945223
 30
0.0
  0
VERTEX
  5
368
  8
0
  6
CONTINUOUS
 62
     7
 10
550.8753595975
 20
2225.4305619276
 30
0.0
  0
VERTEX
  5
369
  8
0
  6
CONTINUOUS
 62
     7
 10
560.9879432347
 20
2225.4487115419
 30
0.0
  0
VERTEX
  5
36A
  8
0
  6
CONTINUOUS
 62
     7
 10
571.031564298
 20
2225.4695433653
 30
0.0
  0
VERTEX
  5
36B
  8
0
  6
CONTINUOUS
 62
     7
 10
580.9969244626
 20
2225.492997793
 30
0.0
  0
VERTEX
  5
36C
  8
0
  6
CONTINUOUS
 62
     7
 10
590.8746061948
 20
2225.5190748251
 30
0.0
  0
VERTEX
  5
36D
  8
0
  6
CONTINUOUS
 62
     7
 10
600.6554899839
 20
2225.5477446592
 30
0.0
  0
VERTEX
  5
36E
  8
0
  6
CONTINUOUS
 62
     7
 10
610.3303967145
 20
2225.5790072954
 30
0.0
  0
VERTEX
  5
36F
  8
0
  6
CONTINUOUS
 62
     7
 10
619.8902664808
 20
2225.612803129
 30
0.0
  0
VERTEX
  5
370
  8
0
  6
CONTINUOUS
 62
     7
 10
629.3262181905
 20
2225.6491023577
 30
0.0
  0
VERTEX
  5
371
  8
0
  6
CONTINUOUS
 62
     7
 10
638.6294303563
 20
2225.6878751791
 30
0.0
  0
VERTEX
  5
372
  8
0
  6
CONTINUOUS
 62
     7
 10
647.7912603048
 20
2225.7290917909
 30
0.0
  0
VERTEX
  5
373
  8
0
  6
CONTINUOUS
 62
     7
 10
656.8030653623
 20
2225.7727223909
 30
0.0
  0
VERTEX
  5
374
  8
0
  6
CONTINUOUS
 62
     7
 10
665.6565604833
 20
2225.8187073744
 30
0.0
  0
VERTEX
  5
375
  8
0
  6
CONTINUOUS
 62
     7
 10
674.3433414128
 20
2225.867016939
 30
0.0
  0
VERTEX
  5
376
  8
0
  6
CONTINUOUS
 62
     7
 10
682.8554807332
 20
2225.91759148
 30
0.0
  0
VERTEX
  5
377
  8
0
  6
CONTINUOUS
 62
     7
 10
691.1849318174
 20
2225.9704011953
 30
0.0
  0
VERTEX
  5
378
  8
0
  6
CONTINUOUS
 62
     7
 10
699.3240056661
 20
2226.0253864801
 30
0.0
  0
VERTEX
  5
379
  8
0
  6
CONTINUOUS
 62
     7
 10
707.2650728849
 20
2226.0825175321
 30
0.0
  0
VERTEX
  5
37A
  8
0
  6
CONTINUOUS
 62
     7
 10
715.0008021024
 20
2226.1417049444
 30
0.0
  0
VERTEX
  5
37B
  8
0
  6
CONTINUOUS
 62
     7
 10
722.524010959
 20
2226.2029189146
 30
0.0
  0
VERTEX
  5
37C
  8
0
  6
CONTINUOUS
 62
     7
 10
729.8277555135
 20
2226.266099838
 30
0.0
  0
VERTEX
  5
37D
  8
0
  6
CONTINUOUS
 62
     7
 10
736.9052110341
 20
2226.3312179125
 30
0.0
  0
VERTEX
  5
37E
  8
0
  6
CONTINUOUS
 62
     7
 10
743.7498806146
 20
2226.3981539285
 30
0.0
  0
VERTEX
  5
37F
  8
0
  6
CONTINUOUS
 62
     7
 10
745.1648948816
 20
2226.4128762758
 30
0.0
  0
SEQEND
  5
714
  8
0
  6
CONTINUOUS
 62
     7
  0
POLYLINE
  5
4A
  8
0
  6
CONTINUOUS
 62
     7
 66
     1
 10
0.0
 20
0.0
 30
0.0
  0
VERTEX
  5
380
  8
0
  6
CONTINUOUS
 62
     7
 10
804.7625063089
 20
2227.3023861921
 30
0.0
  0
VERTEX
  5
381
  8
0
  6
CONTINUOUS
 62
     7
 10
805.7028887895
 20
2227.3242610967
 30
0.0
  0
VERTEX
  5
382
  8
0
  6
CONTINUOUS
 62
     7
 10
809.0508816865
 20
2227.4101513899
 30
0.0
  0
VERTEX
  5
383
  8
0
  6
CONTINUOUS
 62
     7
 10
812.1071098474
 20
2227.4973529852
 30
0.0
  0
VERTEX
  5
384
  8
0
  6
CONTINUOUS
 62
     7
 10
814.8720203069
 20
2227.5860446966
 30
0.0
  0
VERTEX
  5
385
  8
0
  6
CONTINUOUS
 62
     7
 10
817.3482356694
 20
2227.676584152
 30
0.0
  0
VERTEX
  5
386
  8
0
  6
CONTINUOUS
 62
     7
 10
819.542223039
 20
2227.7697164095
 30
0.0
  0
VERTEX
  5
387
  8
0
  6
CONTINUOUS
 62
     7
 10
821.4683471349
 20
2227.867110399
 30
0.0
  0
VERTEX
  5
388
  8
0
  6
CONTINUOUS
 62
     7
 10
823.1608806279
 20
2227.9732662714
 30
0.0
  0
VERTEX
  5
389
  8
0
  6
CONTINUOUS
 62
     7
 10
824.724459472
 20
2228.104217676
 30
0.0
  0
VERTEX
  5
38A
  8
0
  6
CONTINUOUS
 62
     7
 10
825.6776867536
 20
2228.2141286409
 30
0.0
  0
VERTEX
  5
38B
  8
0
  6
CONTINUOUS
 62
     7
 10
826.6138075021
 20
2228.3610540903
 30
0.0
  0
VERTEX
  5
38C
  8
0
  6
CONTINUOUS
 62
     7
 10
827.2148011354
 20
2228.4832734144
 30
0.0
  0
VERTEX
  5
38D
  8
0
  6
CONTINUOUS
 62
     7
 10
827.8689323095
 20
2228.6459642923
 30
0.0
  0
VERTEX
  5
38E
  8
0
  6
CONTINUOUS
 62
     7
 10
828.577273908
 20
2228.8610178507
 30
0.0
  0
VERTEX
  5
38F
  8
0
  6
CONTINUOUS
 62
     7
 10
829.3619988588
 20
2229.1510838545
 30
0.0
  0
VERTEX
  5
390
  8
0
  6
CONTINUOUS
 62
     7
 10
830.2451906827
 20
2229.5493620909
 30
0.0
  0
VERTEX
  5
391
  8
0
  6
CONTINUOUS
 62
     7
 10
831.2422273782
 20
2230.1020461595
 30
0.0
  0
VERTEX
  5
392
  8
0
  6
CONTINUOUS
 62
     7
 10
832.3256014016
 20
2230.8480578935
 30
0.0
  0
VERTEX
  5
393
  8
0
  6
CONTINUOUS
 62
     7
 10
833.4624109891
 20
2231.8349617994
 30
0.0
  0
VERTEX
  5
394
  8
0
  6
CONTINUOUS
 62
     7
 10
834.5713852075
 20
2233.0747384107
 30
0.0
  0
VERTEX
  5
395
  8
0
  6
CONTINUOUS
 62
     7
 10
835.5587361482
 20
2234.5397609747
 30
0.0
  0
VERTEX
  5
396
  8
0
  6
CONTINUOUS
 62
     7
 10
836.3527892259
 20
2236.1852366007
 30
0.0
  0
VERTEX
  5
397
  8
0
  6
CONTINUOUS
 62
     7
 10
836.9068442014
 20
2237.9616338289
 30
0.0
  0
VERTEX
  5
398
  8
0
  6
CONTINUOUS
 62
     7
 10
837.193006101
 20
2239.8180800951
 30
0.0
  0
VERTEX
  5
399
  8
0
  6
CONTINUOUS
 62
     7
 10
837.1862111715
 20
2241.8509561098
 30
0.0
  0
VERTEX
  5
39A
  8
0
  6
CONTINUOUS
 62
     7
 10
836.8736444143
 20
2243.7633711374
 30
0.0
  0
VERTEX
  5
39B
  8
0
  6
CONTINUOUS
 62
     7
 10
836.3049564985
 20
2245.5195623911
 30
0.0
  0
VERTEX
  5
39C
  8
0
  6
CONTINUOUS
 62
     7
 10
835.5289636281
 20
2247.0972973383
 30
0.0
  0
VERTEX
  5
39D
  8
0
  6
CONTINUOUS
 62
     7
 10
834.5968065885
 20
2248.4782773531
 30
0.0
  0
VERTEX
  5
39E
  8
0
  6
CONTINUOUS
 62
     7
 10
833.5660038617
 20
2249.6480781114
 30
0.0
  0
VERTEX
  5
39F
  8
0
  6
CONTINUOUS
 62
     7
 10
832.5026271966
 20
2250.5990106142
 30
0.0
  0
VERTEX
  5
3A0
  8
0
  6
CONTINUOUS
 62
     7
 10
831.473314586
 20
2251.338167814
 30
0.0
  0
VERTEX
  5
3A1
  8
0
  6
CONTINUOUS
 62
     7
 10
830.5236337808
 20
2251.8935638941
 30
0.0
  0
VERTEX
  5
3A2
  8
0
  6
CONTINUOUS
 62
     7
 10
829.666250768
 20
2252.3063260591
 30
0.0
  0
VERTEX
  5
3A3
  8
0
  6
CONTINUOUS
 62
     7
 10
828.9029238847
 20
2252.6111442125
 30
0.0
  0
VERTEX
  5
3A4
  8
0
  6
CONTINUOUS
 62
     7
 10
828.2155929235
 20
2252.8397280252
 30
0.0
  0
VERTEX
  5
3A5
  8
0
  6
CONTINUOUS
 62
     7
 10
827.5817571309
 20
2253.0151444948
 30
0.0
  0
VERTEX
  5
3A6
  8
0
  6
CONTINUOUS
 62
     7
 10
826.9777534631
 20
2253.1534868753
 30
0.0
  0
VERTEX
  5
3A7
  8
0
  6
CONTINUOUS
 62
     7
 10
826.3723788884
 20
2253.2670933283
 30
0.0
  0
VERTEX
  5
3A8
  8
0
  6
CONTINUOUS
 62
     7
 10
825.7114825872
 20
2253.3669907129
 30
0.0
  0
VERTEX
  5
3A9
  8
0
  6
CONTINUOUS
 62
     7
 10
824.8710272935
 20
2253.466470865
 30
0.0
  0
VERTEX
  5
3AA
  8
0
  6
CONTINUOUS
 62
     7
 10
823.3977792886
 20
2253.5951572931
 30
0.0
  0
VERTEX
  5
3AB
  8
0
  6
CONTINUOUS
 62
     7
 10
821.7479525235
 20
2253.7026244676
 30
0.0
  0
VERTEX
  5
3AC
  8
0
  6
CONTINUOUS
 62
     7
 10
819.9165998128
 20
2253.7983495271
 30
0.0
  0
VERTEX
  5
3AD
  8
0
  6
CONTINUOUS
 62
     7
 10
817.6690576699
 20
2253.8963395632
 30
0.0
  0
VERTEX
  5
3AE
  8
0
  6
CONTINUOUS
 62
     7
 10
815.1721296933
 20
2253.9892632044
 30
0.0
  0
VERTEX
  5
3AF
  8
0
  6
CONTINUOUS
 62
     7
 10
812.4025700715
 20
2254.079266218
 30
0.0
  0
VERTEX
  5
3B0
  8
0
  6
CONTINUOUS
 62
     7
 10
809.3501864103
 20
2254.167361883
 30
0.0
  0
VERTEX
  5
3B1
  8
0
  6
CONTINUOUS
 62
     7
 10
806.0109851983
 20
2254.2537886179
 30
0.0
  0
VERTEX
  5
3B2
  8
0
  6
CONTINUOUS
 62
     7
 10
802.3840127614
 20
2254.3389040506
 30
0.0
  0
VERTEX
  5
3B3
  8
0
  6
CONTINUOUS
 62
     7
 10
798.4701035646
 20
2254.4225889719
 30
0.0
  0
VERTEX
  5
3B4
  8
0
  6
CONTINUOUS
 62
     7
 10
794.2711053518
 20
2254.5050221956
 30
0.0
  0
VERTEX
  5
3B5
  8
0
  6
CONTINUOUS
 62
     7
 10
789.7896407273
 20
2254.5861441171
 30
0.0
  0
VERTEX
  5
3B6
  8
0
  6
CONTINUOUS
 62
     7
 10
785.0290177491
 20
2254.6659547365
 30
0.0
  0
VERTEX
  5
3B7
  8
0
  6
CONTINUOUS
 62
     7
 10
779.9929617074
 20
2254.7443348444
 30
0.0
  0
VERTEX
  5
3B8
  8
0
  6
CONTINUOUS
 62
     7
 10
774.6856449273
 20
2254.8212844408
 30
0.0
  0
VERTEX
  5
3B9
  8
0
  6
CONTINUOUS
 62
     7
 10
769.1116569665
 20
2254.8967439211
 30
0.0
  0
VERTEX
  5
3BA
  8
0
  6
CONTINUOUS
 62
     7
 10
763.2758258012
 20
2254.9705940759
 30
0.0
  0
VERTEX
  5
3BB
  8
0
  6
CONTINUOUS
 62
     7
 10
757.1833668378
 20
2255.0428945101
 30
0.0
  0
VERTEX
  5
3BC
  8
0
  6
CONTINUOUS
 62
     7
 10
750.8397339013
 20
2255.1135260141
 30
0.0
  0
VERTEX
  5
3BD
  8
0
  6
CONTINUOUS
 62
     7
 10
744.2507384446
 20
2255.1824289835
 30
0.0
  0
VERTEX
  5
3BE
  8
0
  6
CONTINUOUS
 62
     7
 10
737.4223111299
 20
2255.2495438135
 30
0.0
  0
VERTEX
  5
3BF
  8
0
  6
CONTINUOUS
 62
     7
 10
730.3607700494
 20
2255.3147512949
 30
0.0
  0
VERTEX
  5
3C0
  8
0
  6
CONTINUOUS
 62
     7
 10
723.0726121095
 20
2255.3781110323
 30
0.0
  0
VERTEX
  5
3C1
  8
0
  6
CONTINUOUS
 62
     7
 10
715.5645130304
 20
2255.4395038164
 30
0.0
  0
VERTEX
  5
3C2
  8
0
  6
CONTINUOUS
 62
     7
 10
707.8434763578
 20
2255.4988104379
 30
0.0
  0
VERTEX
  5
3C3
  8
0
  6
CONTINUOUS
 62
     7
 10
699.9165950444
 20
2255.5560905016
 30
0.0
  0
VERTEX
  5
3C4
  8
0
  6
CONTINUOUS
 62
     7
 10
691.7912898687
 20
2255.6112844026
 30
0.0
  0
VERTEX
  5
3C5
  8
0
  6
CONTINUOUS
 62
     7
 10
683.4750710157
 20
2255.6642133272
 30
0.0
  0
VERTEX
  5
3C6
  8
0
  6
CONTINUOUS
 62
     7
 10
674.9756870893
 20
2255.7149964845
 30
0.0
  0
VERTEX
  5
3C7
  8
0
  6
CONTINUOUS
 62
     7
 10
666.3010059026
 20
2255.7634550607
 30
0.0
  0
VERTEX
  5
3C8
  8
0
  6
CONTINUOUS
 62
     7
 10
657.4591336873
 20
2255.8096486604
 30
0.0
  0
VERTEX
  5
3C9
  8
0
  6
CONTINUOUS
 62
     7
 10
648.4583554891
 20
2255.8533984697
 30
0.0
  0
VERTEX
  5
3CA
  8
0
  6
CONTINUOUS
 62
     7
 10
639.3070159581
 20
2255.8948236978
 30
0.0
  0
VERTEX
  5
3CB
  8
0
  6
CONTINUOUS
 62
     7
 10
630.013578954
 20
2255.9338051355
 30
0.0
  0
VERTEX
  5
3CC
  8
0
  6
CONTINUOUS
 62
     7
 10
620.5868659642
 20
2255.9702831781
 30
0.0
  0
VERTEX
  5
3CD
  8
0
  6
CONTINUOUS
 62
     7
 10
611.0355792669
 20
2256.0042578256
 30
0.0
  0
VERTEX
  5
3CE
  8
0
  6
CONTINUOUS
 62
     7
 10
601.368599954
 20
2256.0356694734
 30
0.0
  0
VERTEX
  5
3CF
  8
0
  6
CONTINUOUS
 62
     7
 10
591.5950475362
 20
2256.0645777262
 30
0.0
  0
VERTEX
  5
3D0
  8
0
  6
CONTINUOUS
 62
     7
 10
581.7239819196
 20
2256.0908037699
 30
0.0
  0
VERTEX
  5
3D1
  8
0
  6
CONTINUOUS
 62
     7
 10
571.7646418241
 20
2256.1144668138
 30
0.0
  0
VERTEX
  5
3D2
  8
0
  6
CONTINUOUS
 62
     7
 10
561.7263255742
 20
2256.1355072534
 30
0.0
  0
VERTEX
  5
3D3
  8
0
  6
CONTINUOUS
 62
     7
 10
551.6183910993
 20
2256.1538058794
 30
0.0
  0
VERTEX
  5
3D4
  8
0
  6
CONTINUOUS
 62
     7
 10
541.4503155378
 20
2256.169481901
 30
0.0
  0
VERTEX
  5
3D5
  8
0
  6
CONTINUOUS
 62
     7
 10
531.2315760282
 20
2256.1824757135
 30
0.0
  0
VERTEX
  5
3D6
  8
0
  6
CONTINUOUS
 62
     7
 10
520.9717689183
 20
2256.1927277124
 30
0.0
  0
VERTEX
  5
3D7
  8
0
  6
CONTINUOUS
 62
     7
 10
510.6803713468
 20
2256.2002975023
 30
0.0
  0
VERTEX
  5
3D8
  8
0
  6
CONTINUOUS
 62
     7
 10
500.3670988706
 20
2256.2051254785
 30
0.0
  0
VERTEX
  5
3D9
  8
0
  6
CONTINUOUS
 62
     7
 10
490.0416074422
 20
2256.2072712457
 30
0.0
  0
VERTEX
  5
3DA
  8
0
  6
CONTINUOUS
 62
     7
 10
479.7134338048
 20
2256.2066155947
 30
0.0
  0
VERTEX
  5
3DB
  8
0
  6
CONTINUOUS
 62
     7
 10
469.3922935155
 20
2256.2032777345
 30
0.0
  0
VERTEX
  5
3DC
  8
0
  6
CONTINUOUS
 62
     7
 10
459.0878425267
 20
2256.1971980608
 30
0.0
  0
VERTEX
  5
3DD
  8
0
  6
CONTINUOUS
 62
     7
 10
448.8096771863
 20
2256.1883765734
 30
0.0
  0
VERTEX
  5
3DE
  8
0
  6
CONTINUOUS
 62
     7
 10
438.5674534467
 20
2256.1768728769
 30
0.0
  0
VERTEX
  5
3DF
  8
0
  6
CONTINUOUS
 62
     7
 10
428.370708051
 20
2256.1626869715
 30
0.0
  0
VERTEX
  5
3E0
  8
0
  6
CONTINUOUS
 62
     7
 10
418.2289777425
 20
2256.145818857
 30
0.0
  0
VERTEX
  5
3E1
  8
0
  6
CONTINUOUS
 62
     7
 10
408.151680055
 20
2256.1262685335
 30
0.0
  0
VERTEX
  5
3E2
  8
0
  6
CONTINUOUS
 62
     7
 10
398.148292127
 20
2256.104036001
 30
0.0
  0
VERTEX
  5
3E3
  8
0
  6
CONTINUOUS
 62
     7
 10
388.2281718877
 20
2256.0791808641
 30
0.0
  0
VERTEX
  5
3E4
  8
0
  6
CONTINUOUS
 62
     7
 10
378.4005580571
 20
2256.0517031229
 30
0.0
  0
VERTEX
  5
3E5
  8
0
  6
CONTINUOUS
 62
     7
 10
368.6745701459
 20
2256.0216623819
 30
0.0
  0
VERTEX
  5
3E6
  8
0
  6
CONTINUOUS
 62
     7
 10
359.059446874
 20
2255.9890586412
 30
0.0
  0
VERTEX
  5
3E7
  8
0
  6
CONTINUOUS
 62
     7
 10
349.5640097287
 20
2255.9539515054
 30
0.0
  0
VERTEX
  5
3E8
  8
0
  6
CONTINUOUS
 62
     7
 10
340.1971398023
 20
2255.9163409746
 30
0.0
  0
VERTEX
  5
3E9
  8
0
  6
CONTINUOUS
 62
     7
 10
330.967658582
 20
2255.8762866533
 30
0.0
  0
VERTEX
  5
3EA
  8
0
  6
CONTINUOUS
 62
     7
 10
321.8841491368
 20
2255.8337885416
 30
0.0
  0
VERTEX
  5
3EB
  8
0
  6
CONTINUOUS
 62
     7
 10
312.9550753263
 20
2255.7889062441
 30
0.0
  0
VERTEX
  5
3EC
  8
0
  6
CONTINUOUS
 62
     7
 10
304.1887818006
 20
2255.7416397608
 30
0.0
  0
VERTEX
  5
3ED
  8
0
  6
CONTINUOUS
 62
     7
 10
295.5933747915
 20
2255.6921679056
 30
0.0
  0
VERTEX
  5
3EE
  8
0
  6
CONTINUOUS
 62
     7
 10
287.1769009259
 20
2255.6403714693
 30
0.0
  0
VERTEX
  5
3EF
  8
0
  6
CONTINUOUS
 62
     7
 10
278.9472280172
 20
2255.5864292658
 30
0.0
  0
VERTEX
  5
3F0
  8
0
  6
CONTINUOUS
 62
     7
 10
270.911925855
 20
2255.5302816904
 30
0.0
  0
VERTEX
  5
3F1
  8
0
  6
CONTINUOUS
 62
     7
 10
263.0785642293
 20
2255.4720479524
 30
0.0
  0
VERTEX
  5
3F2
  8
0
  6
CONTINUOUS
 62
     7
 10
255.4544149068
 20
2255.4117876566
 30
0.0
  0
VERTEX
  5
3F3
  8
0
  6
CONTINUOUS
 62
     7
 10
248.0464516309
 20
2255.3495604074
 30
0.0
  0
VERTEX
  5
3F4
  8
0
  6
CONTINUOUS
 62
     7
 10
240.8615885404
 20
2255.2853066004
 30
0.0
  0
VERTEX
  5
3F5
  8
0
  6
CONTINUOUS
 62
     7
 10
233.9065013555
 20
2255.2192646539
 30
0.0
  0
VERTEX
  5
3F6
  8
0
  6
CONTINUOUS
 62
     7
 10
227.1875081685
 20
2255.1513153589
 30
0.0
  0
VERTEX
  5
3F7
  8
0
  6
CONTINUOUS
 62
     7
 10
220.7108674672
 20
2255.0816971338
 30
0.0
  0
VERTEX
  5
3F8
  8
0
  6
CONTINUOUS
 62
     7
 10
214.4824801114
 20
2255.0102907694
 30
0.0
  0
VERTEX
  5
3F9
  8
0
  6
CONTINUOUS
 62
     7
 10
208.5080085424
 20
2254.9373346842
 30
0.0
  0
VERTEX
  5
3FA
  8
0
  6
CONTINUOUS
 62
     7
 10
202.7928767827
 20
2254.8627096689
 30
0.0
  0
VERTEX
  5
3FB
  8
0
  6
CONTINUOUS
 62
     7
 10
197.3421512273
 20
2254.7866541422
 30
0.0
  0
VERTEX
  5
3FC
  8
0
  6
CONTINUOUS
 62
     7
 10
192.160719457
 20
2254.7091084993
 30
0.0
  0
VERTEX
  5
3FD
  8
0
  6
CONTINUOUS
 62
     7
 10
187.2529922155
 20
2254.630132345
 30
0.0
  0
VERTEX
  5
3FE
  8
0
  6
CONTINUOUS
 62
     7
 10
182.6231418279
 20
2254.5498448885
 30
0.0
  0
VERTEX
  5
3FF
  8
0
  6
CONTINUOUS
 62
     7
 10
178.2751022008
 20
2254.4683057344
 30
0.0
  0
VERTEX
  5
400
  8
0
  6
CONTINUOUS
 62
     7
 10
174.2119727758
 20
2254.3854552782
 30
0.0
  0
VERTEX
  5
401
  8
0
  6
CONTINUOUS
 62
     7
 10
170.4368529943
 20
2254.3014127291
 30
0.0
  0
VERTEX
  5
402
  8
0
  6
CONTINUOUS
 62
     7
 10
166.951650205
 20
2254.2161184824
 30
0.0
  0
VERTEX
  5
403
  8
0
  6
CONTINUOUS
 62
     7
 10
163.7580333379
 20
2254.1295129335
 30
0.0
  0
VERTEX
  5
404
  8
0
  6
CONTINUOUS
 62
     7
 10
160.8560023931
 20
2254.0415364778
 30
0.0
  0
VERTEX
  5
405
  8
0
  6
CONTINUOUS
 62
     7
 10
158.2443652776
 20
2253.9519506967
 30
0.0
  0
VERTEX
  5
406
  8
0
  6
CONTINUOUS
 62
     7
 10
155.9185920385
 20
2253.8601595438
 30
0.0
  0
VERTEX
  5
407
  8
0
  6
CONTINUOUS
 62
     7
 10
153.8689075139
 20
2253.7650901354
 30
0.0
  0
VERTEX
  5
408
  8
0
  6
CONTINUOUS
 62
     7
 10
152.0729003576
 20
2253.6639410532
 30
0.0
  0
VERTEX
  5
409
  8
0
  6
CONTINUOUS
 62
     7
 10
150.4716811803
 20
2253.5484868562
 30
0.0
  0
VERTEX
  5
40A
  8
0
  6
CONTINUOUS
 62
     7
 10
148.8268314031
 20
2253.3771235025
 30
0.0
  0
VERTEX
  5
40B
  8
0
  6
CONTINUOUS
 62
     7
 10
148.0876145986
 20
2253.2667357004
 30
0.0
  0
VERTEX
  5
40C
  8
0
  6
CONTINUOUS
 62
     7
 10
147.4770246175
 20
2253.1519967592
 30
0.0
  0
VERTEX
  5
40D
  8
0
  6
CONTINUOUS
 62
     7
 10
146.8388972905
 20
2253.0046540773
 30
0.0
  0
VERTEX
  5
40E
  8
0
  6
CONTINUOUS
 62
     7
 10
146.153205457
 20
2252.8111177957
 30
0.0
  0
VERTEX
  5
40F
  8
0
  6
CONTINUOUS
 62
     7
 10
145.3990874913
 20
2252.551837591
 30
0.0
  0
VERTEX
  5
410
  8
0
  6
CONTINUOUS
 62
     7
 10
144.5546088842
 20
2252.1981436289
 30
0.0
  0
VERTEX
  5
411
  8
0
  6
CONTINUOUS
 62
     7
 10
143.5992656377
 20
2251.7078358209
 30
0.0
  0
VERTEX
  5
412
  8
0
  6
CONTINUOUS
 62
     7
 10
142.5461707738
 20
2251.0394293344
 30
0.0
  0
VERTEX
  5
413
  8
0
  6
CONTINUOUS
 62
     7
 10
141.4217887548
 20
2250.1454192674
 30
0.0
  0
VERTEX
  5
414
  8
0
  6
CONTINUOUS
 62
     7
 10
140.2912078527
 20
2248.997612623
 30
0.0
  0
VERTEX
  5
415
  8
0
  6
CONTINUOUS
 62
     7
 10
139.2489610341
 20
2247.6111489809
 30
0.0
  0
VERTEX
  5
416
  8
0
  6
CONTINUOUS
 62
     7
 10
138.3768258718
 20
2246.0267383135
 30
0.0
  0
VERTEX
  5
417
  8
0
  6
CONTINUOUS
 62
     7
 10
137.7299962667
 20
2244.2928391969
 30
0.0
  0
VERTEX
  5
418
  8
0
  6
CONTINUOUS
 62
     7
 10
137.3424468663
 20
2242.4600559747
 30
0.0
  0
VERTEX
  5
419
  8
0
  6
CONTINUOUS
 62
     7
 10
137.2309861806
 20
2240.7927948511
 30
0.0
  0
SEQEND
  5
713
  8
0
  6
CONTINUOUS
 62
     7
  0
LINE
  5
4B
  8
0
  6
CONTINUOUS
 62
     7
 10
495.2310262349
 20
2155.4722029245
 30
0.0
 11
495.2310262349
 21
2231.2062818086
 31
0.0
  0
LINE
  5
4C
  8
0
  6
CONTINUOUS
 62
     7
 10
479.23099381
 20
2231.206311611
 30
0.0
 11
479.23099381
 21
2155.4708022154
 31
0.0
  0
LINE
  5
4D
  8
0
  6
CONTINUOUS
 62
     7
 10
424.2309866574
 20
1959.7531694448
 30
0.0
 11
426.4479218152
 21
1874.0063745058
 31
0.0
  0
LINE
  5
4E
  8
0
  6
CONTINUOUS
 62
     7
 10
548.0140386251
 20
1874.0063745058
 30
0.0
 11
550.2309737828
 21
1959.7531694448
 31
0.0
  0
LINE
  5
4F
  8
0
  6
CONTINUOUS
 62
     7
 10
532.2310267118
 20
2163.6364299333
 30
0.0
 11
532.2310267118
 21
2170.2954608476
 31
0.0
  0
LINE
  5
50
  8
0
  6
CONTINUOUS
 62
     7
 10
532.2310267118
 20
2096.9581741369
 30
0.0
 11
532.2310267118
 21
2147.0622855699
 31
0.0
  0
LINE
  5
51
  8
0
  6
CONTINUOUS
 62
     7
 10
442.2309933332
 20
2147.0622855699
 30
0.0
 11
442.2309933332
 21
2096.9581741369
 31
0.0
  0
LINE
  5
52
  8
0
  6
CONTINUOUS
 62
     7
 10
442.2309933332
 20
2170.2954608476
 30
0.0
 11
442.2309933332
 21
2163.6361319101
 31
0.0
  0
LINE
  5
53
  8
0
  6
CONTINUOUS
 62
     7
 10
1882.731014314
 20
1588.1888854778
 30
0.0
 11
1902.7309952405
 21
1588.1888854778
 31
0.0
  0
LINE
  5
54
  8
0
  6
CONTINUOUS
 62
     7
 10
1902.7309952405
 20
1888.1888824976
 30
0.0
 11
1882.731014314
 21
1888.1888824976
 31
0.0
  0
LINE
  5
55
  8
0
  6
CONTINUOUS
 62
     7
 10
542.7309809354
 20
1588.1888854778
 30
0.0
 11
577.7310071614
 21
1588.1888854778
 31
0.0
  0
LINE
  5
56
  8
0
  6
CONTINUOUS
 62
     7
 10
577.7310071614
 20
1888.1888824976
 30
0.0
 11
548.3807263997
 21
1888.1888824976
 31
0.0
  0
LINE
  5
57
  8
0
  6
CONTINUOUS
 62
     7
 10
1882.731014314
 20
1888.1888824976
 30
0.0
 11
1847.730988088
 21
1888.1888824976
 31
0.0
  0
LINE
  5
58
  8
0
  6
CONTINUOUS
 62
     7
 10
1847.730988088
 20
1588.1888854778
 30
0.0
 11
1882.731014314
 21
1588.1888854778
 31
0.0
  0
LINE
  5
59
  8
0
  6
CONTINUOUS
 62
     7
 10
507.731014314
 20
1960.2677363432
 30
0.0
 11
507.731014314
 21
1975.8027035272
 31
0.0
  0
LINE
  5
5A
  8
0
  6
CONTINUOUS
 62
     7
 10
466.7310057309
 20
1975.8027035272
 30
0.0
 11
466.7310057309
 21
1960.2677363432
 31
0.0
  0
LINE
  5
5B
  8
0
  6
CONTINUOUS
 62
     7
 10
524.7309742597
 20
1595.6888783253
 30
0.0
 11
542.7309809354
 21
1595.6888783253
 31
0.0
  0
LINE
  5
5C
  8
0
  6
CONTINUOUS
 62
     7
 10
477.2310195592
 20
2096.9581741369
 30
0.0
 11
477.2310195592
 21
1975.95724347
 31
0.0
  0
LINE
  5
5D
  8
0
  6
CONTINUOUS
 62
     7
 10
497.2310004857
 20
1975.95724347
 30
0.0
 11
497.2310004857
 21
2096.9581741369
 31
0.0
  0
LINE
  5
5E
  8
0
  6
CONTINUOUS
 62
     7
 10
532.2421131757
 20
2146.9588417089
 30
0.0
 11
810.9027979997
 21
2229.1126388586
 31
0.0
  0
LINE
  5
5F
  8
0
  6
CONTINUOUS
 62
     7
 10
757.4595449594
 20
2230.0375539339
 30
0.0
 11
532.2277484563
 21
2163.635476259
 31
0.0
  0
LINE
  5
60
  8
0
  6
CONTINUOUS
 62
     7
 10
442.2275958684
 20
2163.6374432123
 30
0.0
 11
217.0025048879
 21
2230.0375241316
 31
0.0
  0
LINE
  5
61
  8
0
  6
CONTINUOUS
 62
     7
 10
163.5597882894
 20
2229.1124600446
 30
0.0
 11
442.2194300321
 21
2146.9589907205
 31
0.0
  0
LINE
  5
62
  8
0
  6
CONTINUOUS
 62
     7
 10
431.7309795049
 20
1613.1888839877
 30
0.0
 11
524.7309742597
 21
1613.1888839877
 31
0.0
  0
LINE
  5
63
  8
0
  6
CONTINUOUS
 62
     7
 10
449.415975633
 20
1863.1888914383
 30
0.0
 11
431.7309795049
 21
1863.1888914383
 31
0.0
  0
LINE
  5
64
  8
0
  6
CONTINUOUS
 62
     7
 10
431.7309795049
 20
1803.1888890541
 30
0.0
 11
428.7310181287
 21
1803.1888890541
 31
0.0
  0
LINE
  5
65
  8
0
  6
CONTINUOUS
 62
     7
 10
428.7310181287
 20
1673.1888863719
 30
0.0
 11
431.7309795049
 21
1673.1888863719
 31
0.0
  0
LINE
  5
66
  8
0
  6
CONTINUOUS
 62
     7
 10
428.7310181287
 20
1796.1888860441
 30
0.0
 11
421.7309890416
 21
1796.1888860441
 31
0.0
  0
LINE
  5
67
  8
0
  6
CONTINUOUS
 62
     7
 10
421.7309890416
 20
1680.1888856566
 30
0.0
 11
428.7310181287
 21
1680.1888856566
 31
0.0
  0
ARC
  5
68
  8
0
  6
CONTINUOUS
 62
     7
 10
487.3462976199
 20
2155.1508929503
 30
0.0
 40
7.807260445733894
 50
269.1538987466
 51
2.4042214704
  0
ARC
  5
69
  8
0
  6
CONTINUOUS
 62
     7
 10
487.1780693627
 20
2155.2378780838
 30
0.0
 40
7.893571856541216
 50
178.255827289
 51
270.3842745925
  0
CIRCLE
  5
6A
  8
0
  6
CONTINUOUS
 62
     7
 10
1212.7309976247
 20
1735.1888853586
 30
0.0
 40
500.4999999999999
  0
CIRCLE
  5
6B
  8
0
  6
CONTINUOUS
 62
     7
 10
1212.7309976247
 20
1735.1888853586
 30
0.0
 40
436.9999999999999
  0
CIRCLE
  5
6C
  8
0
  6
CONTINUOUS
 62
     7
 10
1212.7309976247
 20
1735.1888853586
 30
0.0
 40
502.4999999999999
  0
LINE
  5
6D
  8
0
  6
CONTINUOUS
 62
     7
 10
1412.7310006049
 20
2282.3691803491
 30
0.0
 11
1412.7310006049
 21
2292.688890127
 31
0.0
  0
LINE
  5
6E
  8
0
  6
CONTINUOUS
 62
     7
 10
1012.7309946445
 20
1188.0085903681
 30
0.0
 11
1012.7309946445
 21
1177.6888805902
 31
0.0
  0
CIRCLE
  5
6F
  8
0
  6
CONTINUOUS
 62
     7
 10
1708.2740692254
 20
1561.8047332899
 30
0.0
 40
17.0
  0
CIRCLE
  5
70
  8
0
  6
CONTINUOUS
 62
     7
 10
1039.3221347482
 20
2230.7233102737
 30
0.0
 40
16.99999999999977
  0
CIRCLE
  5
71
  8
0
  6
CONTINUOUS
 62
     7
 10
933.4030739471
 20
2179.7121255317
 30
0.0
 40
17.0
  0
CIRCLE
  5
72
  8
0
  6
CONTINUOUS
 62
     7
 10
841.5091936233
 20
1363.9485693449
 30
0.0
 40
17.0
  0
CIRCLE
  5
73
  8
0
  6
CONTINUOUS
 62
     7
 10
717.187926024
 20
1908.5730374273
 30
0.0
 40
17.0
  0
CIRCLE
  5
74
  8
0
  6
CONTINUOUS
 62
     7
 10
717.1965727096
 20
1561.7800224821
 30
0.0
 40
16.99999999999989
  0
CIRCLE
  5
75
  8
0
  6
CONTINUOUS
 62
     7
 10
691.0306219813
 20
1793.9572276322
 30
0.0
 40
17.0
  0
CIRCLE
  5
76
  8
0
  6
CONTINUOUS
 62
     7
 10
1492.0367541146
 20
2179.7260540989
 30
0.0
 40
17.0
  0
CIRCLE
  5
77
  8
0
  6
CONTINUOUS
 62
     7
 10
691.0335532045
 20
1676.3945277602
 30
0.0
 40
17.0
  0
ARC
  5
78
  8
0
  6
CONTINUOUS
 62
     7
 10
1212.7309976247
 20
1735.1888853586
 30
0.0
 40
557.5000000000001
 50
293.6828475771
 51
66.3171524229
  0
CIRCLE
  5
79
  8
0
  6
CONTINUOUS
 62
     7
 10
1583.9713136384
 20
1363.9670813572
 30
0.0
 40
16.99999999999977
  0
CIRCLE
  5
7A
  8
0
  6
CONTINUOUS
 62
     7
 10
768.1938288844
 20
2014.4946418485
 30
0.0
 40
17.0
  0
CIRCLE
  5
7B
  8
0
  6
CONTINUOUS
 62
     7
 10
1657.268166365
 20
1455.8831288687
 30
0.0
 40
17.00000000000023
  0
CIRCLE
  5
7C
  8
0
  6
CONTINUOUS
 62
     7
 10
768.2077574516
 20
1455.860961681
 30
0.0
 40
16.99999999999989
  0
CIRCLE
  5
7D
  8
0
  6
CONTINUOUS
 62
     7
 10
1153.9366400263
 20
2256.8863297788
 30
0.0
 40
17.0
  0
LINE
  5
7E
  8
0
  6
CONTINUOUS
 62
     7
 10
1217.7309975129
 20
2292.688890127
 30
0.0
 11
1212.7309976247
 21
2287.6888948953
 31
0.0
  0
CIRCLE
  5
7F
  8
0
  6
CONTINUOUS
 62
     7
 10
1734.4313732681
 20
1676.420543085
 30
0.0
 40
16.99999999999977
  0
ARC
  5
80
  8
0
  6
CONTINUOUS
 62
     7
 10
1212.7309976247
 20
1735.1888853586
 30
0.0
 40
557.5
 50
113.6828475771
 51
246.3171524229
  0
LINE
  5
81
  8
0
  6
CONTINUOUS
 62
     7
 10
1012.7309946445
 20
2282.3691803491
 30
0.0
 11
1012.7309946445
 21
2292.688890127
 31
0.0
  0
CIRCLE
  5
82
  8
0
  6
CONTINUOUS
 62
     7
 10
841.490681611
 20
2106.41068936
 30
0.0
 40
16.99999999999989
  0
CIRCLE
  5
83
  8
0
  6
CONTINUOUS
 62
     7
 10
1708.2654225398
 20
1908.5977482351
 30
0.0
 40
17.0
  0
CIRCLE
  5
84
  8
0
  6
CONTINUOUS
 62
     7
 10
1657.2542377978
 20
2014.5168090362
 30
0.0
 40
17.0
  0
LINE
  5
85
  8
0
  6
CONTINUOUS
 62
     7
 10
1412.7310006049
 20
1177.6888805902
 30
0.0
 11
1012.7309946445
 21
1177.6888805902
 31
0.0
  0
LINE
  5
86
  8
0
  6
CONTINUOUS
 62
     7
 10
1412.7310006049
 20
1188.0085903681
 30
0.0
 11
1412.7310006049
 21
1177.6888805902
 31
0.0
  0
CIRCLE
  5
87
  8
0
  6
CONTINUOUS
 62
     7
 10
1583.9528016261
 20
2106.4292013723
 30
0.0
 40
17.0
  0
ARC
  5
88
  8
0
  6
CONTINUOUS
 62
     7
 10
972.7309976247
 20
1188.0086134189
 30
0.0
 40
40.00000000000011
 50
0.0
 51
66.3171524229
  0
CIRCLE
  5
89
  8
0
  6
CONTINUOUS
 62
     7
 10
1492.0589213023
 20
1290.6656451855
 30
0.0
 40
16.99999999999977
  0
ARC
  5
8A
  8
0
  6
CONTINUOUS
 62
     7
 10
972.7309976247
 20
2282.3691572983
 30
0.0
 40
40.00000000000011
 50
293.6828475771
 51
360.0
  0
CIRCLE
  5
8B
  8
0
  6
CONTINUOUS
 62
     7
 10
1386.1151496934
 20
2230.7319569593
 30
0.0
 40
17.0
  0
ARC
  5
8C
  8
0
  6
CONTINUOUS
 62
     7
 10
1452.7309976247
 20
2282.3691572983
 30
0.0
 40
40.00000000000011
 50
180.0
 51
246.3171524229
  0
CIRCLE
  5
8D
  8
0
  6
CONTINUOUS
 62
     7
 10
1271.4993398983
 20
2256.889261002
 30
0.0
 40
17.0
  0
CIRCLE
  5
8E
  8
0
  6
CONTINUOUS
 62
     7
 10
1271.5253552231
 20
1213.4914409384
 30
0.0
 40
17.00000000000023
  0
ARC
  5
8F
  8
0
  6
CONTINUOUS
 62
     7
 10
1452.7309976247
 20
1188.0086134189
 30
0.0
 40
40.00000000000023
 50
113.6828475771
 51
180.0
  0
CIRCLE
  5
90
  8
0
  6
CONTINUOUS
 62
     7
 10
1386.1398605012
 20
1239.6544604435
 30
0.0
 40
16.99999999999977
  0
LINE
  5
91
  8
0
  6
CONTINUOUS
 62
     7
 10
1212.7309976247
 20
2287.6888948953
 30
0.0
 11
1207.7309977365
 21
2292.688890127
 31
0.0
  0
CIRCLE
  5
92
  8
0
  6
CONTINUOUS
 62
     7
 10
933.4252411348
 20
1290.6517166183
 30
0.0
 40
17.0
  0
CIRCLE
  5
93
  8
0
  6
CONTINUOUS
 62
     7
 10
1734.4284420449
 20
1793.983242957
 30
0.0
 40
17.0
  0
CIRCLE
  5
94
  8
0
  6
CONTINUOUS
 62
     7
 10
1039.346845556
 20
1239.6458137579
 30
0.0
 40
17.0
  0
LINE
  5
95
  8
0
  6
CONTINUOUS
 62
     7
 10
1012.7309946445
 20
2292.688890127
 30
0.0
 11
1207.7309977365
 21
2292.688890127
 31
0.0
  0
CIRCLE
  5
96
  8
0
  6
CONTINUOUS
 62
     7
 10
1153.9626553511
 20
1213.4885097152
 30
0.0
 40
17.00000000000023
  0
LINE
  5
97
  8
0
  6
CONTINUOUS
 62
     7
 10
1217.7309975129
 20
2292.688890127
 30
0.0
 11
1412.7310006049
 21
2292.688890127
 31
0.0
  0
ARC
  5
98
  8
0
  6
CONTINUOUS
 62
     7
 10
528.3941655665
 20
2328.521009324
 30
0.0
 40
454.9377807107334
 50
269.5783195714
 51
272.4717328894
  0
POLYLINE
  5
99
  8
0
  6
CONTINUOUS
 62
     7
 66
     1
 10
0.0
 20
0.0
 30
0.0
  0
VERTEX
  5
41A
  8
0
  6
CONTINUOUS
 62
     7
 10
449.415975633
 20
1873.5955494917
 30
0.0
  0
VERTEX
  5
41B
  8
0
  6
CONTINUOUS
 62
     7
 10
446.7904506353
 20
1873.614622978
 30
0.0
  0
VERTEX
  5
41C
  8
0
  6
CONTINUOUS
 62
     7
 10
443.4354839948
 20
1873.6425179518
 30
0.0
  0
VERTEX
  5
41D
  8
0
  6
CONTINUOUS
 62
     7
 10
440.3375325826
 20
1873.6725288904
 30
0.0
  0
VERTEX
  5
41E
  8
0
  6
CONTINUOUS
 62
     7
 10
437.5147758153
 20
1873.7045067823
 30
0.0
  0
VERTEX
  5
41F
  8
0
  6
CONTINUOUS
 62
     7
 10
434.9837241796
 20
1873.7382579124
 30
0.0
  0
VERTEX
  5
420
  8
0
  6
CONTINUOUS
 62
     7
 10
432.7593384412
 20
1873.7735885656
 30
0.0
  0
VERTEX
  5
421
  8
0
  6
CONTINUOUS
 62
     7
 10
430.8545528081
 20
1873.8102752245
 30
0.0
  0
VERTEX
  5
422
  8
0
  6
CONTINUOUS
 62
     7
 10
429.2806325582
 20
1873.8481241739
 30
0.0
  0
VERTEX
  5
423
  8
0
  6
CONTINUOUS
 62
     7
 10
428.0468164113
 20
1873.8868969953
 30
0.0
  0
VERTEX
  5
424
  8
0
  6
CONTINUOUS
 62
     7
 10
427.1603165296
 20
1873.9263701713
 30
0.0
  0
VERTEX
  5
425
  8
0
  6
CONTINUOUS
 62
     7
 10
426.626318517
 20
1873.9663201845
 30
0.0
  0
VERTEX
  5
426
  8
0
  6
CONTINUOUS
 62
     7
 10
426.4479218152
 20
1874.0064937151
 30
0.0
  0
VERTEX
  5
427
  8
0
  6
CONTINUOUS
 62
     7
 10
426.626318517
 20
1874.0466821468
 30
0.0
  0
VERTEX
  5
428
  8
0
  6
CONTINUOUS
 62
     7
 10
427.1603165296
 20
1874.0866172588
 30
0.0
  0
VERTEX
  5
429
  8
0
  6
CONTINUOUS
 62
     7
 10
428.0468164113
 20
1874.1260904348
 30
0.0
  0
VERTEX
  5
42A
  8
0
  6
CONTINUOUS
 62
     7
 10
429.2806325582
 20
1874.1648632562
 30
0.0
  0
VERTEX
  5
42B
  8
0
  6
CONTINUOUS
 62
     7
 10
430.8545528081
 20
1874.2027122057
 30
0.0
  0
VERTEX
  5
42C
  8
0
  6
CONTINUOUS
 62
     7
 10
432.7593384412
 20
1874.2393988645
 30
0.0
  0
VERTEX
  5
42D
  8
0
  6
CONTINUOUS
 62
     7
 10
434.9837241796
 20
1874.2747295177
 30
0.0
  0
VERTEX
  5
42E
  8
0
  6
CONTINUOUS
 62
     7
 10
437.5147758153
 20
1874.3084806478
 30
0.0
  0
VERTEX
  5
42F
  8
0
  6
CONTINUOUS
 62
     7
 10
440.3375325826
 20
1874.3404585398
 30
0.0
  0
VERTEX
  5
430
  8
0
  6
CONTINUOUS
 62
     7
 10
443.4354839948
 20
1874.3704843796
 30
0.0
  0
VERTEX
  5
431
  8
0
  6
CONTINUOUS
 62
     7
 10
446.7904506353
 20
1874.3983644522
 30
0.0
  0
VERTEX
  5
432
  8
0
  6
CONTINUOUS
 62
     7
 10
450.3827629712
 20
1874.4239497459
 30
0.0
  0
VERTEX
  5
433
  8
0
  6
CONTINUOUS
 62
     7
 10
454.1913209584
 20
1874.4470763481
 30
0.0
  0
VERTEX
  5
434
  8
0
  6
CONTINUOUS
 62
     7
 10
458.1937132505
 20
1874.4676250494
 30
0.0
  0
VERTEX
  5
435
  8
0
  6
CONTINUOUS
 62
     7
 10
462.3665748265
 20
1874.4854766405
 30
0.0
  0
VERTEX
  5
436
  8
0
  6
CONTINUOUS
 62
     7
 10
466.6852889684
 20
1874.500497011
 30
0.0
  0
VERTEX
  5
437
  8
0
  6
CONTINUOUS
 62
     7
 10
471.1246429113
 20
1874.5126265562
 30
0.0
  0
VERTEX
  5
438
  8
0
  6
CONTINUOUS
 62
     7
 10
475.6584702161
 20
1874.5217907703
 30
0.0
  0
VERTEX
  5
439
  8
0
  6
CONTINUOUS
 62
     7
 10
480.2601872113
 20
1874.5279300487
 30
0.0
  0
VERTEX
  5
43A
  8
0
  6
CONTINUOUS
 62
     7
 10
484.9028525975
 20
1874.5310145891
 30
0.0
  0
VERTEX
  5
43B
  8
0
  6
CONTINUOUS
 62
     7
 10
489.5591674474
 20
1874.5310145891
 30
0.0
  0
VERTEX
  5
43C
  8
0
  6
CONTINUOUS
 62
     7
 10
494.2018328336
 20
1874.5279300487
 30
0.0
  0
VERTEX
  5
43D
  8
0
  6
CONTINUOUS
 62
     7
 10
498.8035498288
 20
1874.5217907703
 30
0.0
  0
VERTEX
  5
43E
  8
0
  6
CONTINUOUS
 62
     7
 10
503.3373771337
 20
1874.5126265562
 30
0.0
  0
VERTEX
  5
43F
  8
0
  6
CONTINUOUS
 62
     7
 10
507.7766714719
 20
1874.500497011
 30
0.0
  0
VERTEX
  5
440
  8
0
  6
CONTINUOUS
 62
     7
 10
512.0954452184
 20
1874.4854766405
 30
0.0
  0
VERTEX
  5
441
  8
0
  6
CONTINUOUS
 62
     7
 10
516.2682471898
 20
1874.4676250494
 30
0.0
  0
VERTEX
  5
442
  8
0
  6
CONTINUOUS
 62
     7
 10
520.2706990865
 20
1874.4470763481
 30
0.0
  0
VERTEX
  5
443
  8
0
  6
CONTINUOUS
 62
     7
 10
524.0791974691
 20
1874.4239497459
 30
0.0
  0
VERTEX
  5
444
  8
0
  6
CONTINUOUS
 62
     7
 10
527.671509805
 20
1874.3983644522
 30
0.0
  0
VERTEX
  5
445
  8
0
  6
CONTINUOUS
 62
     7
 10
531.0264764455
 20
1874.3704843796
 30
0.0
  0
VERTEX
  5
446
  8
0
  6
CONTINUOUS
 62
     7
 10
534.1244874623
 20
1874.3404585398
 30
0.0
  0
VERTEX
  5
447
  8
0
  6
CONTINUOUS
 62
     7
 10
536.9472442296
 20
1874.3084806478
 30
0.0
  0
VERTEX
  5
448
  8
0
  6
CONTINUOUS
 62
     7
 10
539.4782362607
 20
1874.2747295177
 30
0.0
  0
VERTEX
  5
449
  8
0
  6
CONTINUOUS
 62
     7
 10
541.7026816037
 20
1874.2393988645
 30
0.0
  0
VERTEX
  5
44A
  8
0
  6
CONTINUOUS
 62
     7
 10
543.6074076322
 20
1874.2027122057
 30
0.0
  0
VERTEX
  5
44B
  8
0
  6
CONTINUOUS
 62
     7
 10
545.1813278821
 20
1874.1648632562
 30
0.0
  0
VERTEX
  5
44C
  8
0
  6
CONTINUOUS
 62
     7
 10
546.4152036336
 20
1874.1260904348
 30
0.0
  0
VERTEX
  5
44D
  8
0
  6
CONTINUOUS
 62
     7
 10
547.3017035154
 20
1874.0866172588
 30
0.0
  0
VERTEX
  5
44E
  8
0
  6
CONTINUOUS
 62
     7
 10
547.8357015279
 20
1874.0466821468
 30
0.0
  0
VERTEX
  5
44F
  8
0
  6
CONTINUOUS
 62
     7
 10
548.0140386251
 20
1874.0064937151
 30
0.0
  0
VERTEX
  5
450
  8
0
  6
CONTINUOUS
 62
     7
 10
548.0140386251
 20
1874.0064937151
 30
0.0
  0
SEQEND
  5
712
  8
0
  6
CONTINUOUS
 62
     7
  0
POLYLINE
  5
9A
  8
0
  6
CONTINUOUS
 62
     7
 66
     1
 10
0.0
 20
0.0
 30
0.0
  0
VERTEX
  5
451
  8
0
  6
CONTINUOUS
 62
     7
 10
424.2309866574
 20
1959.7531694448
 30
0.0
  0
VERTEX
  5
452
  8
0
  6
CONTINUOUS
 62
     7
 10
424.2309866574
 20
1959.7533035553
 30
0.0
  0
VERTEX
  5
453
  8
0
  6
CONTINUOUS
 62
     7
 10
424.4071779874
 20
1959.793953923
 30
0.0
  0
VERTEX
  5
454
  8
0
  6
CONTINUOUS
 62
     7
 10
424.9346790937
 20
1959.8343807733
 30
0.0
  0
VERTEX
  5
455
  8
0
  6
CONTINUOUS
 62
     7
 10
425.810509744
 20
1959.8743605888
 30
0.0
  0
VERTEX
  5
456
  8
0
  6
CONTINUOUS
 62
     7
 10
427.0299015668
 20
1959.9136549509
 30
0.0
  0
VERTEX
  5
457
  8
0
  6
CONTINUOUS
 62
     7
 10
428.5859404233
 20
1959.9520552433
 30
0.0
  0
VERTEX
  5
458
  8
0
  6
CONTINUOUS
 62
     7
 10
430.46998364
 20
1959.9893528497
 30
0.0
  0
VERTEX
  5
459
  8
0
  6
CONTINUOUS
 62
     7
 10
432.6714215902
 20
1960.0253242529
 30
0.0
  0
VERTEX
  5
45A
  8
0
  6
CONTINUOUS
 62
     7
 10
435.1779757169
 20
1960.0597757376
 30
0.0
  0
VERTEX
  5
45B
  8
0
  6
CONTINUOUS
 62
     7
 10
437.9756389287
 20
1960.0924986875
 30
0.0
  0
VERTEX
  5
45C
  8
0
  6
CONTINUOUS
 62
     7
 10
441.048735204
 20
1960.1233440912
 30
0.0
  0
VERTEX
  5
45D
  8
0
  6
CONTINUOUS
 62
     7
 10
444.3800984052
 20
1960.1521182335
 30
0.0
  0
VERTEX
  5
45E
  8
0
  6
CONTINUOUS
 62
     7
 10
447.951131883
 20
1960.1786572016
 30
0.0
  0
VERTEX
  5
45F
  8
0
  6
CONTINUOUS
 62
     7
 10
451.7418084768
 20
1960.2028119839
 30
0.0
  0
VERTEX
  5
460
  8
0
  6
CONTINUOUS
 62
     7
 10
455.7309685376
 20
1960.2244484699
 30
0.0
  0
VERTEX
  5
461
  8
0
  6
CONTINUOUS
 62
     7
 10
459.8963199285
 20
1960.2434623516
 30
0.0
  0
VERTEX
  5
462
  8
0
  6
CONTINUOUS
 62
     7
 10
464.2144976285
 20
1960.2597344196
 30
0.0
  0
VERTEX
  5
463
  8
0
  6
CONTINUOUS
 62
     7
 10
468.6614213613
 20
1960.273175267
 30
0.0
  0
VERTEX
  5
464
  8
0
  6
CONTINUOUS
 62
     7
 10
473.2121763852
 20
1960.283710388
 30
0.0
  0
VERTEX
  5
465
  8
0
  6
CONTINUOUS
 62
     7
 10
477.8413115171
 20
1960.2912652767
 30
0.0
  0
VERTEX
  5
466
  8
0
  6
CONTINUOUS
 62
     7
 10
482.5230179456
 20
1960.295825032
 30
0.0
  0
VERTEX
  5
467
  8
0
  6
CONTINUOUS
 62
     7
 10
487.2310100225
 20
1960.2973449505
 30
0.0
  0
VERTEX
  5
468
  8
0
  6
CONTINUOUS
 62
     7
 10
491.9390020993
 20
1960.295825032
 30
0.0
  0
VERTEX
  5
469
  8
0
  6
CONTINUOUS
 62
     7
 10
496.6206489232
 20
1960.2912652767
 30
0.0
  0
VERTEX
  5
46A
  8
0
  6
CONTINUOUS
 62
     7
 10
501.2498436597
 20
1960.283710388
 30
0.0
  0
VERTEX
  5
46B
  8
0
  6
CONTINUOUS
 62
     7
 10
505.8005986837
 20
1960.273175267
 30
0.0
  0
VERTEX
  5
46C
  8
0
  6
CONTINUOUS
 62
     7
 10
510.2474628118
 20
1960.2597344196
 30
0.0
  0
VERTEX
  5
46D
  8
0
  6
CONTINUOUS
 62
     7
 10
514.5657001165
 20
1960.2434623516
 30
0.0
  0
VERTEX
  5
46E
  8
0
  6
CONTINUOUS
 62
     7
 10
518.7309919027
 20
1960.2244484699
 30
0.0
  0
VERTEX
  5
46F
  8
0
  6
CONTINUOUS
 62
     7
 10
522.7201519635
 20
1960.2028119839
 30
0.0
  0
VERTEX
  5
470
  8
0
  6
CONTINUOUS
 62
     7
 10
526.5108285573
 20
1960.1786572016
 30
0.0
  0
VERTEX
  5
471
  8
0
  6
CONTINUOUS
 62
     7
 10
530.0818620351
 20
1960.1521182335
 30
0.0
  0
VERTEX
  5
472
  8
0
  6
CONTINUOUS
 62
     7
 10
533.4132848409
 20
1960.1233440912
 30
0.0
  0
VERTEX
  5
473
  8
0
  6
CONTINUOUS
 62
     7
 10
536.4863811162
 20
1960.0924986875
 30
0.0
  0
VERTEX
  5
474
  8
0
  6
CONTINUOUS
 62
     7
 10
539.284044328
 20
1960.0597757376
 30
0.0
  0
VERTEX
  5
475
  8
0
  6
CONTINUOUS
 62
     7
 10
541.7905984548
 20
1960.0253242529
 30
0.0
  0
VERTEX
  5
476
  8
0
  6
CONTINUOUS
 62
     7
 10
543.9920364049
 20
1959.9893528497
 30
0.0
  0
VERTEX
  5
477
  8
0
  6
CONTINUOUS
 62
     7
 10
545.876020017
 20
1959.9520552433
 30
0.0
  0
VERTEX
  5
478
  8
0
  6
CONTINUOUS
 62
     7
 10
547.4320588735
 20
1959.9136549509
 30
0.0
  0
VERTEX
  5
479
  8
0
  6
CONTINUOUS
 62
     7
 10
548.6514506963
 20
1959.8743605888
 30
0.0
  0
VERTEX
  5
47A
  8
0
  6
CONTINUOUS
 62
     7
 10
549.5273409513
 20
1959.8343807733
 30
0.0
  0
VERTEX
  5
47B
  8
0
  6
CONTINUOUS
 62
     7
 10
550.0548420575
 20
1959.793953923
 30
0.0
  0
VERTEX
  5
47C
  8
0
  6
CONTINUOUS
 62
     7
 10
550.2309737828
 20
1959.7533035553
 30
0.0
  0
VERTEX
  5
47D
  8
0
  6
CONTINUOUS
 62
     7
 10
550.2309737828
 20
1959.7533035553
 30
0.0
  0
SEQEND
  5
711
  8
0
  6
CONTINUOUS
 62
     7
  0
LINE
  5
9B
  8
0
  6
CONTINUOUS
 62
     7
 10
525.0459848073
 20
1874.3330526626
 30
0.0
 11
449.415975633
 21
1874.3330526626
 31
0.0
  0
LINE
  5
9C
  8
0
  6
CONTINUOUS
 62
     7
 10
528.9710102704
 20
1836.7396804965
 30
0.0
 11
431.7309795049
 21
1836.7396804965
 31
0.0
  0
LINE
  5
9D
  8
0
  6
CONTINUOUS
 62
     7
 10
528.9710102704
 20
1642.7469167388
 30
0.0
 11
528.9710102704
 21
1836.7396804965
 31
0.0
  0
LINE
  5
9E
  8
0
  6
CONTINUOUS
 62
     7
 10
528.9710102704
 20
1642.7469167388
 30
0.0
 11
431.7309795049
 21
1642.7469167388
 31
0.0
  0
LINE
  5
9F
  8
0
  6
CONTINUOUS
 62
     7
 10
431.7309795049
 20
1642.7469167388
 30
0.0
 11
431.7309795049
 21
1836.7396804965
 31
0.0
  0
LINE
  5
A0
  8
0
  6
CONTINUOUS
 62
     7
 10
524.7309742597
 20
1641.9578779018
 30
0.0
 11
431.7309795049
 21
1641.9578779018
 31
0.0
  0
LINE
  5
A1
  8
0
  6
CONTINUOUS
 62
     7
 10
528.9710102704
 20
1642.0939776576
 30
0.0
 11
528.9710102704
 21
1642.7469167388
 31
0.0
  0
LINE
  5
A2
  8
0
  6
CONTINUOUS
 62
     7
 10
528.9710102704
 20
1642.0939776576
 30
0.0
 11
524.7309742597
 21
1642.0939776576
 31
0.0
  0
LINE
  5
A3
  8
0
  6
CONTINUOUS
 62
     7
 10
431.7309795049
 20
1641.9578779018
 30
0.0
 11
431.7309795049
 21
1642.7469167388
 31
0.0
  0
POLYLINE
  5
A4
  8
0
  6
CONTINUOUS
 62
     7
 66
     1
 10
0.0
 20
0.0
 30
0.0
  0
VERTEX
  5
47E
  8
0
  6
CONTINUOUS
 62
     7
 10
532.2310267118
 20
2096.9581741369
 30
0.0
  0
VERTEX
  5
47F
  8
0
  6
CONTINUOUS
 62
     7
 10
532.0548949865
 20
2096.9925362146
 30
0.0
  0
VERTEX
  5
480
  8
0
  6
CONTINUOUS
 62
     7
 10
531.5279899266
 20
2097.0266002691
 30
0.0
  0
VERTEX
  5
481
  8
0
  6
CONTINUOUS
 62
     7
 10
530.6544242528
 20
2097.0601576841
 30
0.0
  0
VERTEX
  5
482
  8
0
  6
CONTINUOUS
 62
     7
 10
529.4409928945
 20
2097.0928806341
 30
0.0
  0
VERTEX
  5
483
  8
0
  6
CONTINUOUS
 62
     7
 10
527.8972325948
 20
2097.1245605028
 30
0.0
  0
VERTEX
  5
484
  8
0
  6
CONTINUOUS
 62
     7
 10
526.0351238874
 20
2097.1549588716
 30
0.0
  0
VERTEX
  5
485
  8
0
  6
CONTINUOUS
 62
     7
 10
523.8693891195
 20
2097.1838075197
 30
0.0
  0
VERTEX
  5
486
  8
0
  6
CONTINUOUS
 62
     7
 10
521.4168964055
 20
2097.2108978308
 30
0.0
  0
VERTEX
  5
487
  8
0
  6
CONTINUOUS
 62
     7
 10
518.6968980458
 20
2097.2359913862
 30
0.0
  0
VERTEX
  5
488
  8
0
  6
CONTINUOUS
 62
     7
 10
515.7305536893
 20
2097.2589093721
 30
0.0
  0
VERTEX
  5
489
  8
0
  6
CONTINUOUS
 62
     7
 10
512.5412283567
 20
2097.2795027769
 30
0.0
  0
VERTEX
  5
48A
  8
0
  6
CONTINUOUS
 62
     7
 10
509.1537771848
 20
2097.2975629843
 30
0.0
  0
VERTEX
  5
48B
  8
0
  6
CONTINUOUS
 62
     7
 10
505.5947838453
 20
2097.3129409826
 30
0.0
  0
VERTEX
  5
48C
  8
0
  6
CONTINUOUS
 62
     7
 10
501.8920241025
 20
2097.3255771673
 30
0.0
  0
VERTEX
  5
48D
  8
0
  6
CONTINUOUS
 62
     7
 10
498.0745254186
 20
2097.3353225267
 30
0.0
  0
VERTEX
  5
48E
  8
0
  6
CONTINUOUS
 62
     7
 10
494.1722093251
 20
2097.3421472585
 30
0.0
  0
VERTEX
  5
48F
  8
0
  6
CONTINUOUS
 62
     7
 10
490.2155337957
 20
2097.3459321535
 30
0.0
  0
VERTEX
  5
490
  8
0
  6
CONTINUOUS
 62
     7
 10
486.2354932454
 20
2097.3466772116
 30
0.0
  0
VERTEX
  5
491
  8
0
  6
CONTINUOUS
 62
     7
 10
482.2632609037
 20
2097.344412235
 30
0.0
  0
VERTEX
  5
492
  8
0
  6
CONTINUOUS
 62
     7
 10
478.3298907903
 20
2097.3391074217
 30
0.0
  0
VERTEX
  5
493
  8
0
  6
CONTINUOUS
 62
     7
 10
474.4661985067
 20
2097.330822376
 30
0.0
  0
VERTEX
  5
494
  8
0
  6
CONTINUOUS
 62
     7
 10
470.7024036077
 20
2097.3196167028
 30
0.0
  0
VERTEX
  5
495
  8
0
  6
CONTINUOUS
 62
     7
 10
467.0680103925
 20
2097.305579809
 30
0.0
  0
VERTEX
  5
496
  8
0
  6
CONTINUOUS
 62
     7
 10
463.591390672
 20
2097.2888309038
 30
0.0
  0
VERTEX
  5
497
  8
0
  6
CONTINUOUS
 62
     7
 10
460.2997241643
 20
2097.2695189989
 30
0.0
  0
VERTEX
  5
498
  8
0
  6
CONTINUOUS
 62
     7
 10
457.2188792852
 20
2097.2477335012
 30
0.0
  0
VERTEX
  5
499
  8
0
  6
CONTINUOUS
 62
     7
 10
454.3729363111
 20
2097.2236830271
 30
0.0
  0
VERTEX
  5
49A
  8
0
  6
CONTINUOUS
 62
     7
 10
451.7841277745
 20
2097.1975761926
 30
0.0
  0
VERTEX
  5
49B
  8
0
  6
CONTINUOUS
 62
     7
 10
449.4727788594
 20
2097.1695918119
 30
0.0
  0
VERTEX
  5
49C
  8
0
  6
CONTINUOUS
 62
     7
 10
447.4568901685
 20
2097.1399385011
 30
0.0
  0
VERTEX
  5
49D
  8
0
  6
CONTINUOUS
 62
     7
 10
445.7523165372
 20
2097.1088844812
 30
0.0
  0
VERTEX
  5
49E
  8
0
  6
CONTINUOUS
 62
     7
 10
444.3723498014
 20
2097.0766383684
 30
0.0
  0
VERTEX
  5
49F
  8
0
  6
CONTINUOUS
 62
     7
 10
443.3278380063
 20
2097.0434683836
 30
0.0
  0
VERTEX
  5
4A0
  8
0
  6
CONTINUOUS
 62
     7
 10
442.6268873838
 20
2097.0096129453
 30
0.0
  0
VERTEX
  5
4A1
  8
0
  6
CONTINUOUS
 62
     7
 10
442.2750411657
 20
2096.9753700769
 30
0.0
  0
VERTEX
  5
4A2
  8
0
  6
CONTINUOUS
 62
     7
 10
442.2750411657
 20
2096.9409781969
 30
0.0
  0
VERTEX
  5
4A3
  8
0
  6
CONTINUOUS
 62
     7
 10
442.6268873838
 20
2096.9067353285
 30
0.0
  0
VERTEX
  5
4A4
  8
0
  6
CONTINUOUS
 62
     7
 10
443.3278380063
 20
2096.8729096926
 30
0.0
  0
VERTEX
  5
4A5
  8
0
  6
CONTINUOUS
 62
     7
 10
444.3723498014
 20
2096.8397397077
 30
0.0
  0
VERTEX
  5
4A6
  8
0
  6
CONTINUOUS
 62
     7
 10
445.7523165372
 20
2096.8074935949
 30
0.0
  0
VERTEX
  5
4A7
  8
0
  6
CONTINUOUS
 62
     7
 10
447.4568901685
 20
2096.7764097727
 30
0.0
  0
VERTEX
  5
4A8
  8
0
  6
CONTINUOUS
 62
     7
 10
449.4727788594
 20
2096.7467862642
 30
0.0
  0
VERTEX
  5
4A9
  8
0
  6
CONTINUOUS
 62
     7
 10
451.7841277745
 20
2096.7187720812
 30
0.0
  0
VERTEX
  5
4AA
  8
0
  6
CONTINUOUS
 62
     7
 10
454.3729363111
 20
2096.6926652468
 30
0.0
  0
VERTEX
  5
4AB
  8
0
  6
CONTINUOUS
 62
     7
 10
457.2188792852
 20
2096.6686147726
 30
0.0
  0
VERTEX
  5
4AC
  8
0
  6
CONTINUOUS
 62
     7
 10
460.2997241643
 20
2096.6468590772
 30
0.0
  0
VERTEX
  5
4AD
  8
0
  6
CONTINUOUS
 62
     7
 10
463.591390672
 20
2096.62751737
 30
0.0
  0
VERTEX
  5
4AE
  8
0
  6
CONTINUOUS
 62
     7
 10
467.0680103925
 20
2096.6107684648
 30
0.0
  0
VERTEX
  5
4AF
  8
0
  6
CONTINUOUS
 62
     7
 10
470.7024036077
 20
2096.596731571
 30
0.0
  0
VERTEX
  5
4B0
  8
0
  6
CONTINUOUS
 62
     7
 10
474.4661985067
 20
2096.5855258978
 30
0.0
  0
VERTEX
  5
4B1
  8
0
  6
CONTINUOUS
 62
     7
 10
477.2310195592
 20
2096.5792972124
 30
0.0
  0
SEQEND
  5
710
  8
0
  6
CONTINUOUS
 62
     7
  0
POLYLINE
  5
A5
  8
0
  6
CONTINUOUS
 62
     7
 66
     1
 10
0.0
 20
0.0
 30
0.0
  0
VERTEX
  5
4B2
  8
0
  6
CONTINUOUS
 62
     7
 10
497.2310004857
 20
2096.5792972124
 30
0.0
  0
VERTEX
  5
4B3
  8
0
  6
CONTINUOUS
 62
     7
 10
498.0745254186
 20
2096.5810257471
 30
0.0
  0
VERTEX
  5
4B4
  8
0
  6
CONTINUOUS
 62
     7
 10
501.8920241025
 20
2096.5907711065
 30
0.0
  0
VERTEX
  5
4B5
  8
0
  6
CONTINUOUS
 62
     7
 10
505.5947838453
 20
2096.6034072912
 30
0.0
  0
VERTEX
  5
4B6
  8
0
  6
CONTINUOUS
 62
     7
 10
509.1537771848
 20
2096.6188150919
 30
0.0
  0
VERTEX
  5
4B7
  8
0
  6
CONTINUOUS
 62
     7
 10
512.5412283567
 20
2096.6368752992
 30
0.0
  0
VERTEX
  5
4B8
  8
0
  6
CONTINUOUS
 62
     7
 10
515.7305536893
 20
2096.6574389017
 30
0.0
  0
VERTEX
  5
4B9
  8
0
  6
CONTINUOUS
 62
     7
 10
518.6968980458
 20
2096.6803866899
 30
0.0
  0
VERTEX
  5
4BA
  8
0
  6
CONTINUOUS
 62
     7
 10
521.4168964055
 20
2096.7054802454
 30
0.0
  0
VERTEX
  5
4BB
  8
0
  6
CONTINUOUS
 62
     7
 10
523.8693891195
 20
2096.7325705564
 30
0.0
  0
VERTEX
  5
4BC
  8
0
  6
CONTINUOUS
 62
     7
 10
526.0351238874
 20
2096.7613894022
 30
0.0
  0
VERTEX
  5
4BD
  8
0
  6
CONTINUOUS
 62
     7
 10
527.8972325948
 20
2096.791787771
 30
0.0
  0
VERTEX
  5
4BE
  8
0
  6
CONTINUOUS
 62
     7
 10
529.4409928945
 20
2096.8234676397
 30
0.0
  0
VERTEX
  5
4BF
  8
0
  6
CONTINUOUS
 62
     7
 10
530.6544242528
 20
2096.856220392
 30
0.0
  0
VERTEX
  5
4C0
  8
0
  6
CONTINUOUS
 62
     7
 10
531.5279899266
 20
2096.8897480047
 30
0.0
  0
VERTEX
  5
4C1
  8
0
  6
CONTINUOUS
 62
     7
 10
532.0548949865
 20
2096.9238418615
 30
0.0
  0
VERTEX
  5
4C2
  8
0
  6
CONTINUOUS
 62
     7
 10
532.2310267118
 20
2096.9581741369
 30
0.0
  0
SEQEND
  5
70F
  8
0
  6
CONTINUOUS
 62
     7
  0
POLYLINE
  5
A6
  8
0
  6
CONTINUOUS
 62
     7
 66
     1
 10
0.0
 20
0.0
 30
0.0
  0
VERTEX
  5
4C3
  8
0
  6
CONTINUOUS
 62
     7
 10
442.2309933332
 20
2170.2954608476
 30
0.0
  0
VERTEX
  5
4C4
  8
0
  6
CONTINUOUS
 62
     7
 10
442.4070654538
 20
2170.329793123
 30
0.0
  0
VERTEX
  5
4C5
  8
0
  6
CONTINUOUS
 62
     7
 10
442.9339705136
 20
2170.3638571775
 30
0.0
  0
VERTEX
  5
4C6
  8
0
  6
CONTINUOUS
 62
     7
 10
443.8075957921
 20
2170.3974145925
 30
0.0
  0
VERTEX
  5
4C7
  8
0
  6
CONTINUOUS
 62
     7
 10
445.0210271505
 20
2170.4301375425
 30
0.0
  0
VERTEX
  5
4C8
  8
0
  6
CONTINUOUS
 62
     7
 10
446.5647874501
 20
2170.4618472135
 30
0.0
  0
VERTEX
  5
4C9
  8
0
  6
CONTINUOUS
 62
     7
 10
448.4268365529
 20
2170.49221578
 30
0.0
  0
VERTEX
  5
4CA
  8
0
  6
CONTINUOUS
 62
     7
 10
450.5925713208
 20
2170.5210644281
 30
0.0
  0
VERTEX
  5
4CB
  8
0
  6
CONTINUOUS
 62
     7
 10
453.0450640348
 20
2170.5481547392
 30
0.0
  0
VERTEX
  5
4CC
  8
0
  6
CONTINUOUS
 62
     7
 10
455.7651219991
 20
2170.5732482946
 30
0.0
  0
VERTEX
  5
4CD
  8
0
  6
CONTINUOUS
 62
     7
 10
458.731406751
 20
2170.5961960829
 30
0.0
  0
VERTEX
  5
4CE
  8
0
  6
CONTINUOUS
 62
     7
 10
461.9207916883
 20
2170.6167596853
 30
0.0
  0
VERTEX
  5
4CF
  8
0
  6
CONTINUOUS
 62
     7
 10
465.3082428601
 20
2170.6348198927
 30
0.0
  0
VERTEX
  5
4D0
  8
0
  6
CONTINUOUS
 62
     7
 10
468.8672361997
 20
2170.6502276933
 30
0.0
  0
VERTEX
  5
4D1
  8
0
  6
CONTINUOUS
 62
     7
 10
472.5699959424
 20
2170.6628340757
 30
0.0
  0
VERTEX
  5
4D2
  8
0
  6
CONTINUOUS
 62
     7
 10
476.3874350217
 20
2170.6726092375
 30
0.0
  0
VERTEX
  5
4D3
  8
0
  6
CONTINUOUS
 62
     7
 10
479.23099381
 20
2170.6778544462
 30
0.0
  0
SEQEND
  5
70E
  8
0
  6
CONTINUOUS
 62
     7
  0
POLYLINE
  5
A7
  8
0
  6
CONTINUOUS
 62
     7
 66
     1
 10
0.0
 20
0.0
 30
0.0
  0
VERTEX
  5
4D4
  8
0
  6
CONTINUOUS
 62
     7
 10
495.2310262349
 20
2170.6778544462
 30
0.0
  0
VERTEX
  5
4D5
  8
0
  6
CONTINUOUS
 62
     7
 10
496.13206965
 20
2170.6763643301
 30
0.0
  0
VERTEX
  5
4D6
  8
0
  6
CONTINUOUS
 62
     7
 10
499.9957619336
 20
2170.6680792845
 30
0.0
  0
VERTEX
  5
4D7
  8
0
  6
CONTINUOUS
 62
     7
 10
503.7595568326
 20
2170.6568736112
 30
0.0
  0
VERTEX
  5
4D8
  8
0
  6
CONTINUOUS
 62
     7
 10
507.3940096524
 20
2170.6428665197
 30
0.0
  0
VERTEX
  5
4D9
  8
0
  6
CONTINUOUS
 62
     7
 10
510.8706293729
 20
2170.6261176145
 30
0.0
  0
VERTEX
  5
4DA
  8
0
  6
CONTINUOUS
 62
     7
 10
514.162236276
 20
2170.6067759073
 30
0.0
  0
VERTEX
  5
4DB
  8
0
  6
CONTINUOUS
 62
     7
 10
517.2430811551
 20
2170.5849904096
 30
0.0
  0
VERTEX
  5
4DC
  8
0
  6
CONTINUOUS
 62
     7
 10
520.0890837339
 20
2170.5609697378
 30
0.0
  0
VERTEX
  5
4DD
  8
0
  6
CONTINUOUS
 62
     7
 10
522.6778326657
 20
2170.5348331011
 30
0.0
  0
VERTEX
  5
4DE
  8
0
  6
CONTINUOUS
 62
     7
 10
524.9892411855
 20
2170.5068487203
 30
0.0
  0
VERTEX
  5
4DF
  8
0
  6
CONTINUOUS
 62
     7
 10
527.0051298764
 20
2170.4772252119
 30
0.0
  0
VERTEX
  5
4E0
  8
0
  6
CONTINUOUS
 62
     7
 10
528.7097035077
 20
2170.4461413896
 30
0.0
  0
VERTEX
  5
4E1
  8
0
  6
CONTINUOUS
 62
     7
 10
530.0896702436
 20
2170.4138952768
 30
0.0
  0
VERTEX
  5
4E2
  8
0
  6
CONTINUOUS
 62
     7
 10
531.1341820386
 20
2170.380725292
 30
0.0
  0
VERTEX
  5
4E3
  8
0
  6
CONTINUOUS
 62
     7
 10
531.8351326612
 20
2170.3468698538
 30
0.0
  0
VERTEX
  5
4E4
  8
0
  6
CONTINUOUS
 62
     7
 10
532.1869788793
 20
2170.3126269853
 30
0.0
  0
VERTEX
  5
4E5
  8
0
  6
CONTINUOUS
 62
     7
 10
532.2310267118
 20
2170.2954608476
 30
0.0
  0
SEQEND
  5
70D
  8
0
  6
CONTINUOUS
 62
     7
  0
POLYLINE
  5
A8
  8
0
  6
CONTINUOUS
 62
     7
 66
     1
 10
0.0
 20
0.0
 30
0.0
  0
VERTEX
  5
4E6
  8
0
  6
CONTINUOUS
 62
     7
 10
442.2309933332
 20
2163.6361319101
 30
0.0
  0
VERTEX
  5
4E7
  8
0
  6
CONTINUOUS
 62
     7
 10
442.2988830236
 20
2163.2296282327
 30
0.0
  0
VERTEX
  5
4E8
  8
0
  6
CONTINUOUS
 62
     7
 10
442.4729285863
 20
2162.0442110575
 30
0.0
  0
VERTEX
  5
4E9
  8
0
  6
CONTINUOUS
 62
     7
 10
442.6954923299
 20
2160.1502734697
 30
0.0
  0
VERTEX
  5
4EA
  8
0
  6
CONTINUOUS
 62
     7
 10
442.8875981
 20
2157.5768429315
 30
0.0
  0
VERTEX
  5
4EB
  8
0
  6
CONTINUOUS
 62
     7
 10
442.9447589544
 20
2154.61133304
 30
0.0
  0
VERTEX
  5
4EC
  8
0
  6
CONTINUOUS
 62
     7
 10
442.8266821531
 20
2151.7666715658
 30
0.0
  0
VERTEX
  5
4ED
  8
0
  6
CONTINUOUS
 62
     7
 10
442.6014362004
 20
2149.4508523023
 30
0.0
  0
VERTEX
  5
4EE
  8
0
  6
CONTINUOUS
 62
     7
 10
442.3759518293
 20
2147.8412288702
 30
0.0
  0
VERTEX
  5
4EF
  8
0
  6
CONTINUOUS
 62
     7
 10
442.2436295179
 20
2147.0357018984
 30
0.0
  0
VERTEX
  5
4F0
  8
0
  6
CONTINUOUS
 62
     7
 10
442.2499476102
 20
2147.0622855699
 30
0.0
  0
SEQEND
  5
70C
  8
0
  6
CONTINUOUS
 62
     7
  0
ARC
  5
A9
  8
0
  6
CONTINUOUS
 62
     7
 10
580.1968994798
 20
2155.2941703274
 30
0.0
 40
48.6858631786433
 50
170.1341111231
 51
189.7344269733
  0
ARC
  5
AA
  8
0
  6
CONTINUOUS
 62
     7
 10
490.0749857779
 20
1847.3673345463
 30
0.0
 40
249.6934035053038
 50
88.3577235811
 51
90.6526056713
  0
ARC
  5
AB
  8
0
  6
CONTINUOUS
 62
     7
 10
484.6107473816
 20
1821.4647833621
 30
0.0
 40
275.5922145912679
 50
89.4552376861
 51
91.5344330615
  0
LINE
  5
AC
  8
0
  6
CONTINUOUS
 62
     7
 10
449.415975633
 20
1874.3330526626
 30
0.0
 11
449.415975633
 21
1836.7396804965
 31
0.0
  0
LINE
  5
AD
  8
0
  6
CONTINUOUS
 62
     7
 10
525.0459848073
 20
1874.3330526626
 30
0.0
 11
525.0459848073
 21
1836.7396804965
 31
0.0
  0
LINE
  5
AE
  8
0
  6
CONTINUOUS
 62
     7
 10
1902.7309952405
 20
1888.1888824976
 30
0.0
 11
1902.7309952405
 21
1588.1888854778
 31
0.0
  0
LINE
  5
AF
  8
0
  6
CONTINUOUS
 62
     7
 10
542.7309809354
 20
1738.1888853847
 30
0.0
 11
542.7309809354
 21
1873.7924534357
 31
0.0
  0
LINE
  5
B0
  8
0
  6
CONTINUOUS
 62
     7
 10
542.7309809354
 20
1588.1888854778
 30
0.0
 11
542.7309809354
 21
1738.1888853847
 31
0.0
  0
LINE
  5
B1
  8
0
  6
CONTINUOUS
 62
     7
 10
577.7310071614
 20
1588.1888854778
 30
0.0
 11
577.7310071614
 21
1728.1888851425
 31
0.0
  0
LINE
  5
B2
  8
0
  6
CONTINUOUS
 62
     7
 10
577.7310071614
 20
1748.1888856268
 30
0.0
 11
577.7310071614
 21
1888.1888824976
 31
0.0
  0
LINE
  5
B3
  8
0
  6
CONTINUOUS
 62
     7
 10
655.2749214795
 20
1728.1888851425
 30
0.0
 11
577.7310071614
 21
1728.1888851425
 31
0.0
  0
LINE
  5
B4
  8
0
  6
CONTINUOUS
 62
     7
 10
655.382567468
 20
1748.1888856268
 30
0.0
 11
577.7310071614
 21
1748.1888856268
 31
0.0
  0
LINE
  5
B5
  8
0
  6
CONTINUOUS
 62
     7
 10
1847.730988088
 20
1748.1888856268
 30
0.0
 11
1847.730988088
 21
1888.1888824976
 31
0.0
  0
LINE
  5
B6
  8
0
  6
CONTINUOUS
 62
     7
 10
1847.730988088
 20
1588.1888854778
 30
0.0
 11
1847.730988088
 21
1728.1888851425
 31
0.0
  0
LINE
  5
B7
  8
0
  6
CONTINUOUS
 62
     7
 10
1770.1870737699
 20
1728.1888851425
 30
0.0
 11
1847.730988088
 21
1728.1888851425
 31
0.0
  0
LINE
  5
B8
  8
0
  6
CONTINUOUS
 62
     7
 10
1770.0794277814
 20
1748.1888856268
 30
0.0
 11
1847.730988088
 21
1748.1888856268
 31
0.0
  0
POLYLINE
  5
B9
  8
0
  6
CONTINUOUS
 62
     7
 66
     1
 10
0.0
 20
0.0
 30
0.0
  0
VERTEX
  5
4F1
  8
0
  6
CONTINUOUS
 62
     7
 10
507.731014314
 20
1975.8027035272
 30
0.0
  0
VERTEX
  5
4F2
  8
0
  6
CONTINUOUS
 62
     7
 10
507.5555978444
 20
1975.8258003271
 30
0.0
  0
VERTEX
  5
4F3
  8
0
  6
CONTINUOUS
 62
     7
 10
507.0324478772
 20
1975.8485245979
 30
0.0
  0
VERTEX
  5
4F4
  8
0
  6
CONTINUOUS
 62
     7
 10
506.1705051091
 20
1975.870444206
 30
0.0
  0
VERTEX
  5
4F5
  8
0
  6
CONTINUOUS
 62
     7
 10
504.9844918874
 20
1975.8912164247
 30
0.0
  0
VERTEX
  5
4F6
  8
0
  6
CONTINUOUS
 62
     7
 10
503.4947333959
 20
1975.910468725
 30
0.0
  0
VERTEX
  5
4F7
  8
0
  6
CONTINUOUS
 62
     7
 10
501.7266808179
 20
1975.9278732813
 30
0.0
  0
VERTEX
  5
4F8
  8
0
  6
CONTINUOUS
 62
     7
 10
499.710613313
 20
1975.9431469715
 30
0.0
  0
VERTEX
  5
4F9
  8
0
  6
CONTINUOUS
 62
     7
 10
497.4809823659
 20
1975.9560066736
 30
0.0
  0
VERTEX
  5
4FA
  8
0
  6
CONTINUOUS
 62
     7
 10
495.0759945539
 20
1975.9662586725
 30
0.0
  0
VERTEX
  5
4FB
  8
0
  6
CONTINUOUS
 62
     7
 10
492.5367770818
 20
1975.9736943519
 30
0.0
  0
VERTEX
  5
4FC
  8
0
  6
CONTINUOUS
 62
     7
 10
489.9067817357
 20
1975.9782094038
 30
0.0
  0
VERTEX
  5
4FD
  8
0
  6
CONTINUOUS
 62
     7
 10
487.2310100225
 20
1975.9797293222
 30
0.0
  0
VERTEX
  5
4FE
  8
0
  6
CONTINUOUS
 62
     7
 10
484.5552383092
 20
1975.9782094038
 30
0.0
  0
VERTEX
  5
4FF
  8
0
  6
CONTINUOUS
 62
     7
 10
481.9251833585
 20
1975.9736943519
 30
0.0
  0
VERTEX
  5
500
  8
0
  6
CONTINUOUS
 62
     7
 10
479.3859658864
 20
1975.9662586725
 30
0.0
  0
VERTEX
  5
501
  8
0
  6
CONTINUOUS
 62
     7
 10
476.9809780744
 20
1975.9560066736
 30
0.0
  0
VERTEX
  5
502
  8
0
  6
CONTINUOUS
 62
     7
 10
474.7514067319
 20
1975.9431469715
 30
0.0
  0
VERTEX
  5
503
  8
0
  6
CONTINUOUS
 62
     7
 10
472.7352796224
 20
1975.9278732813
 30
0.0
  0
VERTEX
  5
504
  8
0
  6
CONTINUOUS
 62
     7
 10
470.9672270444
 20
1975.910468725
 30
0.0
  0
VERTEX
  5
505
  8
0
  6
CONTINUOUS
 62
     7
 10
469.4774685529
 20
1975.8912164247
 30
0.0
  0
VERTEX
  5
506
  8
0
  6
CONTINUOUS
 62
     7
 10
468.2914553312
 20
1975.870444206
 30
0.0
  0
VERTEX
  5
507
  8
0
  6
CONTINUOUS
 62
     7
 10
467.4295125631
 20
1975.8485245979
 30
0.0
  0
VERTEX
  5
508
  8
0
  6
CONTINUOUS
 62
     7
 10
466.9063625959
 20
1975.8258003271
 30
0.0
  0
VERTEX
  5
509
  8
0
  6
CONTINUOUS
 62
     7
 10
466.7310057309
 20
1975.8027035272
 30
0.0
  0
VERTEX
  5
50A
  8
0
  6
CONTINUOUS
 62
     7
 10
466.7310057309
 20
1975.8027035272
 30
0.0
  0
SEQEND
  5
70B
  8
0
  6
CONTINUOUS
 62
     7
  0
LINE
  5
BA
  8
0
  6
CONTINUOUS
 62
     7
 10
524.7309742597
 20
1595.6888783253
 30
0.0
 11
524.7309742597
 21
1642.0939776576
 31
0.0
  0
LINE
  5
BB
  8
0
  6
CONTINUOUS
 62
     7
 10
431.7309795049
 20
1613.1888839877
 30
0.0
 11
431.7309795049
 21
1641.9578779018
 31
0.0
  0
LINE
  5
BC
  8
0
  6
CONTINUOUS
 62
     7
 10
431.7309795049
 20
1836.7396804965
 30
0.0
 11
431.7309795049
 21
1863.1888914383
 31
0.0
  0
LINE
  5
BD
  8
0
  6
CONTINUOUS
 62
     7
 10
661.350005689
 20
1817.561424104
 30
0.0
 11
577.7310071614
 21
1817.561424104
 31
0.0
  0
LINE
  5
BE
  8
0
  6
CONTINUOUS
 62
     7
 10
660.4869304326
 20
1658.8163438714
 30
0.0
 11
577.7310071614
 21
1658.8163438714
 31
0.0
  0
LINE
  5
BF
  8
0
  6
CONTINUOUS
 62
     7
 10
1764.1119895604
 20
1817.561424104
 30
0.0
 11
1847.730988088
 21
1817.561424104
 31
0.0
  0
LINE
  5
C0
  8
0
  6
CONTINUOUS
 62
     7
 10
1764.9750648168
 20
1658.8163438714
 30
0.0
 11
1847.730988088
 21
1658.8163438714
 31
0.0
  0
LINE
  5
C1
  8
0
  6
CONTINUOUS
 62
     7
 10
428.7310181287
 20
1673.1888863719
 30
0.0
 11
428.7310181287
 21
1803.1888890541
 31
0.0
  0
LINE
  5
C2
  8
0
  6
CONTINUOUS
 62
     7
 10
421.7309890416
 20
1680.1888856566
 30
0.0
 11
421.7309890416
 21
1796.1888860441
 31
0.0
  0
LINE
  5
C3
  8
0
  6
CONTINUOUS
 62
     7
 10
1751.843446317
 20
1593.1888807094
 30
0.0
 11
1847.730988088
 21
1593.1888807094
 31
0.0
  0
LINE
  5
C4
  8
0
  6
CONTINUOUS
 62
     7
 10
673.6185489324
 20
1593.1888807094
 30
0.0
 11
577.7310071614
 21
1593.1888807094
 31
0.0
  0
LINE
  5
C5
  8
0
  6
CONTINUOUS
 62
     7
 10
1750.2272663739
 20
1883.1888872659
 30
0.0
 11
1847.730988088
 21
1883.1888872659
 31
0.0
  0
LINE
  5
C6
  8
0
  6
CONTINUOUS
 62
     7
 10
675.2347288755
 20
1883.1888872659
 30
0.0
 11
577.7310071614
 21
1883.1888872659
 31
0.0
  0
LINE
  5
C7
  8
0
  6
CONTINUOUS
 62
     7
 10
1882.731014314
 20
1738.1888853847
 30
0.0
 11
1882.731014314
 21
1888.1888824976
 31
0.0
  0
LINE
  5
C8
  8
0
  6
CONTINUOUS
 62
     7
 10
1882.731014314
 20
1588.1888854778
 30
0.0
 11
1882.731014314
 21
1738.1888853847
 31
0.0
  0
INSERT
  5
D4
  8
FORMAT
  2
SW_CENTERMARKSYMBOL_0
 10
1212.7309976247
 20
1735.1888853586
 30
0.0
  0
CIRCLE
  5
D5
  8
0
  6
CONTINUOUS
 62
     7
 10
487.2224292738
 20
583.6893302857
 30
0.0
 40
349.9914431011339
  0
ARC
  5
D6
  8
0
  6
CONTINUOUS
 62
     7
 10
487.1095134446
 20
583.5866342769
 30
0.0
 40
324.8430931872701
 50
181.286184919
 51
268.716977615
  0
ARC
  5
D7
  8
0
  6
CONTINUOUS
 62
     7
 10
487.2697783725
 20
583.6771394769
 30
0.0
 40
324.9581139068823
 50
271.2987981793
 51
358.6950867511
  0
ARC
  5
D8
  8
0
  6
CONTINUOUS
 62
     7
 10
487.3622005403
 20
583.8117415216
 30
0.0
 40
324.826678336928
 50
1.2870329954
 51
88.7040896407
  0
ARC
  5
D9
  8
0
  6
CONTINUOUS
 62
     7
 10
487.1567174335
 20
583.7614631845
 30
0.0
 40
324.8978277703694
 50
91.2990918108
 51
178.7109565389
  0
LINE
  5
DA
  8
0
  6
CONTINUOUS
 62
     7
 10
479.23099381
 20
538.6577635006
 30
0.0
 11
479.23099381
 21
258.8413148121
 31
0.0
  0
LINE
  5
DB
  8
0
  6
CONTINUOUS
 62
     7
 10
495.2310262349
 20
258.8235824303
 30
0.0
 11
495.2310262349
 21
538.6531590418
 31
0.0
  0
LINE
  5
DC
  8
0
  6
CONTINUOUS
 62
     7
 10
531.5200625089
 20
574.9515085415
 30
0.0
 11
812.125468078
 21
575.665944715
 31
0.0
  0
LINE
  5
DD
  8
0
  6
CONTINUOUS
 62
     7
 10
812.0938776162
 20
591.6659175353
 30
0.0
 11
531.5376458791
 21
590.9516154723
 31
0.0
  0
LINE
  5
DE
  8
0
  6
CONTINUOUS
 62
     7
 10
442.9243741658
 20
590.9516154723
 30
0.0
 11
162.3600659993
 21
591.6659324364
 31
0.0
  0
LINE
  5
DF
  8
0
  6
CONTINUOUS
 62
     7
 10
162.35827786
 20
575.6658851103
 30
0.0
 11
442.9380236295
 21
574.9515234427
 31
0.0
  0
LINE
  5
E0
  8
0
  6
CONTINUOUS
 62
     7
 10
655.2309928563
 20
959.3560784058
 30
0.0
 11
655.2309928563
 21
890.6838684277
 31
0.0
  0
LINE
  5
E1
  8
0
  6
CONTINUOUS
 62
     7
 10
655.2309928563
 20
861.8529974417
 30
0.0
 11
655.2309928563
 21
859.3560843663
 31
0.0
  0
LINE
  5
E2
  8
0
  6
CONTINUOUS
 62
     7
 10
1770.2310023931
 20
859.3560843663
 30
0.0
 11
1770.2310023931
 21
959.3560784058
 31
0.0
  0
LINE
  5
E3
  8
0
  6
CONTINUOUS
 62
     7
 10
655.2309928563
 20
559.3560724453
 30
0.0
 11
655.2309928563
 21
459.3560784058
 31
0.0
  0
LINE
  5
E4
  8
0
  6
CONTINUOUS
 62
     7
 10
1770.2310023931
 20
459.3560784058
 30
0.0
 11
1770.2310023931
 21
559.3560724453
 31
0.0
  0
LINE
  5
E5
  8
0
  6
CONTINUOUS
 62
     7
 10
495.2310262349
 20
627.3644133405
 30
0.0
 11
495.2310262349
 21
908.5450260834
 31
0.0
  0
LINE
  5
E6
  8
0
  6
CONTINUOUS
 62
     7
 10
479.23099381
 20
908.5693745808
 30
0.0
 11
479.23099381
 21
627.3644133405
 31
0.0
  0
ARC
  5
E7
  8
0
  6
CONTINUOUS
 62
     7
 10
710.2309976247
 20
961.3560784058
 30
0.0
 40
2.0
 50
270.0
 51
0.0
  0
ARC
  5
E8
  8
0
  6
CONTINUOUS
 62
     7
 10
1715.2309976247
 20
961.3560784058
 30
0.0
 40
2.0
 50
180.0
 51
270.0
  0
ARC
  5
E9
  8
0
  6
CONTINUOUS
 62
     7
 10
1715.2309976247
 20
457.3560784058
 30
0.0
 40
2.0
 50
90.0
 51
180.0
  0
ARC
  5
EA
  8
0
  6
CONTINUOUS
 62
     7
 10
710.2309976247
 20
457.3560784058
 30
0.0
 40
2.0
 50
0.0
 51
90.0
  0
LINE
  5
EB
  8
0
  6
CONTINUOUS
 62
     7
 10
712.2309742597
 20
964.3560736374
 30
0.0
 11
712.2309742597
 21
961.3560824589
 31
0.0
  0
LINE
  5
EC
  8
0
  6
CONTINUOUS
 62
     7
 10
1713.2310209897
 20
961.3560824589
 30
0.0
 11
1713.2310209897
 21
964.3560736374
 31
0.0
  0
LINE
  5
ED
  8
0
  6
CONTINUOUS
 62
     7
 10
1713.2310209897
 20
454.3560831742
 30
0.0
 11
1713.2310209897
 21
457.3560743527
 31
0.0
  0
LINE
  5
EE
  8
0
  6
CONTINUOUS
 62
     7
 10
712.2309742597
 20
457.3560743527
 30
0.0
 11
712.2309742597
 21
454.3560831742
 31
0.0
  0
LINE
  5
EF
  8
0
  6
CONTINUOUS
 62
     7
 10
1283.9037938145
 20
739.1186742978
 30
0.0
 11
1283.5299981859
 21
739.1186742978
 31
0.0
  0
LINE
  5
F0
  8
0
  6
CONTINUOUS
 62
     7
 10
532.2310267118
 20
583.0253749089
 30
0.0
 11
532.2310267118
 21
583.0828933911
 31
0.0
  0
LINE
  5
F1
  8
0
  6
CONTINUOUS
 62
     7
 10
532.2310267118
 20
582.4495493369
 30
0.0
 11
532.2310267118
 21
582.8822492556
 31
0.0
  0
LINE
  5
F2
  8
0
  6
CONTINUOUS
 62
     7
 10
442.2309933332
 20
582.8822492556
 30
0.0
 11
442.2309933332
 21
582.4495493369
 31
0.0
  0
LINE
  5
F3
  8
0
  6
CONTINUOUS
 62
     7
 10
442.2309933332
 20
583.0828933911
 30
0.0
 11
442.2309933332
 21
583.0253749089
 31
0.0
  0
LINE
  5
F4
  8
0
  6
CONTINUOUS
 62
     7
 10
546.2985573438
 20
559.3560724453
 30
0.0
 11
655.239277902
 21
559.3560724453
 31
0.0
  0
LINE
  5
F5
  8
0
  6
CONTINUOUS
 62
     7
 10
655.239277902
 20
859.3560843663
 30
0.0
 11
542.7309809354
 21
859.3560843663
 31
0.0
  0
LINE
  5
F6
  8
0
  6
CONTINUOUS
 62
     7
 10
1882.731014314
 20
859.3560843663
 30
0.0
 11
1770.2227173475
 21
859.3560843663
 31
0.0
  0
LINE
  5
F7
  8
0
  6
CONTINUOUS
 62
     7
 10
1770.2227173475
 20
559.3560724453
 30
0.0
 11
1882.731014314
 21
559.3560724453
 31
0.0
  0
LINE
  5
F8
  8
0
  6
CONTINUOUS
 62
     7
 10
1882.731014314
 20
559.3560724453
 30
0.0
 11
1902.7309952405
 21
559.3560724453
 31
0.0
  0
LINE
  5
F9
  8
0
  6
CONTINUOUS
 62
     7
 10
1902.7309952405
 20
859.3560843663
 30
0.0
 11
1882.731014314
 21
859.3560843663
 31
0.0
  0
LINE
  5
FA
  8
0
  6
CONTINUOUS
 62
     7
 10
542.7309809354
 20
851.8560766177
 30
0.0
 11
524.7309742597
 21
851.8560766177
 31
0.0
  0
LINE
  5
FB
  8
0
  6
CONTINUOUS
 62
     7
 10
431.7309795049
 20
774.3560760216
 30
0.0
 11
428.7310181287
 21
774.3560760216
 31
0.0
  0
LINE
  5
FC
  8
0
  6
CONTINUOUS
 62
     7
 10
428.7310181287
 20
644.35608079
 30
0.0
 11
431.7309795049
 21
644.35608079
 31
0.0
  0
LINE
  5
FD
  8
0
  6
CONTINUOUS
 62
     7
 10
428.7310181287
 20
767.3560767369
 30
0.0
 11
421.7309890416
 21
767.3560767369
 31
0.0
  0
LINE
  5
FE
  8
0
  6
CONTINUOUS
 62
     7
 10
421.7309890416
 20
651.3560800747
 30
0.0
 11
428.7310181287
 21
651.3560800747
 31
0.0
  0
LINE
  5
FF
  8
0
  6
CONTINUOUS
 62
     7
 10
1217.7309975129
 20
926.8560795979
 30
0.0
 11
1239.7309983251
 21
926.8560795979
 31
0.0
  0
ARC
  5
100
  8
0
  6
CONTINUOUS
 62
     7
 10
1239.7309921838
 20
911.8560852083
 30
0.0
 40
14.99999438962029
 50
89.999976542
 51
176.7214503615
  0
LINE
  5
101
  8
0
  6
CONTINUOUS
 62
     7
 10
1224.7555483234
 20
912.7139388518
 30
0.0
 11
1224.730997729
 21
912.7139388518
 31
0.0
  0
LINE
  5
102
  8
0
  6
CONTINUOUS
 62
     7
 10
1224.730997729
 20
912.7139388518
 30
0.0
 11
1200.7309975204
 21
912.7139388518
 31
0.0
  0
LINE
  5
103
  8
0
  6
CONTINUOUS
 62
     7
 10
1200.7309975204
 20
912.7139388518
 30
0.0
 11
1200.706446926
 21
912.7139388518
 31
0.0
  0
ARC
  5
104
  8
0
  6
CONTINUOUS
 62
     7
 10
1185.7306403143
 20
911.8557010823
 30
0.0
 40
15.00037851987883
 50
3.2799352122
 51
89.9986378844
  0
LINE
  5
105
  8
0
  6
CONTINUOUS
 62
     7
 10
1185.7309969243
 20
926.8560795979
 30
0.0
 11
1207.7309977365
 21
926.8560795979
 31
0.0
  0
ARC
  5
106
  8
0
  6
CONTINUOUS
 62
     7
 10
1202.7308888696
 20
912.7137747831
 30
0.0
 40
15.00019580384255
 50
48.1897967226
 51
70.5286027301
  0
ARC
  5
107
  8
0
  6
CONTINUOUS
 62
     7
 10
1222.7311063798
 20
912.7137747831
 30
0.0
 40
15.00019580384255
 50
109.4713972699
 51
131.8102032774
  0
ARC
  5
108
  8
0
  6
CONTINUOUS
 62
     7
 10
1185.7306403143
 20
506.8564557294
 30
0.0
 40
15.00037851987894
 50
270.0013621156
 51
356.7200647878
  0
LINE
  5
109
  8
0
  6
CONTINUOUS
 62
     7
 10
1200.706446926
 20
505.9982179598
 30
0.0
 11
1200.7309975204
 21
505.9982179598
 31
0.0
  0
LINE
  5
10A
  8
0
  6
CONTINUOUS
 62
     7
 10
1200.7309975204
 20
505.9982179598
 30
0.0
 11
1224.730997729
 21
505.9982179598
 31
0.0
  0
LINE
  5
10B
  8
0
  6
CONTINUOUS
 62
     7
 10
1224.730997729
 20
505.9982179598
 30
0.0
 11
1224.7555483234
 21
505.9982179598
 31
0.0
  0
ARC
  5
10C
  8
0
  6
CONTINUOUS
 62
     7
 10
1239.7309921838
 20
506.8560716033
 30
0.0
 40
14.99999438962028
 50
183.2785496385
 51
270.000023458
  0
LINE
  5
10D
  8
0
  6
CONTINUOUS
 62
     7
 10
1239.7309983251
 20
491.8560772137
 30
0.0
 11
1217.7309975129
 21
491.8560772137
 31
0.0
  0
ARC
  5
10E
  8
0
  6
CONTINUOUS
 62
     7
 10
1222.7311063798
 20
505.9983820285
 30
0.0
 40
15.00019580384246
 50
228.1897967226
 51
250.5286027301
  0
ARC
  5
10F
  8
0
  6
CONTINUOUS
 62
     7
 10
1202.7308888696
 20
505.9983820285
 30
0.0
 40
15.00019580384246
 50
289.4713972699
 51
311.8102032774
  0
LINE
  5
110
  8
0
  6
CONTINUOUS
 62
     7
 10
1207.7309977365
 20
491.8560772137
 30
0.0
 11
1185.7309969243
 21
491.8560772137
 31
0.0
  0
LINE
  5
111
  8
0
  6
CONTINUOUS
 62
     7
 10
1212.7309976247
 20
959.3560784058
 30
0.0
 11
1217.7309975129
 21
959.3560784058
 31
0.0
  0
LINE
  5
112
  8
0
  6
CONTINUOUS
 62
     7
 10
1217.7309975129
 20
959.3560784058
 30
0.0
 11
1217.7309975129
 21
926.8560795979
 31
0.0
  0
LINE
  5
113
  8
0
  6
CONTINUOUS
 62
     7
 10
1212.7309976247
 20
959.3560784058
 30
0.0
 11
1212.7309976247
 21
923.8942800955
 31
0.0
  0
LINE
  5
114
  8
0
  6
CONTINUOUS
 62
     7
 10
1207.7309977365
 20
959.3560784058
 30
0.0
 11
1212.7309976247
 21
959.3560784058
 31
0.0
  0
LINE
  5
115
  8
0
  6
CONTINUOUS
 62
     7
 10
1207.7309977365
 20
959.3560784058
 30
0.0
 11
1207.7309977365
 21
926.8560795979
 31
0.0
  0
LINE
  5
116
  8
0
  6
CONTINUOUS
 62
     7
 10
1412.7310006049
 20
959.3560784058
 30
0.0
 11
1217.7309975129
 21
959.3560784058
 31
0.0
  0
LINE
  5
117
  8
0
  6
CONTINUOUS
 62
     7
 10
1239.7309983251
 20
926.8560795979
 30
0.0
 11
1412.7310006049
 21
926.8560795979
 31
0.0
  0
LINE
  5
118
  8
0
  6
CONTINUOUS
 62
     7
 10
1412.7310006049
 20
926.8560795979
 30
0.0
 11
1412.7310006049
 21
959.3560784058
 31
0.0
  0
LINE
  5
119
  8
0
  6
CONTINUOUS
 62
     7
 10
1012.7309946445
 20
926.8560795979
 30
0.0
 11
1185.7309969243
 21
926.8560795979
 31
0.0
  0
LINE
  5
11A
  8
0
  6
CONTINUOUS
 62
     7
 10
1207.7309977365
 20
959.3560784058
 30
0.0
 11
1012.7309946445
 21
959.3560784058
 31
0.0
  0
LINE
  5
11B
  8
0
  6
CONTINUOUS
 62
     7
 10
1012.7309946445
 20
959.3560784058
 30
0.0
 11
1012.7309946445
 21
926.8560795979
 31
0.0
  0
LINE
  5
11C
  8
0
  6
CONTINUOUS
 62
     7
 10
1412.7310006049
 20
491.8560772137
 30
0.0
 11
1239.7309983251
 21
491.8560772137
 31
0.0
  0
LINE
  5
11D
  8
0
  6
CONTINUOUS
 62
     7
 10
1412.7310006049
 20
459.3560784058
 30
0.0
 11
1412.7310006049
 21
491.8560772137
 31
0.0
  0
LINE
  5
11E
  8
0
  6
CONTINUOUS
 62
     7
 10
1217.7309975129
 20
459.3560784058
 30
0.0
 11
1412.7310006049
 21
459.3560784058
 31
0.0
  0
LINE
  5
11F
  8
0
  6
CONTINUOUS
 62
     7
 10
1217.7309975129
 20
491.8560772137
 30
0.0
 11
1217.7309975129
 21
459.3560784058
 31
0.0
  0
LINE
  5
120
  8
0
  6
CONTINUOUS
 62
     7
 10
1212.7309976247
 20
459.3560784058
 30
0.0
 11
1207.7309977365
 21
459.3560784058
 31
0.0
  0
LINE
  5
121
  8
0
  6
CONTINUOUS
 62
     7
 10
1207.7309977365
 20
491.8560772137
 30
0.0
 11
1207.7309977365
 21
459.3560784058
 31
0.0
  0
LINE
  5
122
  8
0
  6
CONTINUOUS
 62
     7
 10
1212.7309976247
 20
494.8178767161
 30
0.0
 11
1212.7309976247
 21
459.3560784058
 31
0.0
  0
LINE
  5
123
  8
0
  6
CONTINUOUS
 62
     7
 10
1012.7309946445
 20
459.3560784058
 30
0.0
 11
1207.7309977365
 21
459.3560784058
 31
0.0
  0
LINE
  5
124
  8
0
  6
CONTINUOUS
 62
     7
 10
1012.7309946445
 20
491.8560772137
 30
0.0
 11
1012.7309946445
 21
459.3560784058
 31
0.0
  0
LINE
  5
125
  8
0
  6
CONTINUOUS
 62
     7
 10
1185.7309969243
 20
491.8560772137
 30
0.0
 11
1012.7309946445
 21
491.8560772137
 31
0.0
  0
LINE
  5
126
  8
0
  6
CONTINUOUS
 62
     7
 10
1217.7309975129
 20
459.3560784058
 30
0.0
 11
1212.7309976247
 21
459.3560784058
 31
0.0
  0
LINE
  5
127
  8
0
  6
CONTINUOUS
 62
     7
 10
1200.7309975204
 20
506.8560778098
 30
0.0
 11
1200.7309975204
 21
911.8560790019
 31
0.0
  0
LINE
  5
128
  8
0
  6
CONTINUOUS
 62
     7
 10
1224.730997729
 20
506.8560778098
 30
0.0
 11
1224.730997729
 21
911.8560790019
 31
0.0
  0
ARC
  5
129
  8
0
  6
CONTINUOUS
 62
     7
 10
1239.7309976247
 20
506.8560784058
 30
0.0
 40
15.00000000000006
 50
180.0
 51
183.2785894743
  0
ARC
  5
12A
  8
0
  6
CONTINUOUS
 62
     7
 10
1239.7309976247
 20
911.8560784058
 30
0.0
 40
15.00000000000005
 50
176.7214105257
 51
180.0
  0
ARC
  5
12B
  8
0
  6
CONTINUOUS
 62
     7
 10
1185.7309976247
 20
506.8560784058
 30
0.0
 40
15.00000000000006
 50
356.7214105257
 51
0.0
  0
ARC
  5
12C
  8
0
  6
CONTINUOUS
 62
     7
 10
1185.7309976247
 20
911.8560784058
 30
0.0
 40
15.00000000000005
 50
0.0
 51
3.2785894743
  0
LINE
  5
12D
  8
0
  6
CONTINUOUS
 62
     7
 10
1436.6640536216
 20
959.3560784058
 30
0.0
 11
1436.6640536216
 21
926.8560795979
 31
0.0
  0
LINE
  5
12E
  8
0
  6
CONTINUOUS
 62
     7
 10
1436.6640536216
 20
926.8560795979
 30
0.0
 11
1412.7310006049
 21
926.8560795979
 31
0.0
  0
LINE
  5
12F
  8
0
  6
CONTINUOUS
 62
     7
 10
1412.7310006049
 20
959.3560784058
 30
0.0
 11
1436.6640536216
 21
959.3560784058
 31
0.0
  0
LINE
  5
130
  8
0
  6
CONTINUOUS
 62
     7
 10
988.7979416278
 20
926.8560795979
 30
0.0
 11
988.7979416278
 21
959.3560784058
 31
0.0
  0
LINE
  5
131
  8
0
  6
CONTINUOUS
 62
     7
 10
1012.7309946445
 20
926.8560795979
 30
0.0
 11
988.7979416278
 21
926.8560795979
 31
0.0
  0
LINE
  5
132
  8
0
  6
CONTINUOUS
 62
     7
 10
988.7979416278
 20
959.3560784058
 30
0.0
 11
1012.7309946445
 21
959.3560784058
 31
0.0
  0
LINE
  5
133
  8
0
  6
CONTINUOUS
 62
     7
 10
988.7979416278
 20
459.3560784058
 30
0.0
 11
988.7979416278
 21
491.8560772137
 31
0.0
  0
LINE
  5
134
  8
0
  6
CONTINUOUS
 62
     7
 10
1012.7309946445
 20
459.3560784058
 30
0.0
 11
988.7979416278
 21
459.3560784058
 31
0.0
  0
LINE
  5
135
  8
0
  6
CONTINUOUS
 62
     7
 10
988.7979416278
 20
491.8560772137
 30
0.0
 11
1012.7309946445
 21
491.8560772137
 31
0.0
  0
LINE
  5
136
  8
0
  6
CONTINUOUS
 62
     7
 10
1436.6640536216
 20
491.8560772137
 30
0.0
 11
1436.6640536216
 21
459.3560784058
 31
0.0
  0
LINE
  5
137
  8
0
  6
CONTINUOUS
 62
     7
 10
1436.6640536216
 20
459.3560784058
 30
0.0
 11
1412.7310006049
 21
459.3560784058
 31
0.0
  0
LINE
  5
138
  8
0
  6
CONTINUOUS
 62
     7
 10
1412.7310006049
 20
491.8560772137
 30
0.0
 11
1436.6640536216
 21
491.8560772137
 31
0.0
  0
POLYLINE
  5
139
  8
0
  6
CONTINUOUS
 62
     7
 66
     1
 10
0.0
 20
0.0
 30
0.0
  0
VERTEX
  5
50B
  8
0
  6
CONTINUOUS
 62
     7
 10
494.6364699033
 20
258.7712793545
 30
0.0
  0
VERTEX
  5
50C
  8
0
  6
CONTINUOUS
 62
     7
 10
494.5765672353
 20
258.785286446
 30
0.0
  0
VERTEX
  5
50D
  8
0
  6
CONTINUOUS
 62
     7
 10
493.3834014562
 20
258.5433213906
 30
0.0
  0
VERTEX
  5
50E
  8
0
  6
CONTINUOUS
 62
     7
 10
491.3957057622
 20
257.9681067662
 30
0.0
  0
VERTEX
  5
50F
  8
0
  6
CONTINUOUS
 62
     7
 10
489.2175136235
 20
257.4795274929
 30
0.0
  0
VERTEX
  5
510
  8
0
  6
CONTINUOUS
 62
     7
 10
487.2644482282
 20
257.3190717892
 30
0.0
  0
VERTEX
  5
511
  8
0
  6
CONTINUOUS
 62
     7
 10
485.304468694
 20
257.470199366
 30
0.0
  0
VERTEX
  5
512
  8
0
  6
CONTINUOUS
 62
     7
 10
483.1011829999
 20
257.9584508137
 30
0.0
  0
VERTEX
  5
513
  8
0
  6
CONTINUOUS
 62
     7
 10
480.9311566976
 20
258.5829584794
 30
0.0
  0
VERTEX
  5
514
  8
0
  6
CONTINUOUS
 62
     7
 10
480.1422296193
 20
258.7561695771
 30
0.0
  0
VERTEX
  5
515
  8
0
  6
CONTINUOUS
 62
     7
 10
479.8343120244
 20
258.7659745411
 30
0.0
  0
SEQEND
  5
70A
  8
0
  6
CONTINUOUS
 62
     7
  0
POLYLINE
  5
13A
  8
0
  6
CONTINUOUS
 62
     7
 66
     1
 10
0.0
 20
0.0
 30
0.0
  0
VERTEX
  5
516
  8
0
  6
CONTINUOUS
 62
     7
 10
162.2698245671
 20
576.2938647465
 30
0.0
  0
VERTEX
  5
517
  8
0
  6
CONTINUOUS
 62
     7
 10
162.2545657781
 20
576.7274587349
 30
0.0
  0
VERTEX
  5
518
  8
0
  6
CONTINUOUS
 62
     7
 10
161.8586717275
 20
578.2103030877
 30
0.0
  0
VERTEX
  5
519
  8
0
  6
CONTINUOUS
 62
     7
 10
161.1967025426
 20
580.5645524458
 30
0.0
  0
VERTEX
  5
51A
  8
0
  6
CONTINUOUS
 62
     7
 10
160.8503995565
 20
582.6023458437
 30
0.0
  0
VERTEX
  5
51B
  8
0
  6
CONTINUOUS
 62
     7
 10
160.8425317434
 20
584.7937404112
 30
0.0
  0
VERTEX
  5
51C
  8
0
  6
CONTINUOUS
 62
     7
 10
161.1281572011
 20
586.6075991587
 30
0.0
  0
VERTEX
  5
51D
  8
0
  6
CONTINUOUS
 62
     7
 10
161.7542443898
 20
588.8884751992
 30
0.0
  0
VERTEX
  5
51E
  8
0
  6
CONTINUOUS
 62
     7
 10
162.2412143377
 20
590.6099765496
 30
0.0
  0
VERTEX
  5
51F
  8
0
  6
CONTINUOUS
 62
     7
 10
162.2587381032
 20
591.0730226831
 30
0.0
  0
SEQEND
  5
709
  8
0
  6
CONTINUOUS
 62
     7
  0
POLYLINE
  5
13B
  8
0
  6
CONTINUOUS
 62
     7
 66
     1
 10
0.0
 20
0.0
 30
0.0
  0
VERTEX
  5
520
  8
0
  6
CONTINUOUS
 62
     7
 10
479.790085378
 20
908.6379497246
 30
0.0
  0
VERTEX
  5
521
  8
0
  6
CONTINUOUS
 62
     7
 10
480.0609288839
 20
908.6283980803
 30
0.0
  0
VERTEX
  5
522
  8
0
  6
CONTINUOUS
 62
     7
 10
481.386655393
 20
908.975401421
 30
0.0
  0
VERTEX
  5
523
  8
0
  6
CONTINUOUS
 62
     7
 10
483.5492311147
 20
909.6263884501
 30
0.0
  0
VERTEX
  5
524
  8
0
  6
CONTINUOUS
 62
     7
 10
485.6483278897
 20
910.0586562352
 30
0.0
  0
VERTEX
  5
525
  8
0
  6
CONTINUOUS
 62
     7
 10
487.5866113332
 20
910.1593880848
 30
0.0
  0
VERTEX
  5
526
  8
0
  6
CONTINUOUS
 62
     7
 10
489.4857941297
 20
909.9525599675
 30
0.0
  0
VERTEX
  5
527
  8
0
  6
CONTINUOUS
 62
     7
 10
491.7307434705
 20
909.3923657135
 30
0.0
  0
VERTEX
  5
528
  8
0
  6
CONTINUOUS
 62
     7
 10
493.545347276
 20
908.8348387675
 30
0.0
  0
VERTEX
  5
529
  8
0
  6
CONTINUOUS
 62
     7
 10
494.33332068
 20
908.6403190093
 30
0.0
  0
VERTEX
  5
52A
  8
0
  6
CONTINUOUS
 62
     7
 10
494.7096644071
 20
908.6138098435
 30
0.0
  0
SEQEND
  5
708
  8
0
  6
CONTINUOUS
 62
     7
  0
POLYLINE
  5
13C
  8
0
  6
CONTINUOUS
 62
     7
 66
     1
 10
0.0
 20
0.0
 30
0.0
  0
VERTEX
  5
52B
  8
0
  6
CONTINUOUS
 62
     7
 10
812.1810196069
 20
591.1094634728
 30
0.0
  0
VERTEX
  5
52C
  8
0
  6
CONTINUOUS
 62
     7
 10
812.1612606672
 20
590.9566222624
 30
0.0
  0
VERTEX
  5
52D
  8
0
  6
CONTINUOUS
 62
     7
 10
812.4558864263
 20
589.7163613634
 30
0.0
  0
VERTEX
  5
52E
  8
0
  6
CONTINUOUS
 62
     7
 10
813.0708573487
 20
587.658697267
 30
0.0
  0
VERTEX
  5
52F
  8
0
  6
CONTINUOUS
 62
     7
 10
813.5330317643
 20
585.5294777946
 30
0.0
  0
VERTEX
  5
530
  8
0
  6
CONTINUOUS
 62
     7
 10
813.6650560525
 20
583.5866271452
 30
0.0
  0
VERTEX
  5
531
  8
0
  6
CONTINUOUS
 62
     7
 10
813.4868083623
 20
581.654557486
 30
0.0
  0
VERTEX
  5
532
  8
0
  6
CONTINUOUS
 62
     7
 10
812.9636285928
 20
579.4203220801
 30
0.0
  0
VERTEX
  5
533
  8
0
  6
CONTINUOUS
 62
     7
 10
812.4186633256
 20
577.5822340445
 30
0.0
  0
VERTEX
  5
534
  8
0
  6
CONTINUOUS
 62
     7
 10
812.1792016652
 20
576.2765346961
 30
0.0
  0
SEQEND
  5
707
  8
0
  6
CONTINUOUS
 62
     7
  0
POLYLINE
  5
13D
  8
0
  6
CONTINUOUS
 62
     7
 66
     1
 10
0.0
 20
0.0
 30
0.0
  0
VERTEX
  5
535
  8
0
  6
CONTINUOUS
 62
     7
 10
495.1466856626
 20
538.6550365881
 30
0.0
  0
VERTEX
  5
536
  8
0
  6
CONTINUOUS
 62
     7
 10
495.2000318196
 20
538.6707573132
 30
0.0
  0
VERTEX
  5
537
  8
0
  6
CONTINUOUS
 62
     7
 10
494.5154128698
 20
538.5767756896
 30
0.0
  0
VERTEX
  5
538
  8
0
  6
CONTINUOUS
 62
     7
 10
492.9184256223
 20
538.3655964331
 30
0.0
  0
VERTEX
  5
539
  8
0
  6
CONTINUOUS
 62
     7
 10
490.5667243627
 20
538.1439714627
 30
0.0
  0
VERTEX
  5
53A
  8
0
  6
CONTINUOUS
 62
     7
 10
487.9268942502
 20
538.0321531491
 30
0.0
  0
VERTEX
  5
53B
  8
0
  6
CONTINUOUS
 62
     7
 10
485.4319034246
 20
538.0610912041
 30
0.0
  0
VERTEX
  5
53C
  8
0
  6
CONTINUOUS
 62
     7
 10
483.2030473378
 20
538.1974219279
 30
0.0
  0
VERTEX
  5
53D
  8
0
  6
CONTINUOUS
 62
     7
 10
481.2870560315
 20
538.3965014414
 30
0.0
  0
VERTEX
  5
53E
  8
0
  6
CONTINUOUS
 62
     7
 10
479.8643527654
 20
538.5886072115
 30
0.0
  0
VERTEX
  5
53F
  8
0
  6
CONTINUOUS
 62
     7
 10
479.2395768789
 20
538.6717854933
 30
0.0
  0
VERTEX
  5
540
  8
0
  6
CONTINUOUS
 62
     7
 10
479.2881546643
 20
538.6599986748
 30
0.0
  0
SEQEND
  5
706
  8
0
  6
CONTINUOUS
 62
     7
  0
ARC
  5
13E
  8
0
  6
CONTINUOUS
 62
     7
 10
484.1395001691
 20
583.2252835353
 30
0.0
 40
48.0919420346894
 50
350.1428623071
 51
359.7618321681
  0
ARC
  5
13F
  8
0
  6
CONTINUOUS
 62
     7
 10
490.8784962416
 20
583.2733284474
 30
0.0
 40
48.64813480683487
 50
180.2920307807
 51
189.7693567588
  0
LINE
  5
140
  8
0
  6
CONTINUOUS
 62
     7
 10
655.382567468
 20
859.0223728613
 30
0.0
 11
655.382567468
 21
861.760118504
 31
0.0
  0
LINE
  5
141
  8
0
  6
CONTINUOUS
 62
     7
 10
655.382567468
 20
890.6000046925
 30
0.0
 11
655.382567468
 21
926.8560795979
 31
0.0
  0
LINE
  5
142
  8
0
  6
CONTINUOUS
 62
     7
 10
655.239277902
 20
859.3552946047
 30
0.0
 11
655.382567468
 21
859.0223728613
 31
0.0
  0
LINE
  5
143
  8
0
  6
CONTINUOUS
 62
     7
 10
655.382567468
 20
926.8560795979
 30
0.0
 11
988.7979416278
 21
926.8560795979
 31
0.0
  0
LINE
  5
144
  8
0
  6
CONTINUOUS
 62
     7
 10
655.2309928563
 20
959.3560784058
 30
0.0
 11
988.7979416278
 21
959.3560784058
 31
0.0
  0
POLYLINE
  5
145
  8
0
  6
CONTINUOUS
 62
     7
 66
     1
 10
0.0
 20
0.0
 30
0.0
  0
VERTEX
  5
541
  8
0
  6
CONTINUOUS
 62
     7
 10
1770.0794277814
 20
859.0223728613
 30
0.0
  0
VERTEX
  5
542
  8
0
  6
CONTINUOUS
 62
     7
 10
1770.2227769521
 20
859.3560694651
 30
0.0
  0
VERTEX
  5
543
  8
0
  6
CONTINUOUS
 62
     7
 10
1770.2227173475
 20
859.3552648024
 30
0.0
  0
SEQEND
  5
705
  8
0
  6
CONTINUOUS
 62
     7
  0
LINE
  5
146
  8
0
  6
CONTINUOUS
 62
     7
 10
1770.0794277814
 20
859.0223728613
 30
0.0
 11
1770.0794277814
 21
926.8560795979
 31
0.0
  0
LINE
  5
147
  8
0
  6
CONTINUOUS
 62
     7
 10
1436.6640536216
 20
926.8560795979
 30
0.0
 11
1770.0794277814
 21
926.8560795979
 31
0.0
  0
LINE
  5
148
  8
0
  6
CONTINUOUS
 62
     7
 10
1436.6640536216
 20
959.3560784058
 30
0.0
 11
1770.2310023931
 21
959.3560784058
 31
0.0
  0
LINE
  5
149
  8
0
  6
CONTINUOUS
 62
     7
 10
655.239277902
 20
559.3568622069
 30
0.0
 11
655.382567468
 21
559.6897839503
 31
0.0
  0
LINE
  5
14A
  8
0
  6
CONTINUOUS
 62
     7
 10
655.382567468
 20
559.6897839503
 30
0.0
 11
655.382567468
 21
491.8560772137
 31
0.0
  0
LINE
  5
14B
  8
0
  6
CONTINUOUS
 62
     7
 10
655.2309928563
 20
459.3560784058
 30
0.0
 11
787.4243496087
 21
459.3560784058
 31
0.0
  0
LINE
  5
14C
  8
0
  6
CONTINUOUS
 62
     7
 10
814.267360988
 20
459.3560784058
 30
0.0
 11
988.7979416278
 21
459.3560784058
 31
0.0
  0
LINE
  5
14D
  8
0
  6
CONTINUOUS
 62
     7
 10
655.382567468
 20
491.8560772137
 30
0.0
 11
798.8665936616
 21
491.8560772137
 31
0.0
  0
LINE
  5
14E
  8
0
  6
CONTINUOUS
 62
     7
 10
824.8195586827
 20
491.8560772137
 30
0.0
 11
988.7979416278
 21
491.8560772137
 31
0.0
  0
LINE
  5
14F
  8
0
  6
CONTINUOUS
 62
     7
 10
1770.0794277814
 20
559.6897839503
 30
0.0
 11
1770.0794277814
 21
491.8560772137
 31
0.0
  0
POLYLINE
  5
150
  8
0
  6
CONTINUOUS
 62
     7
 66
     1
 10
0.0
 20
0.0
 30
0.0
  0
VERTEX
  5
544
  8
0
  6
CONTINUOUS
 62
     7
 10
1770.0794277814
 20
559.6897839503
 30
0.0
  0
VERTEX
  5
545
  8
0
  6
CONTINUOUS
 62
     7
 10
1770.2227769521
 20
559.3560873465
 30
0.0
  0
VERTEX
  5
546
  8
0
  6
CONTINUOUS
 62
     7
 10
1770.2227173475
 20
559.3568920092
 30
0.0
  0
SEQEND
  5
704
  8
0
  6
CONTINUOUS
 62
     7
  0
LINE
  5
151
  8
0
  6
CONTINUOUS
 62
     7
 10
1436.6640536216
 20
459.3560784058
 30
0.0
 11
1770.2310023931
 21
459.3560784058
 31
0.0
  0
LINE
  5
152
  8
0
  6
CONTINUOUS
 62
     7
 10
1436.6640536216
 20
491.8560772137
 30
0.0
 11
1770.0794277814
 21
491.8560772137
 31
0.0
  0
LINE
  5
153
  8
0
  6
CONTINUOUS
 62
     7
 10
712.2309742597
 20
964.3560736374
 30
0.0
 11
1713.2310209897
 21
964.3560736374
 31
0.0
  0
LINE
  5
154
  8
0
  6
CONTINUOUS
 62
     7
 10
712.2309742597
 20
454.3560831742
 30
0.0
 11
785.2112887529
 21
454.3560831742
 31
0.0
  0
LINE
  5
155
  8
0
  6
CONTINUOUS
 62
     7
 10
812.3366771367
 20
454.3560831742
 30
0.0
 11
1713.2310209897
 21
454.3560831742
 31
0.0
  0
POLYLINE
  5
156
  8
0
  6
CONTINUOUS
 62
     7
 66
     1
 10
0.0
 20
0.0
 30
0.0
  0
VERTEX
  5
547
  8
0
  6
CONTINUOUS
 62
     7
 10
1239.7309983251
 20
926.8560795979
 30
0.0
  0
VERTEX
  5
548
  8
0
  6
CONTINUOUS
 62
     7
 10
1239.5947905359
 20
926.5796332554
 30
0.0
  0
VERTEX
  5
549
  8
0
  6
CONTINUOUS
 62
     7
 10
1239.4581263986
 20
925.7260053353
 30
0.0
  0
VERTEX
  5
54A
  8
0
  6
CONTINUOUS
 62
     7
 10
1239.3325170603
 20
924.3665276961
 30
0.0
  0
VERTEX
  5
54B
  8
0
  6
CONTINUOUS
 62
     7
 10
1239.2144756493
 20
922.4620996909
 30
0.0
  0
VERTEX
  5
54C
  8
0
  6
CONTINUOUS
 62
     7
 10
1239.114062312
 20
920.1735644536
 30
0.0
  0
VERTEX
  5
54D
  8
0
  6
CONTINUOUS
 62
     7
 10
1239.0284793553
 20
917.4344926075
 30
0.0
  0
VERTEX
  5
54E
  8
0
  6
CONTINUOUS
 62
     7
 10
1238.9650935409
 20
914.4784896569
 30
0.0
  0
VERTEX
  5
54F
  8
0
  6
CONTINUOUS
 62
     7
 10
1238.9220832017
 20
911.217683454
 30
0.0
  0
VERTEX
  5
550
  8
0
  6
CONTINUOUS
 62
     7
 10
1238.9019293812
 20
906.8560837702
 30
0.0
  0
SEQEND
  5
703
  8
0
  6
CONTINUOUS
 62
     7
  0
ARC
  5
157
  8
0
  6
CONTINUOUS
 62
     7
 10
1706.056099474
 20
906.8524751961
 30
0.0
 40
20.00360473444375
 50
89.9895503189
 51
179.9896640596
  0
LINE
  5
158
  8
0
  6
CONTINUOUS
 62
     7
 10
1238.9019293812
 20
906.8560837702
 30
0.0
 11
1686.052495065
 21
906.8560837702
 31
0.0
  0
LINE
  5
159
  8
0
  6
CONTINUOUS
 62
     7
 10
1224.730997729
 20
906.8560837702
 30
0.0
 11
1238.9019293812
 21
906.8560837702
 31
0.0
  0
POLYLINE
  5
15A
  8
0
  6
CONTINUOUS
 62
     7
 66
     1
 10
0.0
 20
0.0
 30
0.0
  0
VERTEX
  5
551
  8
0
  6
CONTINUOUS
 62
     7
 10
1185.7309969243
 20
491.8560772137
 30
0.0
  0
VERTEX
  5
552
  8
0
  6
CONTINUOUS
 62
     7
 10
1185.8691623536
 20
492.1426116423
 30
0.0
  0
VERTEX
  5
553
  8
0
  6
CONTINUOUS
 62
     7
 10
1186.0038688508
 20
492.9861514763
 30
0.0
  0
VERTEX
  5
554
  8
0
  6
CONTINUOUS
 62
     7
 10
1186.1311992732
 20
494.3709163861
 30
0.0
  0
VERTEX
  5
555
  8
0
  6
CONTINUOUS
 62
     7
 10
1186.2475196001
 20
496.2500571207
 30
0.0
  0
VERTEX
  5
556
  8
0
  6
CONTINUOUS
 62
     7
 10
1186.3492144373
 20
498.5761730866
 30
0.0
  0
VERTEX
  5
557
  8
0
  6
CONTINUOUS
 62
     7
 10
1186.4335158941
 20
501.2776642041
 30
0.0
  0
VERTEX
  5
558
  8
0
  6
CONTINUOUS
 62
     7
 10
1186.4975908873
 20
504.2791902022
 30
0.0
  0
VERTEX
  5
559
  8
0
  6
CONTINUOUS
 62
     7
 10
1186.5399120477
 20
507.4944733576
 30
0.0
  0
VERTEX
  5
55A
  8
0
  6
CONTINUOUS
 62
     7
 10
1186.5600658682
 20
511.8560730414
 30
0.0
  0
SEQEND
  5
702
  8
0
  6
CONTINUOUS
 62
     7
  0
LINE
  5
15B
  8
0
  6
CONTINUOUS
 62
     7
 10
1186.5600658682
 20
511.8560730414
 30
0.0
 11
1200.7309975204
 21
511.8560730414
 31
0.0
  0
ARC
  5
15C
  8
0
  6
CONTINUOUS
 62
     7
 10
719.4059753155
 20
511.8596020465
 30
0.0
 40
20.0035251801338
 50
269.9893224519
 51
359.9898919267
  0
POLYLINE
  5
15D
  8
0
  6
CONTINUOUS
 62
     7
 66
     1
 10
0.0
 20
0.0
 30
0.0
  0
VERTEX
  5
55B
  8
0
  6
CONTINUOUS
 62
     7
 10
1186.5600658682
 20
906.8560837702
 30
0.0
  0
VERTEX
  5
55C
  8
0
  6
CONTINUOUS
 62
     7
 10
1186.5481244502
 20
910.2095155911
 30
0.0
  0
VERTEX
  5
55D
  8
0
  6
CONTINUOUS
 62
     7
 10
1186.5129912373
 20
913.4686230616
 30
0.0
  0
VERTEX
  5
55E
  8
0
  6
CONTINUOUS
 62
     7
 10
1186.4554187384
 20
916.5381728606
 30
0.0
  0
VERTEX
  5
55F
  8
0
  6
CONTINUOUS
 62
     7
 10
1186.3774223355
 20
919.3355976538
 30
0.0
  0
VERTEX
  5
560
  8
0
  6
CONTINUOUS
 62
     7
 10
1186.2810229984
 20
921.7778830723
 30
0.0
  0
VERTEX
  5
561
  8
0
  6
CONTINUOUS
 62
     7
 10
1186.1693220314
 20
923.8006262974
 30
0.0
  0
VERTEX
  5
562
  8
0
  6
CONTINUOUS
 62
     7
 10
1186.0452698645
 20
925.3415851788
 30
0.0
  0
VERTEX
  5
563
  8
0
  6
CONTINUOUS
 62
     7
 10
1185.9127314863
 20
926.3617782788
 30
0.0
  0
VERTEX
  5
564
  8
0
  6
CONTINUOUS
 62
     7
 10
1185.7309969243
 20
926.8560795979
 30
0.0
  0
SEQEND
  5
701
  8
0
  6
CONTINUOUS
 62
     7
  0
LINE
  5
15E
  8
0
  6
CONTINUOUS
 62
     7
 10
1186.5600658682
 20
906.8560837702
 30
0.0
 11
1200.7309975204
 21
906.8560837702
 31
0.0
  0
LINE
  5
15F
  8
0
  6
CONTINUOUS
 62
     7
 10
739.4095001844
 20
906.8560837702
 30
0.0
 11
1186.5600658682
 21
906.8560837702
 31
0.0
  0
ARC
  5
160
  8
0
  6
CONTINUOUS
 62
     7
 10
719.4056296142
 20
906.8522089384
 30
0.0
 40
20.00387094542752
 50
0.0110984275
 51
90.0096871939
  0
POLYLINE
  5
161
  8
0
  6
CONTINUOUS
 62
     7
 66
     1
 10
0.0
 20
0.0
 30
0.0
  0
VERTEX
  5
565
  8
0
  6
CONTINUOUS
 62
     7
 10
1238.9019293812
 20
511.8560730414
 30
0.0
  0
VERTEX
  5
566
  8
0
  6
CONTINUOUS
 62
     7
 10
1238.9134517041
 20
508.5498033957
 30
0.0
  0
VERTEX
  5
567
  8
0
  6
CONTINUOUS
 62
     7
 10
1238.9490040121
 20
505.24353375
 30
0.0
  0
VERTEX
  5
568
  8
0
  6
CONTINUOUS
 62
     7
 10
1239.0055334297
 20
502.2151409583
 30
0.0
  0
VERTEX
  5
569
  8
0
  6
CONTINUOUS
 62
     7
 10
1239.084572914
 20
499.3765591578
 30
0.0
  0
VERTEX
  5
56A
  8
0
  6
CONTINUOUS
 62
     7
 10
1239.1794262555
 20
496.9648658232
 30
0.0
  0
VERTEX
  5
56B
  8
0
  6
CONTINUOUS
 62
     7
 10
1239.292673218
 20
494.9115305142
 30
0.0
  0
VERTEX
  5
56C
  8
0
  6
CONTINUOUS
 62
     7
 10
1239.4148515639
 20
493.3871864275
 30
0.0
  0
VERTEX
  5
56D
  8
0
  6
CONTINUOUS
 62
     7
 10
1239.5492637631
 20
492.3503785328
 30
0.0
  0
VERTEX
  5
56E
  8
0
  6
CONTINUOUS
 62
     7
 10
1239.7309983251
 20
491.8560772137
 30
0.0
  0
SEQEND
  5
700
  8
0
  6
CONTINUOUS
 62
     7
  0
LINE
  5
162
  8
0
  6
CONTINUOUS
 62
     7
 10
1238.9019293812
 20
511.8560730414
 30
0.0
 11
1686.052495065
 21
511.8560730414
 31
0.0
  0
ARC
  5
163
  8
0
  6
CONTINUOUS
 62
     7
 10
1706.056099474
 20
511.8596816155
 30
0.0
 40
20.00360473444375
 50
180.0103359404
 51
270.0104496811
  0
LINE
  5
164
  8
0
  6
CONTINUOUS
 62
     7
 10
1224.730997729
 20
511.8560730414
 30
0.0
 11
1238.9019293812
 21
511.8560730414
 31
0.0
  0
LINE
  5
165
  8
0
  6
CONTINUOUS
 62
     7
 10
1186.5600658682
 20
511.8560730414
 30
0.0
 11
1186.5600658682
 21
906.8560837702
 31
0.0
  0
LINE
  5
166
  8
0
  6
CONTINUOUS
 62
     7
 10
1238.9019293812
 20
906.8560837702
 30
0.0
 11
1238.9019293812
 21
511.8560730414
 31
0.0
  0
LINE
  5
167
  8
0
  6
CONTINUOUS
 62
     7
 10
1252.8758956221
 20
718.4457364426
 30
0.0
 11
1252.8758956221
 21
742.4085787432
 31
0.0
  0
LINE
  5
168
  8
0
  6
CONTINUOUS
 62
     7
 10
1253.0878534642
 20
742.4085787432
 30
0.0
 11
1252.8758956221
 21
742.4085787432
 31
0.0
  0
LINE
  5
169
  8
0
  6
CONTINUOUS
 62
     7
 10
1253.0878534642
 20
718.4457364426
 30
0.0
 11
1253.0878534642
 21
742.4085787432
 31
0.0
  0
LINE
  5
16A
  8
0
  6
CONTINUOUS
 62
     7
 10
1253.0878534642
 20
718.4457364426
 30
0.0
 11
1252.8758956221
 21
718.4457364426
 31
0.0
  0
LINE
  5
16B
  8
0
  6
CONTINUOUS
 62
     7
 10
1253.0878534642
 20
678.0585772292
 30
0.0
 11
1253.0878534642
 21
700.266420369
 31
0.0
  0
ARC
  5
16C
  8
0
  6
CONTINUOUS
 62
     7
 10
1253.4123551352
 20
700.2666180633
 30
0.0
 40
0.3245017312682998
 50
112.3783478291
 51
180.0349059832
  0
LINE
  5
16D
  8
0
  6
CONTINUOUS
 62
     7
 10
1253.2888105241
 20
700.566681561
 30
0.0
 11
1273.7722894278
 21
709.055817563
 31
0.0
  0
ARC
  5
16E
  8
0
  6
CONTINUOUS
 62
     7
 10
1273.6470330537
 20
709.3560784058
 30
0.0
 40
0.3253394119447021
 50
292.6438739372
 51
67.3561260628
  0
LINE
  5
16F
  8
0
  6
CONTINUOUS
 62
     7
 10
1273.7722894278
 20
709.6563392486
 30
0.0
 11
1253.2888105241
 21
718.1454752506
 31
0.0
  0
ARC
  5
170
  8
0
  6
CONTINUOUS
 62
     7
 10
1253.4123554524
 20
718.4455389606
 30
0.0
 40
0.3245020483175453
 50
179.965131532
 51
247.6216146555
  0
ARC
  5
171
  8
0
  6
CONTINUOUS
 62
     7
 10
1253.4131173326
 20
742.4083129266
 30
0.0
 40
0.3252639770109133
 50
89.9529852927
 51
179.9531759712
  0
LINE
  5
172
  8
0
  6
CONTINUOUS
 62
     7
 10
1253.4133842316
 20
742.7335767941
 30
0.0
 11
1259.2694996026
 21
742.7335767941
 31
0.0
  0
ARC
  5
173
  8
0
  6
CONTINUOUS
 62
     7
 10
1259.2695740746
 20
742.4085116557
 30
0.0
 40
0.3250651469278303
 50
0.0118247954
 51
90.0131263803
  0
LINE
  5
174
  8
0
  6
CONTINUOUS
 62
     7
 10
1259.5946392146
 20
742.4085787432
 30
0.0
 11
1259.5946392146
 21
722.7888978021
 31
0.0
  0
ARC
  5
175
  8
0
  6
CONTINUOUS
 62
     7
 10
1259.919141836
 20
722.78859487
 30
0.0
 40
0.3245027628530842
 50
179.9465128321
 51
247.5724555459
  0
LINE
  5
176
  8
0
  6
CONTINUOUS
 62
     7
 10
1259.7953392294
 20
722.48863661
 30
0.0
 11
1284.0300588039
 21
712.4237674223
 31
0.0
  0
ARC
  5
177
  8
0
  6
CONTINUOUS
 62
     7
 10
1283.9049396292
 20
712.1243290698
 30
0.0
 40
0.3245275563363426
 50
359.8547675197
 51
67.3225747707
  0
LINE
  5
178
  8
0
  6
CONTINUOUS
 62
     7
 10
1284.229466143
 20
712.1235064631
 30
0.0
 11
1284.229466143
 21
706.5886503485
 31
0.0
  0
ARC
  5
179
  8
0
  6
CONTINUOUS
 62
     7
 10
1283.9049488429
 20
706.5878216229
 30
0.0
 40
0.3245183582111351
 50
292.6763407685
 51
0.1463169411
  0
LINE
  5
17A
  8
0
  6
CONTINUOUS
 62
     7
 10
1284.0300588039
 20
706.2883893893
 30
0.0
 11
1259.7953392294
 21
696.2235202016
 31
0.0
  0
ARC
  5
17B
  8
0
  6
CONTINUOUS
 62
     7
 10
1259.9191353913
 20
695.9235662494
 30
0.0
 40
0.3244963221946883
 50
112.4267827777
 51
180.0542488442
  0
LINE
  5
17C
  8
0
  6
CONTINUOUS
 62
     7
 10
1259.5946392146
 20
695.9232590095
 30
0.0
 11
1259.5946392146
 21
678.0585772292
 31
0.0
  0
ARC
  5
17D
  8
0
  6
CONTINUOUS
 62
     7
 10
1259.2695703326
 20
678.0586480603
 30
0.0
 40
0.3250688896856049
 50
269.9875333195
 51
359.9875155049
  0
LINE
  5
17E
  8
0
  6
CONTINUOUS
 62
     7
 10
1253.4133842316
 20
677.7335791783
 30
0.0
 11
1259.2694996026
 21
677.7335791783
 31
0.0
  0
ARC
  5
17F
  8
0
  6
CONTINUOUS
 62
     7
 10
1253.4131210738
 20
678.0588467932
 30
0.0
 40
0.3252677213514221
 50
180.0474835912
 51
270.0463551448
  0
ARC
  5
180
  8
0
  6
CONTINUOUS
 62
     7
 10
1253.2006783902
 20
742.4087953781
 30
0.0
 40
0.3247828404129115
 50
90.1696930932
 51
180.0382171356
  0
LINE
  5
181
  8
0
  6
CONTINUOUS
 62
     7
 10
1253.4133842316
 20
742.7335767941
 30
0.0
 11
1253.1997164813
 21
742.7335767941
 31
0.0
  0
ARC
  5
182
  8
0
  6
CONTINUOUS
 62
     7
 10
1253.2025317575
 20
718.4465241633
 30
0.0
 40
0.3266370852770401
 50
180.1381751104
 51
247.1702426306
  0
LINE
  5
183
  8
0
  6
CONTINUOUS
 62
     7
 10
1253.2888105241
 20
718.1454752506
 30
0.0
 11
1253.0757984248
 21
718.1454752506
 31
0.0
  0
ARC
  5
184
  8
0
  6
CONTINUOUS
 62
     7
 10
1253.2025356273
 20
700.2656300719
 30
0.0
 40
0.3266409612879072
 50
112.8302076495
 51
179.8613746094
  0
LINE
  5
185
  8
0
  6
CONTINUOUS
 62
     7
 10
1253.2888105241
 20
700.566681561
 30
0.0
 11
1253.0757984248
 21
700.566681561
 31
0.0
  0
LINE
  5
186
  8
0
  6
CONTINUOUS
 62
     7
 10
1253.0878534642
 20
700.266420369
 30
0.0
 11
1252.8758956221
 21
700.266420369
 31
0.0
  0
LINE
  5
187
  8
0
  6
CONTINUOUS
 62
     7
 10
1253.0878534642
 20
678.0585772292
 30
0.0
 11
1252.8758956221
 21
678.0585772292
 31
0.0
  0
LINE
  5
188
  8
0
  6
CONTINUOUS
 62
     7
 10
1252.8758956221
 20
678.0585772292
 30
0.0
 11
1252.8758956221
 21
700.266420369
 31
0.0
  0
ARC
  5
189
  8
0
  6
CONTINUOUS
 62
     7
 10
1253.2006792699
 20
678.0583614708
 30
0.0
 40
0.324783719522691
 50
179.9619375943
 51
269.8301521768
  0
LINE
  5
18A
  8
0
  6
CONTINUOUS
 62
     7
 10
1253.4133842316
 20
677.7335791783
 30
0.0
 11
1253.1997164813
 21
677.7335791783
 31
0.0
  0
LINE
  5
18B
  8
0
  6
CONTINUOUS
 62
     7
 10
1273.45169467
 20
709.6563392486
 30
0.0
 11
1253.0757984248
 21
718.1454752506
 31
0.0
  0
LINE
  5
18C
  8
0
  6
CONTINUOUS
 62
     7
 10
1273.7722894278
 20
709.6563392486
 30
0.0
 11
1273.45169467
 21
709.6563392486
 31
0.0
  0
LINE
  5
18D
  8
0
  6
CONTINUOUS
 62
     7
 10
1253.0757984248
 20
700.566681561
 30
0.0
 11
1273.45169467
 21
709.055817563
 31
0.0
  0
LINE
  5
18E
  8
0
  6
CONTINUOUS
 62
     7
 10
1273.7722894278
 20
709.055817563
 30
0.0
 11
1273.45169467
 21
709.055817563
 31
0.0
  0
ARC
  5
18F
  8
0
  6
CONTINUOUS
 62
     7
 10
1262.0591907941
 20
736.2278207473
 30
0.0
 40
0.3244248920256925
 50
179.9061874292
 51
271.9267150626
  0
LINE
  5
190
  8
0
  6
CONTINUOUS
 62
     7
 10
1261.9934989241
 20
736.2283519403
 30
0.0
 11
1261.734766337
 21
736.2283519403
 31
0.0
  0
ARC
  5
191
  8
0
  6
CONTINUOUS
 62
     7
 10
1262.3183798943
 20
736.2282303403
 30
0.0
 40
0.3248809929591426
 50
179.9785546987
 51
272.1557158289
  0
LINE
  5
192
  8
0
  6
CONTINUOUS
 62
     7
 10
1262.3306004432
 20
735.9035792695
 30
0.0
 11
1262.0700983432
 21
735.9035792695
 31
0.0
  0
ARC
  5
193
  8
0
  6
CONTINUOUS
 62
     7
 10
1262.6001520098
 20
728.7926369952
 30
0.0
 40
12.96612263900401
 50
22.1550752848
 51
62.1325412835
  0
ARC
  5
194
  8
0
  6
CONTINUOUS
 62
     7
 10
1274.9086920662
 20
733.8040111768
 30
0.0
 40
0.3234986809763578
 50
202.0905469412
 51
302.5562964736
  0
LINE
  5
195
  8
0
  6
CONTINUOUS
 62
     7
 10
1275.0827757743
 20
733.5313460724
 30
0.0
 11
1283.7328625944
 21
739.067783107
 31
0.0
  0
ARC
  5
196
  8
0
  6
CONTINUOUS
 62
     7
 10
1283.9064389556
 20
738.7953485488
 30
0.0
 40
0.3230314871361442
 50
359.7043752517
 51
122.5024542215
  0
LINE
  5
197
  8
0
  6
CONTINUOUS
 62
     7
 10
1284.229466143
 20
738.7936818348
 30
0.0
 11
1284.229466143
 21
732.4616867052
 31
0.0
  0
ARC
  5
198
  8
0
  6
CONTINUOUS
 62
     7
 10
1283.9039162492
 20
732.461405281
 30
0.0
 40
0.3255500153748038
 50
302.7436279952
 51
0.049529784
  0
LINE
  5
199
  8
0
  6
CONTINUOUS
 62
     7
 10
1284.0800000456
 20
732.187585433
 30
0.0
 11
1274.9916812506
 21
726.3704254226
 31
0.0
  0
ARC
  5
19A
  8
0
  6
CONTINUOUS
 62
     7
 10
1275.1671848041
 20
726.096363583
 30
0.0
 40
0.3254403005182616
 50
122.6346613805
 51
247.3321769597
  0
LINE
  5
19B
  8
0
  6
CONTINUOUS
 62
     7
 10
1275.0417640534
 20
725.796062027
 30
0.0
 11
1284.0300588039
 21
722.0554598541
 31
0.0
  0
ARC
  5
19C
  8
0
  6
CONTINUOUS
 62
     7
 10
1283.904940754
 20
721.7560222506
 30
0.0
 40
0.3245264316075407
 50
359.8547581079
 51
67.3227070338
  0
LINE
  5
19D
  8
0
  6
CONTINUOUS
 62
     7
 10
1284.229466143
 20
721.7551995934
 30
0.0
 11
1284.229466143
 21
715.4232049295
 31
0.0
  0
ARC
  5
19E
  8
0
  6
CONTINUOUS
 62
     7
 10
1283.906209758
 20
715.4217245559
 30
0.0
 40
0.3232597746720049
 50
247.5590166896
 51
0.2623879023
  0
LINE
  5
19F
  8
0
  6
CONTINUOUS
 62
     7
 10
1283.7828112868
 20
715.1229442031
 30
0.0
 11
1262.1940983561
 21
724.0912788482
 31
0.0
  0
ARC
  5
1A0
  8
0
  6
CONTINUOUS
 62
     7
 10
1262.3180050219
 20
724.3911979418
 30
0.0
 40
0.3245062781691559
 50
179.9395980949
 51
247.5528339324
  0
LINE
  5
1A1
  8
0
  6
CONTINUOUS
 62
     7
 10
1261.9934989241
 20
724.3915400402
 30
0.0
 11
1261.9934989241
 21
730.7235351698
 31
0.0
  0
ARC
  5
1A2
  8
0
  6
CONTINUOUS
 62
     7
 10
1262.3184536308
 20
730.7235708748
 30
0.0
 40
0.3249547086751854
 50
67.502557887
 51
180.0062954839
  0
LINE
  5
1A3
  8
0
  6
CONTINUOUS
 62
     7
 10
1262.4427950111
 20
731.0237954305
 30
0.0
 11
1269.2861979929
 21
728.1862939642
 31
0.0
  0
ARC
  5
1A4
  8
0
  6
CONTINUOUS
 62
     7
 10
1269.4102752608
 20
728.4860514933
 30
0.0
 40
0.3244221704266673
 50
247.514091921
 51
357.8006634078
  0
ARC
  5
1A5
  8
0
  6
CONTINUOUS
 62
     7
 10
1262.5956922176
 20
728.7638354218
 30
0.0
 40
7.144663453151457
 50
357.6719069154
 51
92.1263600542
  0
LINE
  5
1A6
  8
0
  6
CONTINUOUS
 62
     7
 10
1261.9934989241
 20
736.2283519403
 30
0.0
 11
1261.9934989241
 21
742.4085787432
 31
0.0
  0
ARC
  5
1A7
  8
0
  6
CONTINUOUS
 62
     7
 10
1262.3184713508
 20
742.4086043672
 30
0.0
 40
0.3249724277014941
 50
90.0040206602
 51
180.0045177636
  0
LINE
  5
1A8
  8
0
  6
CONTINUOUS
 62
     7
 10
1262.3184485462
 20
742.7335767941
 30
0.0
 11
1268.1634066728
 21
742.7335767941
 31
0.0
  0
ARC
  5
1A9
  8
0
  6
CONTINUOUS
 62
     7
 10
1268.1631546586
 20
742.4088482555
 30
0.0
 40
0.3247286363397475
 50
359.9524466834
 51
89.9555340968
  0
LINE
  5
1AA
  8
0
  6
CONTINUOUS
 62
     7
 10
1268.4878831831
 20
742.4085787432
 30
0.0
 11
1268.4878831831
 21
740.5425081895
 31
0.0
  0
ARC
  5
1AB
  8
0
  6
CONTINUOUS
 62
     7
 10
1268.812699544
 20
740.5422461564
 30
0.0
 40
0.3248164666200878
 50
179.9537788503
 51
242.1339214436
  0
ARC
  5
1AC
  8
0
  6
CONTINUOUS
 62
     7
 10
1262.0592683089
 20
742.4090768803
 30
0.0
 40
0.3245023542866134
 50
90.2222134745
 51
180.0879536557
  0
LINE
  5
1AD
  8
0
  6
CONTINUOUS
 62
     7
 10
1262.3184485462
 20
742.7335767941
 30
0.0
 11
1262.0580097762
 21
742.7335767941
 31
0.0
  0
LINE
  5
1AE
  8
0
  6
CONTINUOUS
 62
     7
 10
1261.9934989241
 20
742.4085787432
 30
0.0
 11
1261.734766337
 21
742.4085787432
 31
0.0
  0
LINE
  5
1AF
  8
0
  6
CONTINUOUS
 62
     7
 10
1261.734766337
 20
736.2283519403
 30
0.0
 11
1261.734766337
 21
742.4085787432
 31
0.0
  0
ARC
  5
1B0
  8
0
  6
CONTINUOUS
 62
     7
 10
1262.0614138471
 20
724.3921857376
 30
0.0
 40
0.3266481482554524
 50
180.113258749
 51
247.1015247792
  0
LINE
  5
1B1
  8
0
  6
CONTINUOUS
 62
     7
 10
1261.9934989241
 20
724.3915400402
 30
0.0
 11
1261.734766337
 21
724.3915400402
 31
0.0
  0
LINE
  5
1B2
  8
0
  6
CONTINUOUS
 62
     7
 10
1262.1940983561
 20
724.0912788482
 30
0.0
 11
1261.9343152371
 21
724.0912788482
 31
0.0
  0
ARC
  5
1B3
  8
0
  6
CONTINUOUS
 62
     7
 10
1262.0582081079
 20
730.7248556212
 30
0.0
 40
0.3234444663110928
 50
67.5537971389
 51
180.2339087918
  0
LINE
  5
1B4
  8
0
  6
CONTINUOUS
 62
     7
 10
1261.9934989241
 20
730.7235351698
 30
0.0
 11
1261.734766337
 21
730.7235351698
 31
0.0
  0
LINE
  5
1B5
  8
0
  6
CONTINUOUS
 62
     7
 10
1261.734766337
 20
724.3915400402
 30
0.0
 11
1261.734766337
 21
730.7235351698
 31
0.0
  0
LINE
  5
1B6
  8
0
  6
CONTINUOUS
 62
     7
 10
1261.9934989241
 20
678.0585772292
 30
0.0
 11
1261.9934989241
 21
694.3206167714
 31
0.0
  0
ARC
  5
1B7
  8
0
  6
CONTINUOUS
 62
     7
 10
1262.3180021494
 20
694.3209607889
 30
0.0
 40
0.3245034076704875
 50
112.4468266902
 51
180.0607412823
  0
LINE
  5
1B8
  8
0
  6
CONTINUOUS
 62
     7
 10
1262.1940983561
 20
694.6208779634
 30
0.0
 11
1283.7828112868
 21
703.5892126085
 31
0.0
  0
ARC
  5
1B9
  8
0
  6
CONTINUOUS
 62
     7
 10
1283.9062096333
 20
703.2904320701
 30
0.0
 40
0.3232598985412393
 50
359.7376450823
 51
112.4409503259
  0
LINE
  5
1BA
  8
0
  6
CONTINUOUS
 62
     7
 10
1284.229466143
 20
703.2889518821
 30
0.0
 11
1284.229466143
 21
696.9569572182
 31
0.0
  0
ARC
  5
1BB
  8
0
  6
CONTINUOUS
 62
     7
 10
1283.9049512917
 20
696.9561275628
 30
0.0
 40
0.3245159117673065
 50
292.6760526611
 51
0.1464821971
  0
LINE
  5
1BC
  8
0
  6
CONTINUOUS
 62
     7
 10
1284.0300588039
 20
696.6566969575
 30
0.0
 11
1279.9037782577
 21
694.9382307873
 31
0.0
  0
ARC
  5
1BD
  8
0
  6
CONTINUOUS
 62
     7
 10
1280.028620024
 20
694.6386868958
 30
0.0
 40
0.3245181190247477
 50
112.625049429
 51
180.1266441553
  0
LINE
  5
1BE
  8
0
  6
CONTINUOUS
 62
     7
 10
1279.7041026977
 20
694.6379695953
 30
0.0
 11
1279.7041026977
 21
684.953458135
 31
0.0
  0
ARC
  5
1BF
  8
0
  6
CONTINUOUS
 62
     7
 10
1280.0286099882
 20
684.9527332316
 30
0.0
 40
0.3245081001731623
 50
179.8720095441
 51
247.3761329853
  0
LINE
  5
1C0
  8
0
  6
CONTINUOUS
 62
     7
 10
1279.9037782577
 20
684.6531960116
 30
0.0
 11
1284.0300588039
 21
682.9347307728
 31
0.0
  0
ARC
  5
1C1
  8
0
  6
CONTINUOUS
 62
     7
 10
1283.9049393092
 20
682.6352922097
 30
0.0
 40
0.3245278740545013
 50
359.854928167
 51
67.3225369748
  0
LINE
  5
1C2
  8
0
  6
CONTINUOUS
 62
     7
 10
1284.229466143
 20
682.6344705121
 30
0.0
 11
1284.229466143
 21
676.3024753825
 31
0.0
  0
ARC
  5
1C3
  8
0
  6
CONTINUOUS
 62
     7
 10
1283.9062074322
 20
676.3009970786
 30
0.0
 40
0.3232620909918794
 50
247.5596322566
 51
0.2620191842
  0
LINE
  5
1C4
  8
0
  6
CONTINUOUS
 62
     7
 10
1283.7828112868
 20
676.0022132592
 30
0.0
 11
1268.9364938167
 21
682.1751273171
 31
0.0
  0
ARC
  5
1C5
  8
0
  6
CONTINUOUS
 62
     7
 10
1268.8123980235
 20
681.8752768815
 30
0.0
 40
0.324515099204993
 50
67.5173433924
 51
180.0723579746
  0
LINE
  5
1C6
  8
0
  6
CONTINUOUS
 62
     7
 10
1268.4878831831
 20
681.8748670564
 30
0.0
 11
1268.4878831831
 21
678.0585772292
 31
0.0
  0
ARC
  5
1C7
  8
0
  6
CONTINUOUS
 62
     7
 10
1268.1631509156
 20
678.0583114538
 30
0.0
 40
0.3247323762727269
 50
270.0451258087
 51
0.0468934111
  0
LINE
  5
1C8
  8
0
  6
CONTINUOUS
 62
     7
 10
1262.3184485462
 20
677.7335791783
 30
0.0
 11
1268.1634066728
 21
677.7335791783
 31
0.0
  0
ARC
  5
1C9
  8
0
  6
CONTINUOUS
 62
     7
 10
1262.3184750932
 20
678.058555347
 30
0.0
 40
0.3249761698498566
 50
179.9961420077
 51
269.9953195685
  0
ARC
  5
1CA
  8
0
  6
CONTINUOUS
 62
     7
 10
1268.3749548706
 20
689.7957133995
 30
0.0
 40
0.3251724392476634
 50
112.573510096
 51
247.426489904
  0
LINE
  5
1CB
  8
0
  6
CONTINUOUS
 62
     7
 10
1273.2666967538
 20
687.41289479
 30
0.0
 11
1268.2501314309
 21
689.4954531388
 31
0.0
  0
ARC
  5
1CC
  8
0
  6
CONTINUOUS
 62
     7
 10
1273.3905985068
 20
687.7124273409
 30
0.0
 40
0.3241471786574201
 50
247.5275480064
 51
0.1286290265
  0
LINE
  5
1CD
  8
0
  6
CONTINUOUS
 62
     7
 10
1273.7147448686
 20
691.8782717483
 30
0.0
 11
1273.7147448686
 21
687.7131550507
 31
0.0
  0
ARC
  5
1CE
  8
0
  6
CONTINUOUS
 62
     7
 10
1273.3905985068
 20
691.8789994581
 30
0.0
 40
0.3241471786575252
 50
359.8713709736
 51
112.4724519936
  0
LINE
  5
1CF
  8
0
  6
CONTINUOUS
 62
     7
 10
1268.2501314309
 20
690.0959736602
 30
0.0
 11
1273.2666967538
 21
692.178532009
 31
0.0
  0
LINE
  5
1D0
  8
0
  6
CONTINUOUS
 62
     7
 10
1261.9934989241
 20
678.0585772292
 30
0.0
 11
1261.734766337
 21
678.0585772292
 31
0.0
  0
LINE
  5
1D1
  8
0
  6
CONTINUOUS
 62
     7
 10
1261.734766337
 20
678.0585772292
 30
0.0
 11
1261.734766337
 21
694.3206167714
 31
0.0
  0
LINE
  5
1D2
  8
0
  6
CONTINUOUS
 62
     7
 10
1261.9934989241
 20
694.3206167714
 30
0.0
 11
1261.734766337
 21
694.3206167714
 31
0.0
  0
ARC
  5
1D3
  8
0
  6
CONTINUOUS
 62
     7
 10
1262.0614172416
 20
694.319968818
 30
0.0
 40
0.3266515472959889
 50
112.8988697504
 51
179.8863467214
  0
LINE
  5
1D4
  8
0
  6
CONTINUOUS
 62
     7
 10
1262.1940983561
 20
694.6208779634
 30
0.0
 11
1261.9343152371
 21
694.6208779634
 31
0.0
  0
ARC
  5
1D5
  8
0
  6
CONTINUOUS
 62
     7
 10
1262.059265856
 20
678.0580766524
 30
0.0
 40
0.3244999051422481
 50
179.9116149182
 51
269.7782179515
  0
LINE
  5
1D6
  8
0
  6
CONTINUOUS
 62
     7
 10
1262.3184485462
 20
677.7335791783
 30
0.0
 11
1262.0580097762
 21
677.7335791783
 31
0.0
  0
LINE
  5
1D7
  8
0
  6
CONTINUOUS
 62
     7
 10
1283.409641507
 20
715.1229442031
 30
0.0
 11
1261.9343152371
 21
724.0912788482
 31
0.0
  0
LINE
  5
1D8
  8
0
  6
CONTINUOUS
 62
     7
 10
1283.7828112868
 20
715.1229442031
 30
0.0
 11
1283.409641507
 21
715.1229442031
 31
0.0
  0
LINE
  5
1D9
  8
0
  6
CONTINUOUS
 62
     7
 10
1261.9343152371
 20
694.6208779634
 30
0.0
 11
1283.409641507
 21
703.5892126085
 31
0.0
  0
LINE
  5
1DA
  8
0
  6
CONTINUOUS
 62
     7
 10
1283.7828112868
 20
703.5892126085
 30
0.0
 11
1283.409641507
 21
703.5892126085
 31
0.0
  0
ARC
  5
1DB
  8
0
  6
CONTINUOUS
 62
     7
 10
1262.3156142134
 20
728.7816893493
 30
0.0
 40
7.126120548914907
 50
357.5221239475
 51
91.9743993235
  0
LINE
  5
1DC
  8
0
  6
CONTINUOUS
 62
     7
 10
1269.7344584492
 20
728.4736013905
 30
0.0
 11
1269.4350717691
 21
728.4736013905
 31
0.0
  0
LINE
  5
1DD
  8
0
  6
CONTINUOUS
 62
     7
 10
1686.052495065
 20
788.7286185221
 30
0.0
 11
1686.052495065
 21
906.8560837702
 31
0.0
  0
ARC
  5
1DE
  8
0
  6
CONTINUOUS
 62
     7
 10
2098.8294518635
 20
711.7869237726
 30
0.0
 40
419.8866995449228
 50
169.4412323175
 51
178.9670925651
  0
LINE
  5
1DF
  8
0
  6
CONTINUOUS
 62
     7
 10
1662.5067828325
 20
699.3560786293
 30
0.0
 11
1662.5067828325
 21
719.3560781823
 31
0.0
  0
ARC
  5
1E0
  8
0
  6
CONTINUOUS
 62
     7
 10
2100.5017420437
 20
707.0949753394
 30
0.0
 40
421.5618009794733
 50
181.0518766816
 51
190.5397984357
  0
LINE
  5
1E1
  8
0
  6
CONTINUOUS
 62
     7
 10
1686.052495065
 20
511.8560730414
 30
0.0
 11
1686.052495065
 21
629.9835382895
 31
0.0
  0
ARC
  5
1E2
  8
0
  6
CONTINUOUS
 62
     7
 10
1273.3249153986
 20
709.3560784058
 30
0.0
 40
0.3259287612064134
 50
292.8909518623
 51
67.1090481377
  0
ARC
  5
1E3
  8
0
  6
CONTINUOUS
 62
     7
 10
1283.5166788425
 20
738.8474276428
 30
0.0
 40
0.2704058744768139
 50
86.1677295494
 51
125.4218969611
  0
LINE
  5
1E4
  8
0
  6
CONTINUOUS
 62
     7
 10
1274.75529668
 20
733.5313460724
 30
0.0
 11
1283.359953585
 21
739.067783107
 31
0.0
  0
LINE
  5
1E5
  8
0
  6
CONTINUOUS
 62
     7
 10
1283.409641507
 20
676.0022132592
 30
0.0
 11
1268.6412980881
 21
682.1751273171
 31
0.0
  0
ARC
  5
1E6
  8
0
  6
CONTINUOUS
 62
     7
 10
324.9602532057
 20
707.0949753394
 30
0.0
 40
421.5618009794732
 50
349.4602015643
 51
358.9481233184
  0
LINE
  5
1E7
  8
0
  6
CONTINUOUS
 62
     7
 10
762.955212417
 20
699.3560786293
 30
0.0
 11
762.955212417
 21
719.3560781823
 31
0.0
  0
ARC
  5
1E8
  8
0
  6
CONTINUOUS
 62
     7
 10
326.6325433859
 20
711.7869237726
 30
0.0
 40
419.8866995449225
 50
1.0329074349
 51
10.5587676825
  0
LINE
  5
1E9
  8
0
  6
CONTINUOUS
 62
     7
 10
739.4095001844
 20
826.3319297628
 30
0.0
 11
739.4095001844
 21
906.8560837702
 31
0.0
  0
LINE
  5
1EA
  8
0
  6
CONTINUOUS
 62
     7
 10
739.4095001844
 20
511.8560730414
 30
0.0
 11
739.4095001844
 21
575.4808126883
 31
0.0
  0
LINE
  5
1EB
  8
0
  6
CONTINUOUS
 62
     7
 10
739.4095001844
 20
591.4808600144
 30
0.0
 11
739.4095001844
 21
629.9835382895
 31
0.0
  0
LINE
  5
1EC
  8
0
  6
CONTINUOUS
 62
     7
 10
1283.7828112868
 20
676.0022132592
 30
0.0
 11
1283.409641507
 21
676.0022132592
 31
0.0
  0
LINE
  5
1ED
  8
0
  6
CONTINUOUS
 62
     7
 10
1273.7147448686
 20
691.8782717483
 30
0.0
 11
1273.3944518593
 21
691.8782717483
 31
0.0
  0
LINE
  5
1EE
  8
0
  6
CONTINUOUS
 62
     7
 10
1273.7147448686
 20
687.7131550507
 30
0.0
 11
1273.3944518593
 21
687.7131550507
 31
0.0
  0
LINE
  5
1EF
  8
0
  6
CONTINUOUS
 62
     7
 10
1273.3944518593
 20
691.8782717483
 30
0.0
 11
1273.3944518593
 21
687.7131550507
 31
0.0
  0
LINE
  5
1F0
  8
0
  6
CONTINUOUS
 62
     7
 10
1275.0827757743
 20
733.5313460724
 30
0.0
 11
1274.75529668
 21
733.5313460724
 31
0.0
  0
LINE
  5
1F1
  8
0
  6
CONTINUOUS
 62
     7
 10
1283.7328625944
 20
739.067783107
 30
0.0
 11
1283.359953585
 21
739.067783107
 31
0.0
  0
CIRCLE
  5
1F2
  8
0
  6
CONTINUOUS
 62
     7
 10
487.2298428944
 20
583.0830235782
 30
0.0
 40
44.99884956144842
  0
ARC
  5
1F3
  8
0
  6
CONTINUOUS
 62
     7
 10
487.2321209121
 20
582.4502874316
 30
0.0
 40
44.99890580572821
 50
280.2391836313
 51
359.9990602057
  0
ARC
  5
1F4
  8
0
  6
CONTINUOUS
 62
     7
 10
487.2298123754
 20
582.4502149403
 30
0.0
 40
44.99881904714086
 50
180.0008474949
 51
259.7609086681
  0
ARC
  5
1F5
  8
0
  6
CONTINUOUS
 62
     7
 10
487.232138636
 20
581.2631062051
 30
0.0
 40
62.99908267091782
 50
8.8885498349
 51
82.705562061
  0
ARC
  5
1F6
  8
0
  6
CONTINUOUS
 62
     7
 10
487.2297929967
 20
581.2631971121
 30
0.0
 40
62.99898127407885
 50
97.2943686787
 51
171.1115194254
  0
ARC
  5
1F7
  8
0
  6
CONTINUOUS
 62
     7
 10
487.2297391152
 20
581.2659843072
 30
0.0
 40
62.9988568576891
 50
185.7096845795
 51
262.7056662409
  0
ARC
  5
1F8
  8
0
  6
CONTINUOUS
 62
     7
 10
487.2323317424
 20
581.2659348808
 30
0.0
 40
62.99880137979861
 50
277.2942936277
 51
354.2903555519
  0
LINE
  5
1F9
  8
0
  6
CONTINUOUS
 62
     7
 10
542.7309809354
 20
611.0754474
 30
0.0
 11
542.7309809354
 21
859.3560843663
 31
0.0
  0
LINE
  5
1FA
  8
0
  6
CONTINUOUS
 62
     7
 10
655.382567468
 20
859.0223728613
 30
0.0
 11
577.7310071614
 21
859.0223728613
 31
0.0
  0
LINE
  5
1FB
  8
0
  6
CONTINUOUS
 62
     7
 10
655.382567468
 20
559.6897839503
 30
0.0
 11
577.7310071614
 21
559.6897839503
 31
0.0
  0
LINE
  5
1FC
  8
0
  6
CONTINUOUS
 62
     7
 10
577.7310071614
 20
559.6897839503
 30
0.0
 11
577.7310071614
 21
575.0691681103
 31
0.0
  0
LINE
  5
1FD
  8
0
  6
CONTINUOUS
 62
     7
 10
577.7310071614
 20
591.069222887
 30
0.0
 11
577.7310071614
 21
859.0223728613
 31
0.0
  0
LINE
  5
1FE
  8
0
  6
CONTINUOUS
 62
     7
 10
1770.0794277814
 20
559.6897839503
 30
0.0
 11
1847.730988088
 21
559.6897839503
 31
0.0
  0
LINE
  5
1FF
  8
0
  6
CONTINUOUS
 62
     7
 10
1847.730988088
 20
559.6897839503
 30
0.0
 11
1847.730988088
 21
859.0223728613
 31
0.0
  0
LINE
  5
200
  8
0
  6
CONTINUOUS
 62
     7
 10
1770.0794277814
 20
859.0223728613
 30
0.0
 11
1847.730988088
 21
859.0223728613
 31
0.0
  0
LINE
  5
201
  8
0
  6
CONTINUOUS
 62
     7
 10
1902.7309952405
 20
709.3560784058
 30
0.0
 11
1902.7309952405
 21
559.3560724453
 31
0.0
  0
LINE
  5
202
  8
0
  6
CONTINUOUS
 62
     7
 10
1902.7309952405
 20
859.3560843663
 30
0.0
 11
1902.7309952405
 21
709.3560784058
 31
0.0
  0
LINE
  5
203
  8
0
  6
CONTINUOUS
 62
     7
 10
1662.5067828325
 20
699.3560786293
 30
0.0
 11
1847.730988088
 21
699.3560786293
 31
0.0
  0
LINE
  5
204
  8
0
  6
CONTINUOUS
 62
     7
 10
1662.5067828325
 20
719.3560781823
 30
0.0
 11
1847.730988088
 21
719.3560781823
 31
0.0
  0
LINE
  5
205
  8
0
  6
CONTINUOUS
 62
     7
 10
762.955212417
 20
699.3560786293
 30
0.0
 11
577.7310071614
 21
699.3560786293
 31
0.0
  0
LINE
  5
206
  8
0
  6
CONTINUOUS
 62
     7
 10
762.955212417
 20
719.3560781823
 30
0.0
 11
577.7310071614
 21
719.3560781823
 31
0.0
  0
LINE
  5
207
  8
0
  6
CONTINUOUS
 62
     7
 10
524.7309742597
 20
631.886379321
 30
0.0
 11
524.7309742597
 21
851.8560766177
 31
0.0
  0
LINE
  5
208
  8
0
  6
CONTINUOUS
 62
     7
 10
431.7309795049
 20
809.2508180932
 30
0.0
 11
479.23099381
 21
809.2508180932
 31
0.0
  0
LINE
  5
209
  8
0
  6
CONTINUOUS
 62
     7
 10
495.2310262349
 20
809.2508180932
 30
0.0
 11
524.7309742597
 21
809.2508180932
 31
0.0
  0
LINE
  5
20A
  8
0
  6
CONTINUOUS
 62
     7
 10
431.7309795049
 20
621.4905842142
 30
0.0
 11
431.7309795049
 21
809.2508180932
 31
0.0
  0
LINE
  5
20B
  8
0
  6
CONTINUOUS
 62
     7
 10
528.9710102704
 20
530.2004455523
 30
0.0
 11
528.9710102704
 21
534.0777276949
 31
0.0
  0
LINE
  5
20C
  8
0
  6
CONTINUOUS
 62
     7
 10
528.9710102704
 20
530.2004455523
 30
0.0
 11
524.1261659291
 21
530.2004455523
 31
0.0
  0
LINE
  5
20D
  8
0
  6
CONTINUOUS
 62
     7
 10
450.3358541158
 20
530.2004455523
 30
0.0
 11
431.7309795049
 21
530.2004455523
 31
0.0
  0
LINE
  5
20E
  8
0
  6
CONTINUOUS
 62
     7
 10
438.8099847463
 20
621.5670420722
 30
0.0
 11
431.7309795049
 21
621.5670420722
 31
0.0
  0
LINE
  5
20F
  8
0
  6
CONTINUOUS
 62
     7
 10
431.7309795049
 20
530.2004455523
 30
0.0
 11
431.7309795049
 21
551.4538525538
 31
0.0
  0
LINE
  5
210
  8
0
  6
CONTINUOUS
 62
     7
 10
431.7309795049
 20
611.0754474
 30
0.0
 11
431.7309795049
 21
621.5670420722
 31
0.0
  0
LINE
  5
211
  8
0
  6
CONTINUOUS
 62
     7
 10
528.9710102704
 20
528.5251378016
 30
0.0
 11
521.6887531903
 21
528.5251378016
 31
0.0
  0
LINE
  5
212
  8
0
  6
CONTINUOUS
 62
     7
 10
452.7732668546
 20
528.5251378016
 30
0.0
 11
431.7309795049
 21
528.5251378016
 31
0.0
  0
LINE
  5
213
  8
0
  6
CONTINUOUS
 62
     7
 10
528.9710102704
 20
528.5251378016
 30
0.0
 11
528.9710102704
 21
530.2004455523
 31
0.0
  0
LINE
  5
214
  8
0
  6
CONTINUOUS
 62
     7
 10
431.7309795049
 20
528.5251378016
 30
0.0
 11
431.7309795049
 21
530.2004455523
 31
0.0
  0
LINE
  5
215
  8
0
  6
CONTINUOUS
 62
     7
 10
1686.052495065
 20
788.7286185221
 30
0.0
 11
1847.730988088
 21
788.7286185221
 31
0.0
  0
LINE
  5
216
  8
0
  6
CONTINUOUS
 62
     7
 10
739.4095001844
 20
788.7286185221
 30
0.0
 11
577.7310071614
 21
788.7286185221
 31
0.0
  0
LINE
  5
217
  8
0
  6
CONTINUOUS
 62
     7
 10
1686.052495065
 20
629.9835382895
 30
0.0
 11
1847.730988088
 21
629.9835382895
 31
0.0
  0
LINE
  5
218
  8
0
  6
CONTINUOUS
 62
     7
 10
739.4095001844
 20
629.9835382895
 30
0.0
 11
577.7310071614
 21
629.9835382895
 31
0.0
  0
LINE
  5
219
  8
0
  6
CONTINUOUS
 62
     7
 10
428.7310181287
 20
709.9173949034
 30
0.0
 11
428.7310181287
 21
774.3560760216
 31
0.0
  0
LINE
  5
21A
  8
0
  6
CONTINUOUS
 62
     7
 10
428.7310181287
 20
644.35608079
 30
0.0
 11
428.7310181287
 21
709.9173949034
 31
0.0
  0
LINE
  5
21B
  8
0
  6
CONTINUOUS
 62
     7
 10
421.7309890416
 20
709.8569454327
 30
0.0
 11
421.7309890416
 21
767.3560767369
 31
0.0
  0
LINE
  5
21C
  8
0
  6
CONTINUOUS
 62
     7
 10
421.7309890416
 20
651.3560800747
 30
0.0
 11
421.7309890416
 21
709.8569454327
 31
0.0
  0
LINE
  5
21D
  8
0
  6
CONTINUOUS
 62
     7
 10
712.2309742597
 20
961.3560824589
 30
0.0
 11
1713.2310209897
 21
961.3560824589
 31
0.0
  0
LINE
  5
21E
  8
0
  6
CONTINUOUS
 62
     7
 10
712.2309742597
 20
457.3560743527
 30
0.0
 11
786.5135906366
 21
457.3560743527
 31
0.0
  0
LINE
  5
21F
  8
0
  6
CONTINUOUS
 62
     7
 10
813.4991465238
 20
457.3560743527
 30
0.0
 11
1713.2310209897
 21
457.3560743527
 31
0.0
  0
LINE
  5
220
  8
0
  6
CONTINUOUS
 62
     7
 10
739.4095001844
 20
511.8560730414
 30
0.0
 11
804.0465055135
 21
511.8560730414
 31
0.0
  0
LINE
  5
221
  8
0
  6
CONTINUOUS
 62
     7
 10
829.7294912961
 20
511.8560730414
 30
0.0
 11
1186.5600658682
 21
511.8560730414
 31
0.0
  0
LINE
  5
222
  8
0
  6
CONTINUOUS
 62
     7
 10
1882.731014314
 20
559.3560724453
 30
0.0
 11
1882.731014314
 21
859.3560843663
 31
0.0
  0
LINE
  5
223
  8
FORMAT
  6
CENTERX2
 10
1212.7309976247
 20
366.7178692053
 30
0.0
 11
1212.7309976247
 21
1007.8786335199
 31
0.0
  0
LINE
  5
224
  8
FORMAT
  6
CENTERX2
 10
355.2771496673
 20
709.3560784059
 30
0.0
 11
1940.6103687838
 21
709.3560784057
 31
0.0
  0
ARC
  5
225
  8
0
  6
CONTINUOUS
 62
     7
 10
2221.4388316695
 20
2237.8782905061
 30
0.0
 40
12.50000000000021
 50
90.4947917951
 51
270.4947917951
  0
ARC
  5
226
  8
0
  6
CONTINUOUS
 62
     7
 10
2896.4136623895
 20
2243.7073465617
 30
0.0
 40
12.5000000000002
 50
270.4947917951
 51
90.4947917951
  0
POLYLINE
  5
227
  8
0
  6
CONTINUOUS
 62
     7
 66
     1
 10
0.0
 20
0.0
 30
0.0
  0
VERTEX
  5
56F
  8
0
  6
CONTINUOUS
 62
     7
 10
2221.5467799102
 20
2225.3787654913
 30
0.0
  0
VERTEX
  5
570
  8
0
  6
CONTINUOUS
 62
     7
 10
2221.7237610017
 20
2225.3802854097
 30
0.0
  0
VERTEX
  5
571
  8
0
  6
CONTINUOUS
 62
     7
 10
2222.2545403634
 20
2225.3848749674
 30
0.0
  0
VERTEX
  5
572
  8
0
  6
CONTINUOUS
 62
     7
 10
2223.1385666524
 20
2225.3925043619
 30
0.0
  0
VERTEX
  5
573
  8
0
  6
CONTINUOUS
 62
     7
 10
2224.3748861943
 20
2225.4031735933
 30
0.0
  0
VERTEX
  5
574
  8
0
  6
CONTINUOUS
 62
     7
 10
2225.9622174893
 20
2225.4168826616
 30
0.0
  0
VERTEX
  5
575
  8
0
  6
CONTINUOUS
 62
     7
 10
2227.8989065085
 20
2225.4336017645
 30
0.0
  0
VERTEX
  5
576
  8
0
  6
CONTINUOUS
 62
     7
 10
2230.1828968917
 20
2225.4533309019
 30
0.0
  0
VERTEX
  5
577
  8
0
  6
CONTINUOUS
 62
     7
 10
2232.8118193541
 20
2225.4760402715
 30
0.0
  0
VERTEX
  5
578
  8
0
  6
CONTINUOUS
 62
     7
 10
2235.7829022799
 20
2225.5017000711
 30
0.0
  0
VERTEX
  5
579
  8
0
  6
CONTINUOUS
 62
     7
 10
2239.0930313264
 20
2225.5302804983
 30
0.0
  0
VERTEX
  5
57A
  8
0
  6
CONTINUOUS
 62
     7
 10
2242.7387196217
 20
2225.5617815531
 30
0.0
  0
VERTEX
  5
57B
  8
0
  6
CONTINUOUS
 62
     7
 10
2246.7161673699
 20
2225.5961138284
 30
0.0
  0
VERTEX
  5
57C
  8
0
  6
CONTINUOUS
 62
     7
 10
2251.0212022458
 20
2225.6333071268
 30
0.0
  0
VERTEX
  5
57D
  8
0
  6
CONTINUOUS
 62
     7
 10
2255.6492942963
 20
2225.6732720411
 30
0.0
  0
VERTEX
  5
57E
  8
0
  6
CONTINUOUS
 62
     7
 10
2260.595585743
 20
2225.7159787691
 30
0.0
  0
VERTEX
  5
57F
  8
0
  6
CONTINUOUS
 62
     7
 10
2265.8549207841
 20
2225.7613975084
 30
0.0
  0
VERTEX
  5
580
  8
0
  6
CONTINUOUS
 62
     7
 10
2271.4217412864
 20
2225.8094686544
 30
0.0
  0
VERTEX
  5
581
  8
0
  6
CONTINUOUS
 62
     7
 10
2277.290235797
 20
2225.8601624048
 30
0.0
  0
VERTEX
  5
582
  8
0
  6
CONTINUOUS
 62
     7
 10
2283.4542352353
 20
2225.9133893526
 30
0.0
  0
VERTEX
  5
583
  8
0
  6
CONTINUOUS
 62
     7
 10
2289.9072724973
 20
2225.9691196955
 30
0.0
  0
VERTEX
  5
584
  8
0
  6
CONTINUOUS
 62
     7
 10
2296.6425973569
 20
2226.0272938288
 30
0.0
  0
VERTEX
  5
585
  8
0
  6
CONTINUOUS
 62
     7
 10
2303.6531466637
 20
2226.0878223455
 30
0.0
  0
VERTEX
  5
586
  8
0
  6
CONTINUOUS
 62
     7
 10
2310.9315368925
 20
2226.1506754434
 30
0.0
  0
VERTEX
  5
587
  8
0
  6
CONTINUOUS
 62
     7
 10
2318.4701610003
 20
2226.2157935179
 30
0.0
  0
VERTEX
  5
588
  8
0
  6
CONTINUOUS
 62
     7
 10
2326.2610990201
 20
2226.2830573595
 30
0.0
  0
VERTEX
  5
589
  8
0
  6
CONTINUOUS
 62
     7
 10
2334.2961851154
 20
2226.3524669683
 30
0.0
  0
VERTEX
  5
58A
  8
0
  6
CONTINUOUS
 62
     7
 10
2342.5669926797
 20
2226.4238733328
 30
0.0
  0
VERTEX
  5
58B
  8
0
  6
CONTINUOUS
 62
     7
 10
2351.0648417865
 20
2226.4972764528
 30
0.0
  0
VERTEX
  5
58C
  8
0
  6
CONTINUOUS
 62
     7
 10
2359.7808215414
 20
2226.5725273168
 30
0.0
  0
VERTEX
  5
58D
  8
0
  6
CONTINUOUS
 62
     7
 10
2368.7057900821
 20
2226.6496259249
 30
0.0
  0
VERTEX
  5
58E
  8
0
  6
CONTINUOUS
 62
     7
 10
2377.8303894792
 20
2226.7284232652
 30
0.0
  0
VERTEX
  5
58F
  8
0
  6
CONTINUOUS
 62
     7
 10
2387.1450457369
 20
2226.8088597334
 30
0.0
  0
VERTEX
  5
590
  8
0
  6
CONTINUOUS
 62
     7
 10
2396.6399911438
 20
2226.8908459223
 30
0.0
  0
VERTEX
  5
591
  8
0
  6
CONTINUOUS
 62
     7
 10
2406.3052661364
 20
2226.9743222273
 30
0.0
  0
VERTEX
  5
592
  8
0
  6
CONTINUOUS
 62
     7
 10
2416.1307304744
 20
2227.0591694391
 30
0.0
  0
VERTEX
  5
593
  8
0
  6
CONTINUOUS
 62
     7
 10
2426.106081402
 20
2227.1453279531
 30
0.0
  0
VERTEX
  5
594
  8
0
  6
CONTINUOUS
 62
     7
 10
2436.2208559756
 20
2227.23267856
 30
0.0
  0
VERTEX
  5
595
  8
0
  6
CONTINUOUS
 62
     7
 10
2446.4644441028
 20
2227.3211318529
 30
0.0
  0
VERTEX
  5
596
  8
0
  6
CONTINUOUS
 62
     7
 10
2456.8261034433
 20
2227.410628227
 30
0.0
  0
VERTEX
  5
597
  8
0
  6
CONTINUOUS
 62
     7
 10
2467.2949645315
 20
2227.5010186708
 30
0.0
  0
VERTEX
  5
598
  8
0
  6
CONTINUOUS
 62
     7
 10
2477.8600480054
 20
2227.592273382
 30
0.0
  0
VERTEX
  5
599
  8
0
  6
CONTINUOUS
 62
     7
 10
2488.5102692638
 20
2227.6842433489
 30
0.0
  0
VERTEX
  5
59A
  8
0
  6
CONTINUOUS
 62
     7
 10
2499.2344636117
 20
2227.7768689668
 30
0.0
  0
VERTEX
  5
59B
  8
0
  6
CONTINUOUS
 62
     7
 10
2510.021376947
 20
2227.8700012243
 30
0.0
  0
VERTEX
  5
59C
  8
0
  6
CONTINUOUS
 62
     7
 10
2520.8596992884
 20
2227.9636103189
 30
0.0
  0
VERTEX
  5
59D
  8
0
  6
CONTINUOUS
 62
     7
 10
2531.73806105
 20
2228.0575472391
 30
0.0
  0
VERTEX
  5
59E
  8
0
  6
CONTINUOUS
 62
     7
 10
2542.6450553928
 20
2228.1517523802
 30
0.0
  0
VERTEX
  5
59F
  8
0
  6
CONTINUOUS
 62
     7
 10
2553.5692382251
 20
2228.2460767305
 30
0.0
  0
VERTEX
  5
5A0
  8
0
  6
CONTINUOUS
 62
     7
 10
2564.4991505538
 20
2228.3404904878
 30
0.0
  0
VERTEX
  5
5A1
  8
0
  6
CONTINUOUS
 62
     7
 10
2575.4233259354
 20
2228.4348148382
 30
0.0
  0
VERTEX
  5
5A2
  8
0
  6
CONTINUOUS
 62
     7
 10
2586.3303202782
 20
2228.5290199793
 30
0.0
  0
VERTEX
  5
5A3
  8
0
  6
CONTINUOUS
 62
     7
 10
2597.2086894904
 20
2228.6229568994
 30
0.0
  0
VERTEX
  5
5A4
  8
0
  6
CONTINUOUS
 62
     7
 10
2608.0470043813
 20
2228.7165659941
 30
0.0
  0
VERTEX
  5
5A5
  8
0
  6
CONTINUOUS
 62
     7
 10
2618.8339251672
 20
2228.8096982515
 30
0.0
  0
VERTEX
  5
5A6
  8
0
  6
CONTINUOUS
 62
     7
 10
2629.5581120644
 20
2228.9023238695
 30
0.0
  0
VERTEX
  5
5A7
  8
0
  6
CONTINUOUS
 62
     7
 10
2640.2083444987
 20
2228.9942938364
 30
0.0
  0
VERTEX
  5
5A8
  8
0
  6
CONTINUOUS
 62
     7
 10
2650.7734167968
 20
2229.0855485475
 30
0.0
  0
VERTEX
  5
5A9
  8
0
  6
CONTINUOUS
 62
     7
 10
2661.2422871981
 20
2229.1759389913
 30
0.0
  0
VERTEX
  5
5AA
  8
0
  6
CONTINUOUS
 62
     7
 10
2671.6039437447
 20
2229.2654353655
 30
0.0
  0
VERTEX
  5
5AB
  8
0
  6
CONTINUOUS
 62
     7
 10
2681.84752349
 20
2229.3538886583
 30
0.0
  0
VERTEX
  5
5AC
  8
0
  6
CONTINUOUS
 62
     7
 10
2691.962297598
 20
2229.4412392652
 30
0.0
  0
VERTEX
  5
5AD
  8
0
  6
CONTINUOUS
 62
     7
 10
2701.9376415406
 20
2229.5273977793
 30
0.0
  0
VERTEX
  5
5AE
  8
0
  6
CONTINUOUS
 62
     7
 10
2711.763109604
 20
2229.6122449911
 30
0.0
  0
VERTEX
  5
5AF
  8
0
  6
CONTINUOUS
 62
     7
 10
2721.4283901845
 20
2229.6957212961
 30
0.0
  0
VERTEX
  5
5B0
  8
0
  6
CONTINUOUS
 62
     7
 10
2730.9233504926
 20
2229.777707485
 30
0.0
  0
VERTEX
  5
5B1
  8
0
  6
CONTINUOUS
 62
     7
 10
2740.2380067502
 20
2229.8581439531
 30
0.0
  0
VERTEX
  5
5B2
  8
0
  6
CONTINUOUS
 62
     7
 10
2749.3625837956
 20
2229.9369412935
 30
0.0
  0
VERTEX
  5
5B3
  8
0
  6
CONTINUOUS
 62
     7
 10
2758.287574688
 20
2230.0140399015
 30
0.0
  0
VERTEX
  5
5B4
  8
0
  6
CONTINUOUS
 62
     7
 10
2767.0035320912
 20
2230.0892907656
 30
0.0
  0
VERTEX
  5
5B5
  8
0
  6
CONTINUOUS
 62
     7
 10
2775.5013960992
 20
2230.1626938856
 30
0.0
  0
VERTEX
  5
5B6
  8
0
  6
CONTINUOUS
 62
     7
 10
2783.7721962128
 20
2230.23410025
 30
0.0
  0
VERTEX
  5
5B7
  8
0
  6
CONTINUOUS
 62
     7
 10
2791.8072897588
 20
2230.3035098589
 30
0.0
  0
VERTEX
  5
5B8
  8
0
  6
CONTINUOUS
 62
     7
 10
2799.5982128773
 20
2230.3707737005
 30
0.0
  0
VERTEX
  5
5B9
  8
0
  6
CONTINUOUS
 62
     7
 10
2807.1368593369
 20
2230.4358917749
 30
0.0
  0
VERTEX
  5
5BA
  8
0
  6
CONTINUOUS
 62
     7
 10
2814.4152421151
 20
2230.4987448728
 30
0.0
  0
VERTEX
  5
5BB
  8
0
  6
CONTINUOUS
 62
     7
 10
2821.425791422
 20
2230.5592733896
 30
0.0
  0
VERTEX
  5
5BC
  8
0
  6
CONTINUOUS
 62
     7
 10
2828.1611162816
 20
2230.6174475229
 30
0.0
  0
VERTEX
  5
5BD
  8
0
  6
CONTINUOUS
 62
     7
 10
2834.6141535435
 20
2230.6731778658
 30
0.0
  0
VERTEX
  5
5BE
  8
0
  6
CONTINUOUS
 62
     7
 10
2840.778167883
 20
2230.7264048136
 30
0.0
  0
VERTEX
  5
5BF
  8
0
  6
CONTINUOUS
 62
     7
 10
2846.6466325913
 20
2230.7770985639
 30
0.0
  0
VERTEX
  5
5C0
  8
0
  6
CONTINUOUS
 62
     7
 10
2852.2134679948
 20
2230.8251697099
 30
0.0
  0
VERTEX
  5
5C1
  8
0
  6
CONTINUOUS
 62
     7
 10
2857.4728030358
 20
2230.8705884493
 30
0.0
  0
VERTEX
  5
5C2
  8
0
  6
CONTINUOUS
 62
     7
 10
2862.4190944825
 20
2230.9132951772
 30
0.0
  0
VERTEX
  5
5C3
  8
0
  6
CONTINUOUS
 62
     7
 10
2867.0471865331
 20
2230.9532600916
 30
0.0
  0
VERTEX
  5
5C4
  8
0
  6
CONTINUOUS
 62
     7
 10
2871.3522214089
 20
2230.9904533899
 30
0.0
  0
VERTEX
  5
5C5
  8
0
  6
CONTINUOUS
 62
     7
 10
2875.3296691571
 20
2231.0247856653
 30
0.0
  0
VERTEX
  5
5C6
  8
0
  6
CONTINUOUS
 62
     7
 10
2878.9753574525
 20
2231.0562867201
 30
0.0
  0
VERTEX
  5
5C7
  8
0
  6
CONTINUOUS
 62
     7
 10
2882.2854715977
 20
2231.0848671472
 30
0.0
  0
VERTEX
  5
5C8
  8
0
  6
CONTINUOUS
 62
     7
 10
2885.2565545235
 20
2231.1105269468
 30
0.0
  0
VERTEX
  5
5C9
  8
0
  6
CONTINUOUS
 62
     7
 10
2887.885476986
 20
2231.1332363165
 30
0.0
  0
VERTEX
  5
5CA
  8
0
  6
CONTINUOUS
 62
     7
 10
2890.1694673692
 20
2231.1529654539
 30
0.0
  0
VERTEX
  5
5CB
  8
0
  6
CONTINUOUS
 62
     7
 10
2892.1061712895
 20
2231.1696845567
 30
0.0
  0
VERTEX
  5
5CC
  8
0
  6
CONTINUOUS
 62
     7
 10
2893.6935025845
 20
2231.183393625
 30
0.0
  0
VERTEX
  5
5CD
  8
0
  6
CONTINUOUS
 62
     7
 10
2894.9298221265
 20
2231.1940628565
 30
0.0
  0
VERTEX
  5
5CE
  8
0
  6
CONTINUOUS
 62
     7
 10
2895.8138484155
 20
2231.201692251
 30
0.0
  0
VERTEX
  5
5CF
  8
0
  6
CONTINUOUS
 62
     7
 10
2896.3446277772
 20
2231.2062818086
 30
0.0
  0
VERTEX
  5
5D0
  8
0
  6
CONTINUOUS
 62
     7
 10
2896.5215939675
 20
2231.2078017271
 30
0.0
  0
SEQEND
  5
6FF
  8
0
  6
CONTINUOUS
 62
     7
  0
POLYLINE
  5
228
  8
0
  6
CONTINUOUS
 62
     7
 66
     1
 10
0.0
 20
0.0
 30
0.0
  0
VERTEX
  5
5D1
  8
0
  6
CONTINUOUS
 62
     7
 10
2896.3057059441
 20
2256.2068540132
 30
0.0
  0
VERTEX
  5
5D2
  8
0
  6
CONTINUOUS
 62
     7
 10
2896.1287397538
 20
2256.2053638971
 30
0.0
  0
VERTEX
  5
5D3
  8
0
  6
CONTINUOUS
 62
     7
 10
2895.5979603921
 20
2256.2007743395
 30
0.0
  0
VERTEX
  5
5D4
  8
0
  6
CONTINUOUS
 62
     7
 10
2894.7139341031
 20
2256.1931449449
 30
0.0
  0
VERTEX
  5
5D5
  8
0
  6
CONTINUOUS
 62
     7
 10
2893.4776145612
 20
2256.1824757135
 30
0.0
  0
VERTEX
  5
5D6
  8
0
  6
CONTINUOUS
 62
     7
 10
2891.8902832661
 20
2256.1687666452
 30
0.0
  0
VERTEX
  5
5D7
  8
0
  6
CONTINUOUS
 62
     7
 10
2889.9535793458
 20
2256.15201774
 30
0.0
  0
VERTEX
  5
5D8
  8
0
  6
CONTINUOUS
 62
     7
 10
2887.6695889626
 20
2256.1322886026
 30
0.0
  0
VERTEX
  5
5D9
  8
0
  6
CONTINUOUS
 62
     7
 10
2885.0406665002
 20
2256.109579233
 30
0.0
  0
VERTEX
  5
5DA
  8
0
  6
CONTINUOUS
 62
     7
 10
2882.0695835744
 20
2256.0839492357
 30
0.0
  0
VERTEX
  5
5DB
  8
0
  6
CONTINUOUS
 62
     7
 10
2878.7594694291
 20
2256.0553390062
 30
0.0
  0
VERTEX
  5
5DC
  8
0
  6
CONTINUOUS
 62
     7
 10
2875.1137811337
 20
2256.0238677538
 30
0.0
  0
VERTEX
  5
5DD
  8
0
  6
CONTINUOUS
 62
     7
 10
2871.1363333855
 20
2255.9895354784
 30
0.0
  0
VERTEX
  5
5DE
  8
0
  6
CONTINUOUS
 62
     7
 10
2866.8312985097
 20
2255.95234218
 30
0.0
  0
VERTEX
  5
5DF
  8
0
  6
CONTINUOUS
 62
     7
 10
2862.2032064591
 20
2255.9123474634
 30
0.0
  0
VERTEX
  5
5E0
  8
0
  6
CONTINUOUS
 62
     7
 10
2857.2569150124
 20
2255.8696705377
 30
0.0
  0
VERTEX
  5
5E1
  8
0
  6
CONTINUOUS
 62
     7
 10
2851.9975799714
 20
2255.8242517984
 30
0.0
  0
VERTEX
  5
5E2
  8
0
  6
CONTINUOUS
 62
     7
 10
2846.4307445679
 20
2255.7761508501
 30
0.0
  0
VERTEX
  5
5E3
  8
0
  6
CONTINUOUS
 62
     7
 10
2840.5622500573
 20
2255.725486902
 30
0.0
  0
VERTEX
  5
5E4
  8
0
  6
CONTINUOUS
 62
     7
 10
2834.3982655202
 20
2255.6722599542
 30
0.0
  0
VERTEX
  5
5E5
  8
0
  6
CONTINUOUS
 62
     7
 10
2827.9452282582
 20
2255.6165296114
 30
0.0
  0
VERTEX
  5
5E6
  8
0
  6
CONTINUOUS
 62
     7
 10
2821.2099033986
 20
2255.5583554781
 30
0.0
  0
VERTEX
  5
5E7
  8
0
  6
CONTINUOUS
 62
     7
 10
2814.1993540917
 20
2255.497797159
 30
0.0
  0
VERTEX
  5
5E8
  8
0
  6
CONTINUOUS
 62
     7
 10
2806.9209713136
 20
2255.4349738634
 30
0.0
  0
VERTEX
  5
5E9
  8
0
  6
CONTINUOUS
 62
     7
 10
2799.382324854
 20
2255.3698259867
 30
0.0
  0
VERTEX
  5
5EA
  8
0
  6
CONTINUOUS
 62
     7
 10
2791.5914017354
 20
2255.3025919473
 30
0.0
  0
VERTEX
  5
5EB
  8
0
  6
CONTINUOUS
 62
     7
 10
2783.5563081895
 20
2255.2331525362
 30
0.0
  0
VERTEX
  5
5EC
  8
0
  6
CONTINUOUS
 62
     7
 10
2775.2855080758
 20
2255.1617461717
 30
0.0
  0
VERTEX
  5
5ED
  8
0
  6
CONTINUOUS
 62
     7
 10
2766.7876440678
 20
2255.088372854
 30
0.0
  0
VERTEX
  5
5EE
  8
0
  6
CONTINUOUS
 62
     7
 10
2758.0716866647
 20
2255.0130921877
 30
0.0
  0
VERTEX
  5
5EF
  8
0
  6
CONTINUOUS
 62
     7
 10
2749.1466957722
 20
2254.936023382
 30
0.0
  0
VERTEX
  5
5F0
  8
0
  6
CONTINUOUS
 62
     7
 10
2740.0220889245
 20
2254.8572260416
 30
0.0
  0
VERTEX
  5
5F1
  8
0
  6
CONTINUOUS
 62
     7
 10
2730.7074326669
 20
2254.7767597711
 30
0.0
  0
VERTEX
  5
5F2
  8
0
  6
CONTINUOUS
 62
     7
 10
2721.2125021611
 20
2254.6948033846
 30
0.0
  0
VERTEX
  5
5F3
  8
0
  6
CONTINUOUS
 62
     7
 10
2711.5472215806
 20
2254.6112972772
 30
0.0
  0
VERTEX
  5
5F4
  8
0
  6
CONTINUOUS
 62
     7
 10
2701.7217535172
 20
2254.5264798677
 30
0.0
  0
VERTEX
  5
5F5
  8
0
  6
CONTINUOUS
 62
     7
 10
2691.7464095746
 20
2254.4402915514
 30
0.0
  0
VERTEX
  5
5F6
  8
0
  6
CONTINUOUS
 62
     7
 10
2681.6316354667
 20
2254.3529707468
 30
0.0
  0
VERTEX
  5
5F7
  8
0
  6
CONTINUOUS
 62
     7
 10
2671.3880557214
 20
2254.2645174539
 30
0.0
  0
VERTEX
  5
5F8
  8
0
  6
CONTINUOUS
 62
     7
 10
2661.0263842736
 20
2254.1749912775
 30
0.0
  0
VERTEX
  5
5F9
  8
0
  6
CONTINUOUS
 62
     7
 10
2650.5575287734
 20
2254.084630636
 30
0.0
  0
VERTEX
  5
5FA
  8
0
  6
CONTINUOUS
 62
     7
 10
2639.9924415742
 20
2253.9933759249
 30
0.0
  0
VERTEX
  5
5FB
  8
0
  6
CONTINUOUS
 62
     7
 10
2629.3422240411
 20
2253.901405958
 30
0.0
  0
VERTEX
  5
5FC
  8
0
  6
CONTINUOUS
 62
     7
 10
2618.6180371438
 20
2253.80878034
 30
0.0
  0
VERTEX
  5
5FD
  8
0
  6
CONTINUOUS
 62
     7
 10
2607.8311163579
 20
2253.7156182802
 30
0.0
  0
VERTEX
  5
5FE
  8
0
  6
CONTINUOUS
 62
     7
 10
2596.992801467
 20
2253.6220389879
 30
0.0
  0
VERTEX
  5
5FF
  8
0
  6
CONTINUOUS
 62
     7
 10
2586.1144322549
 20
2253.5281020677
 30
0.0
  0
VERTEX
  5
600
  8
0
  6
CONTINUOUS
 62
     7
 10
2575.2074379121
 20
2253.4338671243
 30
0.0
  0
VERTEX
  5
601
  8
0
  6
CONTINUOUS
 62
     7
 10
2564.2832625304
 20
2253.3395725763
 30
0.0
  0
VERTEX
  5
602
  8
0
  6
CONTINUOUS
 62
     7
 10
2553.3533427511
 20
2253.245158819
 30
0.0
  0
VERTEX
  5
603
  8
0
  6
CONTINUOUS
 62
     7
 10
2542.4291599189
 20
2253.1508046663
 30
0.0
  0
VERTEX
  5
604
  8
0
  6
CONTINUOUS
 62
     7
 10
2531.5221730266
 20
2253.0566293276
 30
0.0
  0
VERTEX
  5
605
  8
0
  6
CONTINUOUS
 62
     7
 10
2520.6438112651
 20
2252.9626924074
 30
0.0
  0
VERTEX
  5
606
  8
0
  6
CONTINUOUS
 62
     7
 10
2509.8054889236
 20
2252.8690535105
 30
0.0
  0
VERTEX
  5
607
  8
0
  6
CONTINUOUS
 62
     7
 10
2499.0185681377
 20
2252.7759510553
 30
0.0
  0
VERTEX
  5
608
  8
0
  6
CONTINUOUS
 62
     7
 10
2488.2943775152
 20
2252.6833254373
 30
0.0
  0
VERTEX
  5
609
  8
0
  6
CONTINUOUS
 62
     7
 10
2477.6441562568
 20
2252.5913554704
 30
0.0
  0
VERTEX
  5
60A
  8
0
  6
CONTINUOUS
 62
     7
 10
2467.0790727828
 20
2252.5001007593
 30
0.0
  0
VERTEX
  5
60B
  8
0
  6
CONTINUOUS
 62
     7
 10
2456.6102116947
 20
2252.4096805132
 30
0.0
  0
VERTEX
  5
60C
  8
0
  6
CONTINUOUS
 62
     7
 10
2446.2485532854
 20
2252.3202139414
 30
0.0
  0
VERTEX
  5
60D
  8
0
  6
CONTINUOUS
 62
     7
 10
2436.0049649254
 20
2252.2317606485
 30
0.0
  0
VERTEX
  5
60E
  8
0
  6
CONTINUOUS
 62
     7
 10
2425.8901905846
 20
2252.1443802393
 30
0.0
  0
VERTEX
  5
60F
  8
0
  6
CONTINUOUS
 62
     7
 10
2415.9148387258
 20
2252.0582515276
 30
0.0
  0
VERTEX
  5
610
  8
0
  6
CONTINUOUS
 62
     7
 10
2406.0893743877
 20
2251.9733745134
 30
0.0
  0
VERTEX
  5
611
  8
0
  6
CONTINUOUS
 62
     7
 10
2396.4240993951
 20
2251.8899280107
 30
0.0
  0
VERTEX
  5
612
  8
0
  6
CONTINUOUS
 62
     7
 10
2386.9291577135
 20
2251.8079120195
 30
0.0
  0
VERTEX
  5
613
  8
0
  6
CONTINUOUS
 62
     7
 10
2377.6145014559
 20
2251.7275053537
 30
0.0
  0
VERTEX
  5
614
  8
0
  6
CONTINUOUS
 62
     7
 10
2368.4899020587
 20
2251.6487080133
 30
0.0
  0
VERTEX
  5
615
  8
0
  6
CONTINUOUS
 62
     7
 10
2359.564933518
 20
2251.571579603
 30
0.0
  0
VERTEX
  5
616
  8
0
  6
CONTINUOUS
 62
     7
 10
2350.8489463125
 20
2251.4963585413
 30
0.0
  0
VERTEX
  5
617
  8
0
  6
CONTINUOUS
 62
     7
 10
2342.3510972057
 20
2251.4229256189
 30
0.0
  0
VERTEX
  5
618
  8
0
  6
CONTINUOUS
 62
     7
 10
2334.080297092
 20
2251.3515192545
 30
0.0
  0
VERTEX
  5
619
  8
0
  6
CONTINUOUS
 62
     7
 10
2326.0452035461
 20
2251.282139448
 30
0.0
  0
VERTEX
  5
61A
  8
0
  6
CONTINUOUS
 62
     7
 10
2318.2542655264
 20
2251.214845804
 30
0.0
  0
VERTEX
  5
61B
  8
0
  6
CONTINUOUS
 62
     7
 10
2310.7156488691
 20
2251.1497575319
 30
0.0
  0
VERTEX
  5
61C
  8
0
  6
CONTINUOUS
 62
     7
 10
2303.4372437392
 20
2251.0868746317
 30
0.0
  0
VERTEX
  5
61D
  8
0
  6
CONTINUOUS
 62
     7
 10
2296.4267093335
 20
2251.0263759172
 30
0.0
  0
VERTEX
  5
61E
  8
0
  6
CONTINUOUS
 62
     7
 10
2289.6913844739
 20
2250.9682017839
 30
0.0
  0
VERTEX
  5
61F
  8
0
  6
CONTINUOUS
 62
     7
 10
2283.2383472119
 20
2250.9124714411
 30
0.0
  0
VERTEX
  5
620
  8
0
  6
CONTINUOUS
 62
     7
 10
2277.0743328725
 20
2250.8592444933
 30
0.0
  0
VERTEX
  5
621
  8
0
  6
CONTINUOUS
 62
     7
 10
2271.205853263
 20
2250.8085209406
 30
0.0
  0
VERTEX
  5
622
  8
0
  6
CONTINUOUS
 62
     7
 10
2265.6390178595
 20
2250.7604795969
 30
0.0
  0
VERTEX
  5
623
  8
0
  6
CONTINUOUS
 62
     7
 10
2260.3796977197
 20
2250.7150608576
 30
0.0
  0
VERTEX
  5
624
  8
0
  6
CONTINUOUS
 62
     7
 10
2255.433406273
 20
2250.6723243273
 30
0.0
  0
VERTEX
  5
625
  8
0
  6
CONTINUOUS
 62
     7
 10
2250.8053142224
 20
2250.6323892153
 30
0.0
  0
VERTEX
  5
626
  8
0
  6
CONTINUOUS
 62
     7
 10
2246.5002793465
 20
2250.5951959169
 30
0.0
  0
VERTEX
  5
627
  8
0
  6
CONTINUOUS
 62
     7
 10
2242.5228315984
 20
2250.5608636415
 30
0.0
  0
VERTEX
  5
628
  8
0
  6
CONTINUOUS
 62
     7
 10
2238.8771284018
 20
2250.5293327844
 30
0.0
  0
VERTEX
  5
629
  8
0
  6
CONTINUOUS
 62
     7
 10
2235.5670142566
 20
2250.5007821596
 30
0.0
  0
VERTEX
  5
62A
  8
0
  6
CONTINUOUS
 62
     7
 10
2232.5959313308
 20
2250.4750925577
 30
0.0
  0
VERTEX
  5
62B
  8
0
  6
CONTINUOUS
 62
     7
 10
2229.9670088683
 20
2250.452383188
 30
0.0
  0
VERTEX
  5
62C
  8
0
  6
CONTINUOUS
 62
     7
 10
2227.6830184851
 20
2250.4326540506
 30
0.0
  0
VERTEX
  5
62D
  8
0
  6
CONTINUOUS
 62
     7
 10
2225.7463294659
 20
2250.4159647501
 30
0.0
  0
VERTEX
  5
62E
  8
0
  6
CONTINUOUS
 62
     7
 10
2224.1589981709
 20
2250.4022556818
 30
0.0
  0
VERTEX
  5
62F
  8
0
  6
CONTINUOUS
 62
     7
 10
2222.922678629
 20
2250.3915864504
 30
0.0
  0
VERTEX
  5
630
  8
0
  6
CONTINUOUS
 62
     7
 10
2222.03865234
 20
2250.3839570558
 30
0.0
  0
VERTEX
  5
631
  8
0
  6
CONTINUOUS
 62
     7
 10
2221.5078729783
 20
2250.3793674982
 30
0.0
  0
VERTEX
  5
632
  8
0
  6
CONTINUOUS
 62
     7
 10
2221.3308918868
 20
2250.3778177774
 30
0.0
  0
SEQEND
  5
6FE
  8
0
  6
CONTINUOUS
 62
     7
  0
LINE
  5
229
  8
0
  6
CONTINUOUS
 62
     7
 10
2567.6660943423
 20
2155.1569837606
 30
0.0
 11
2567.0338976775
 21
2228.3623653925
 31
0.0
  0
LINE
  5
22A
  8
0
  6
CONTINUOUS
 62
     7
 10
2551.0344911013
 20
2228.2242018259
 30
0.0
 11
2551.6667026673
 21
2155.0176877058
 31
0.0
  0
LINE
  5
22B
  8
0
  6
CONTINUOUS
 62
     7
 10
2498.3556452785
 20
1959.2092472589
 30
0.0
 11
2501.313019136
 21
1873.481600312
 31
0.0
  0
LINE
  5
22C
  8
0
  6
CONTINUOUS
 62
     7
 10
2622.8745836411
 20
1874.5314020193
 30
0.0
 11
2624.3509459887
 21
1960.2973449505
 31
0.0
  0
LINE
  5
22D
  8
0
  6
CONTINUOUS
 62
     7
 10
2604.5916337167
 20
2163.9382678545
 30
0.0
 11
2604.5333850776
 21
2170.6840533293
 31
0.0
  0
LINE
  5
22E
  8
0
  6
CONTINUOUS
 62
     7
 10
2605.1667142306
 20
2097.3467964208
 30
0.0
 11
2604.7349381839
 21
2147.3444837606
 31
0.0
  0
LINE
  5
22F
  8
0
  6
CONTINUOUS
 62
     7
 10
2514.737378398
 20
2146.6736930883
 30
0.0
 11
2515.1700783168
 21
2096.5695816553
 31
0.0
  0
LINE
  5
230
  8
0
  6
CONTINUOUS
 62
     7
 10
2514.5367342625
 20
2169.9068385637
 30
0.0
 11
2514.5942452942
 21
2163.2475394285
 31
0.0
  0
LINE
  5
231
  8
0
  6
CONTINUOUS
 62
     7
 10
2581.8525362407
 20
1959.9303293503
 30
0.0
 11
2581.7139256392
 21
1975.9797293222
 31
0.0
  0
LINE
  5
232
  8
0
  6
CONTINUOUS
 62
     7
 10
2540.7154593263
 20
1975.6256628311
 30
0.0
 11
2540.8540550266
 21
1959.5762628591
 31
0.0
  0
LINE
  5
233
  8
0
  6
CONTINUOUS
 62
     7
 10
2550.1687708889
 20
2096.8718368089
 30
0.0
 11
2551.2150633727
 21
1975.716336397
 31
0.0
  0
LINE
  5
234
  8
0
  6
CONTINUOUS
 62
     7
 10
2571.2143141423
 20
1975.8890557564
 30
0.0
 11
2570.1680291091
 21
2097.0445412672
 31
0.0
  0
LINE
  5
235
  8
0
  6
CONTINUOUS
 62
     7
 10
2604.7349381839
 20
2147.3444837606
 30
0.0
 11
2879.9138027821
 21
2231.0643929518
 31
0.0
  0
LINE
  5
236
  8
0
  6
CONTINUOUS
 62
     7
 10
2823.3374315892
 20
2230.5757838762
 30
0.0
 11
2604.5908886586
 21
2164.024754194
 31
0.0
  0
LINE
  5
237
  8
0
  6
CONTINUOUS
 62
     7
 10
2514.5942452942
 20
2163.2475394285
 30
0.0
 11
2294.7309571896
 21
2226.0107833422
 31
0.0
  0
LINE
  5
238
  8
0
  6
CONTINUOUS
 62
     7
 10
2238.1545710955
 20
2225.5221742666
 30
0.0
 11
2514.7268507276
 21
2146.5705174482
 31
0.0
  0
ARC
  5
239
  8
0
  6
CONTINUOUS
 62
     7
 10
2685.2618672047
 20
1232.6888853586
 30
0.0
 40
2.0
 50
90.0
 51
180.0
  0
ARC
  5
23A
  8
0
  6
CONTINUOUS
 62
     7
 10
2181.2618672047
 20
1232.6888853586
 30
0.0
 40
2.0
 50
0.0
 51
90.0
  0
ARC
  5
23B
  8
0
  6
CONTINUOUS
 62
     7
 10
2181.2618672047
 20
2237.6888853586
 30
0.0
 40
2.000000000000455
 50
270.0
 51
0.0
  0
LINE
  5
23C
  8
0
  6
CONTINUOUS
 62
     7
 10
2685.2618712579
 20
1234.6888619936
 30
0.0
 11
2688.2618624364
 21
1234.6888619936
 31
0.0
  0
LINE
  5
23D
  8
0
  6
CONTINUOUS
 62
     7
 10
2178.2618719731
 20
1234.6888619936
 30
0.0
 11
2181.2618631516
 21
1234.6888619936
 31
0.0
  0
LINE
  5
23E
  8
0
  6
CONTINUOUS
 62
     7
 10
2181.2618631516
 20
2235.6889087236
 30
0.0
 11
2178.2618719731
 21
2235.6889087236
 31
0.0
  0
ARC
  5
23F
  8
0
  6
CONTINUOUS
 62
     7
 10
2559.6554634062
 20
2154.8669721672
 30
0.0
 40
7.940088219866992
 50
178.9519462007
 51
2.0286350605
  0
CIRCLE
  5
240
  8
0
  6
CONTINUOUS
 62
     7
 10
2433.2618672047
 20
1738.1888853586
 30
0.0
 40
57.99999999999994
  0
POLYLINE
  5
241
  8
0
  6
CONTINUOUS
 62
     7
 66
     1
 10
0.0
 20
0.0
 30
0.0
  0
VERTEX
  5
633
  8
0
  6
CONTINUOUS
 62
     7
 10
2501.313019136
 20
1873.481600312
 30
0.0
  0
VERTEX
  5
634
  8
0
  6
CONTINUOUS
 62
     7
 10
2501.3576183115
 20
1873.4819877422
 30
0.0
  0
VERTEX
  5
635
  8
0
  6
CONTINUOUS
 62
     7
 10
2501.7140466367
 20
1873.4850573814
 30
0.0
  0
VERTEX
  5
636
  8
0
  6
CONTINUOUS
 62
     7
 10
2502.4248022233
 20
1873.4911966598
 30
0.0
  0
VERTEX
  5
637
  8
0
  6
CONTINUOUS
 62
     7
 10
2503.4857201968
 20
1873.500360874
 30
0.0
  0
VERTEX
  5
638
  8
0
  6
CONTINUOUS
 62
     7
 10
2504.8905718718
 20
1873.5124904192
 30
0.0
  0
VERTEX
  5
639
  8
0
  6
CONTINUOUS
 62
     7
 10
2506.6311169062
 20
1873.5275256908
 30
0.0
  0
VERTEX
  5
63A
  8
0
  6
CONTINUOUS
 62
     7
 10
2508.697140554
 20
1873.5453623808
 30
0.0
  0
VERTEX
  5
63B
  8
0
  6
CONTINUOUS
 62
     7
 10
2511.07651327
 20
1873.5659110821
 30
0.0
  0
VERTEX
  5
63C
  8
0
  6
CONTINUOUS
 62
     7
 10
2513.7552726661
 20
1873.5890525854
 30
0.0
  0
VERTEX
  5
63D
  8
0
  6
CONTINUOUS
 62
     7
 10
2516.7177129184
 20
1873.614622978
 30
0.0
  0
VERTEX
  5
63E
  8
0
  6
CONTINUOUS
 62
     7
 10
2519.9464294706
 20
1873.6425179518
 30
0.0
  0
VERTEX
  5
63F
  8
0
  6
CONTINUOUS
 62
     7
 10
2523.4224829469
 20
1873.6725288904
 30
0.0
  0
VERTEX
  5
640
  8
0
  6
CONTINUOUS
 62
     7
 10
2527.1254811083
 20
1873.7045067823
 30
0.0
  0
VERTEX
  5
641
  8
0
  6
CONTINUOUS
 62
     7
 10
2531.0336831604
 20
1873.7382579124
 30
0.0
  0
VERTEX
  5
642
  8
0
  6
CONTINUOUS
 62
     7
 10
2535.1241636668
 20
1873.7735885656
 30
0.0
  0
VERTEX
  5
643
  8
0
  6
CONTINUOUS
 62
     7
 10
2539.3729019557
 20
1873.8102752245
 30
0.0
  0
VERTEX
  5
644
  8
0
  6
CONTINUOUS
 62
     7
 10
2543.7549832855
 20
1873.8481241739
 30
0.0
  0
VERTEX
  5
645
  8
0
  6
CONTINUOUS
 62
     7
 10
2548.244688252
 20
1873.8868969953
 30
0.0
  0
VERTEX
  5
646
  8
0
  6
CONTINUOUS
 62
     7
 10
2552.8156567012
 20
1873.9263701713
 30
0.0
  0
VERTEX
  5
647
  8
0
  6
CONTINUOUS
 62
     7
 10
2557.4410739933
 20
1873.9663201845
 30
0.0
  0
VERTEX
  5
648
  8
0
  6
CONTINUOUS
 62
     7
 10
2562.0938051139
 20
1874.0064937151
 30
0.0
  0
VERTEX
  5
649
  8
0
  6
CONTINUOUS
 62
     7
 10
2566.7465287839
 20
1874.0466821468
 30
0.0
  0
VERTEX
  5
64A
  8
0
  6
CONTINUOUS
 62
     7
 10
2571.3719386254
 20
1874.0866172588
 30
0.0
  0
VERTEX
  5
64B
  8
0
  6
CONTINUOUS
 62
     7
 10
2575.9429145251
 20
1874.1260904348
 30
0.0
  0
VERTEX
  5
64C
  8
0
  6
CONTINUOUS
 62
     7
 10
2580.4326194917
 20
1874.1648632562
 30
0.0
  0
VERTEX
  5
64D
  8
0
  6
CONTINUOUS
 62
     7
 10
2584.8146933709
 20
1874.2027122057
 30
0.0
  0
VERTEX
  5
64E
  8
0
  6
CONTINUOUS
 62
     7
 10
2589.0634316598
 20
1874.2393988645
 30
0.0
  0
VERTEX
  5
64F
  8
0
  6
CONTINUOUS
 62
     7
 10
2593.1539196168
 20
1874.2747295177
 30
0.0
  0
VERTEX
  5
650
  8
0
  6
CONTINUOUS
 62
     7
 10
2597.0621216689
 20
1874.3084806478
 30
0.0
  0
VERTEX
  5
651
  8
0
  6
CONTINUOUS
 62
     7
 10
2600.7651198302
 20
1874.3404585398
 30
0.0
  0
VERTEX
  5
652
  8
0
  6
CONTINUOUS
 62
     7
 10
2604.2411733065
 20
1874.3704843796
 30
0.0
  0
VERTEX
  5
653
  8
0
  6
CONTINUOUS
 62
     7
 10
2607.4698824082
 20
1874.3983644522
 30
0.0
  0
VERTEX
  5
654
  8
0
  6
CONTINUOUS
 62
     7
 10
2610.4323226605
 20
1874.4239497459
 30
0.0
  0
VERTEX
  5
655
  8
0
  6
CONTINUOUS
 62
     7
 10
2613.1110895072
 20
1874.4470763481
 30
0.0
  0
VERTEX
  5
656
  8
0
  6
CONTINUOUS
 62
     7
 10
2615.4904622231
 20
1874.4676250494
 30
0.0
  0
VERTEX
  5
657
  8
0
  6
CONTINUOUS
 62
     7
 10
2617.5564784203
 20
1874.4854766405
 30
0.0
  0
VERTEX
  5
658
  8
0
  6
CONTINUOUS
 62
     7
 10
2619.2970234547
 20
1874.500497011
 30
0.0
  0
VERTEX
  5
659
  8
0
  6
CONTINUOUS
 62
     7
 10
2620.7018751298
 20
1874.5126265562
 30
0.0
  0
VERTEX
  5
65A
  8
0
  6
CONTINUOUS
 62
     7
 10
2621.7627931033
 20
1874.5217907703
 30
0.0
  0
VERTEX
  5
65B
  8
0
  6
CONTINUOUS
 62
     7
 10
2622.4735486899
 20
1874.5279300487
 30
0.0
  0
VERTEX
  5
65C
  8
0
  6
CONTINUOUS
 62
     7
 10
2622.8299844657
 20
1874.5310145891
 30
0.0
  0
VERTEX
  5
65D
  8
0
  6
CONTINUOUS
 62
     7
 10
2622.8745836411
 20
1874.5314020193
 30
0.0
  0
SEQEND
  5
6FD
  8
0
  6
CONTINUOUS
 62
     7
  0
POLYLINE
  5
242
  8
0
  6
CONTINUOUS
 62
     7
 66
     1
 10
0.0
 20
0.0
 30
0.0
  0
VERTEX
  5
65E
  8
0
  6
CONTINUOUS
 62
     7
 10
2498.3556452785
 20
1959.2092472589
 30
0.0
  0
VERTEX
  5
65F
  8
0
  6
CONTINUOUS
 62
     7
 10
2498.5317993556
 20
1959.2107671774
 30
0.0
  0
VERTEX
  5
660
  8
0
  6
CONTINUOUS
 62
     7
 10
2499.0592706595
 20
1959.2153269327
 30
0.0
  0
VERTEX
  5
661
  8
0
  6
CONTINUOUS
 62
     7
 10
2499.9351236616
 20
1959.2228967226
 30
0.0
  0
VERTEX
  5
662
  8
0
  6
CONTINUOUS
 62
     7
 10
2501.1544484292
 20
1959.2334169424
 30
0.0
  0
VERTEX
  5
663
  8
0
  6
CONTINUOUS
 62
     7
 10
2502.7104351316
 20
1959.2468577898
 30
0.0
  0
VERTEX
  5
664
  8
0
  6
CONTINUOUS
 62
     7
 10
2504.5943740402
 20
1959.2631298578
 30
0.0
  0
VERTEX
  5
665
  8
0
  6
CONTINUOUS
 62
     7
 10
2506.795730034
 20
1959.2821437395
 30
0.0
  0
VERTEX
  5
666
  8
0
  6
CONTINUOUS
 62
     7
 10
2509.3021947537
 20
1959.3037802255
 30
0.0
  0
VERTEX
  5
667
  8
0
  6
CONTINUOUS
 62
     7
 10
2512.0997462068
 20
1959.327949909
 30
0.0
  0
VERTEX
  5
668
  8
0
  6
CONTINUOUS
 62
     7
 10
2515.1727456246
 20
1959.3544888771
 30
0.0
  0
VERTEX
  5
669
  8
0
  6
CONTINUOUS
 62
     7
 10
2518.5040119682
 20
1959.3832481182
 30
0.0
  0
VERTEX
  5
66A
  8
0
  6
CONTINUOUS
 62
     7
 10
2522.074903885
 20
1959.4140935219
 30
0.0
  0
VERTEX
  5
66B
  8
0
  6
CONTINUOUS
 62
     7
 10
2525.8654538189
 20
1959.446831373
 30
0.0
  0
VERTEX
  5
66C
  8
0
  6
CONTINUOUS
 62
     7
 10
2529.8544648681
 20
1959.4812828577
 30
0.0
  0
VERTEX
  5
66D
  8
0
  6
CONTINUOUS
 62
     7
 10
2534.019637445
 20
1959.5172393596
 30
0.0
  0
VERTEX
  5
66E
  8
0
  6
CONTINUOUS
 62
     7
 10
2538.3376661335
 20
1959.5545369661
 30
0.0
  0
VERTEX
  5
66F
  8
0
  6
CONTINUOUS
 62
     7
 10
2542.7844110523
 20
1959.5929372585
 30
0.0
  0
VERTEX
  5
670
  8
0
  6
CONTINUOUS
 62
     7
 10
2547.3349947129
 20
1959.6322316206
 30
0.0
  0
VERTEX
  5
671
  8
0
  6
CONTINUOUS
 62
     7
 10
2551.9639808331
 20
1959.6722114361
 30
0.0
  0
VERTEX
  5
672
  8
0
  6
CONTINUOUS
 62
     7
 10
2556.6454711948
 20
1959.7126382864
 30
0.0
  0
VERTEX
  5
673
  8
0
  6
CONTINUOUS
 62
     7
 10
2561.3532919083
 20
1959.7533035553
 30
0.0
  0
VERTEX
  5
674
  8
0
  6
CONTINUOUS
 62
     7
 10
2566.0611200724
 20
1959.793953923
 30
0.0
  0
VERTEX
  5
675
  8
0
  6
CONTINUOUS
 62
     7
 10
2570.7426029836
 20
1959.8343807733
 30
0.0
  0
VERTEX
  5
676
  8
0
  6
CONTINUOUS
 62
     7
 10
2575.3715891038
 20
1959.8743605888
 30
0.0
  0
VERTEX
  5
677
  8
0
  6
CONTINUOUS
 62
     7
 10
2579.922180215
 20
1959.9136549509
 30
0.0
  0
VERTEX
  5
678
  8
0
  6
CONTINUOUS
 62
     7
 10
2584.3689251338
 20
1959.9520552433
 30
0.0
  0
VERTEX
  5
679
  8
0
  6
CONTINUOUS
 62
     7
 10
2588.6869538222
 20
1959.9893528497
 30
0.0
  0
VERTEX
  5
67A
  8
0
  6
CONTINUOUS
 62
     7
 10
2592.852111498
 20
1960.0253242529
 30
0.0
  0
VERTEX
  5
67B
  8
0
  6
CONTINUOUS
 62
     7
 10
2596.8411374484
 20
1960.0597757376
 30
0.0
  0
VERTEX
  5
67C
  8
0
  6
CONTINUOUS
 62
     7
 10
2600.6316799317
 20
1960.0924986875
 30
0.0
  0
VERTEX
  5
67D
  8
0
  6
CONTINUOUS
 62
     7
 10
2604.202579299
 20
1960.1233440912
 30
0.0
  0
VERTEX
  5
67E
  8
0
  6
CONTINUOUS
 62
     7
 10
2607.5338381921
 20
1960.1521182335
 30
0.0
  0
VERTEX
  5
67F
  8
0
  6
CONTINUOUS
 62
     7
 10
2610.6068450604
 20
1960.1786572016
 30
0.0
  0
VERTEX
  5
680
  8
0
  6
CONTINUOUS
 62
     7
 10
2613.404389063
 20
1960.2028119839
 30
0.0
  0
VERTEX
  5
681
  8
0
  6
CONTINUOUS
 62
     7
 10
2615.9108537827
 20
1960.2244484699
 30
0.0
  0
VERTEX
  5
682
  8
0
  6
CONTINUOUS
 62
     7
 10
2618.1122172271
 20
1960.2434623516
 30
0.0
  0
VERTEX
  5
683
  8
0
  6
CONTINUOUS
 62
     7
 10
2619.9961561356
 20
1960.2597344196
 30
0.0
  0
VERTEX
  5
684
  8
0
  6
CONTINUOUS
 62
     7
 10
2621.5521353875
 20
1960.273175267
 30
0.0
  0
VERTEX
  5
685
  8
0
  6
CONTINUOUS
 62
     7
 10
2622.7714676057
 20
1960.283710388
 30
0.0
  0
VERTEX
  5
686
  8
0
  6
CONTINUOUS
 62
     7
 10
2623.6473131572
 20
1960.2912652767
 30
0.0
  0
VERTEX
  5
687
  8
0
  6
CONTINUOUS
 62
     7
 10
2624.1747844611
 20
1960.295825032
 30
0.0
  0
VERTEX
  5
688
  8
0
  6
CONTINUOUS
 62
     7
 10
2624.3509459887
 20
1960.2973449505
 30
0.0
  0
SEQEND
  5
6FC
  8
0
  6
CONTINUOUS
 62
     7
  0
CIRCLE
  5
243
  8
0
  6
CONTINUOUS
 62
     7
 10
2433.2618672047
 20
1738.1888853586
 30
0.0
 40
65.00000000000011
  0
ARC
  5
244
  8
0
  6
CONTINUOUS
 62
     7
 10
2433.2618672047
 20
1738.1888853586
 30
0.0
 40
125.0000000000002
 50
45.3379311182
 51
143.049761782
  0
LINE
  5
245
  8
0
  6
CONTINUOUS
 62
     7
 10
2522.7262187396
 20
1641.9578779018
 30
0.0
 11
2614.092807809
 21
1642.7469167388
 31
0.0
  0
LINE
  5
246
  8
0
  6
CONTINUOUS
 62
     7
 10
2333.3671275173
 20
1813.329032389
 30
0.0
 11
2334.6797484551
 21
1661.3346997178
 31
0.0
  0
LINE
  5
247
  8
0
  6
CONTINUOUS
 62
     7
 10
2521.0509035383
 20
1835.9506416595
 30
0.0
 11
2521.1273613964
 21
1827.0970049775
 31
0.0
  0
LINE
  5
248
  8
0
  6
CONTINUOUS
 62
     7
 10
2612.4175000583
 20
1836.7396804965
 30
0.0
 11
2521.0509035383
 21
1835.9506416595
 31
0.0
  0
LINE
  5
249
  8
0
  6
CONTINUOUS
 62
     7
 10
2614.092807809
 20
1642.7469167388
 30
0.0
 11
2612.4175000583
 21
1836.7396804965
 31
0.0
  0
ARC
  5
24A
  8
0
  6
CONTINUOUS
 62
     7
 10
2433.2618672047
 20
1738.1888853586
 30
0.0
 40
125.0
 50
217.9398218083
 51
315.6516524721
  0
LINE
  5
24B
  8
0
  6
CONTINUOUS
 62
     7
 10
2522.6497608815
 20
1650.8115145839
 30
0.0
 11
2522.7262187396
 21
1641.9578779018
 31
0.0
  0
POLYLINE
  5
24C
  8
0
  6
CONTINUOUS
 62
     7
 66
     1
 10
0.0
 20
0.0
 30
0.0
  0
VERTEX
  5
689
  8
0
  6
CONTINUOUS
 62
     7
 10
2605.1667142306
 20
2097.3467964208
 30
0.0
  0
VERTEX
  5
68A
  8
0
  6
CONTINUOUS
 62
     7
 10
2605.1557022725
 20
2097.3466772116
 30
0.0
  0
VERTEX
  5
68B
  8
0
  6
CONTINUOUS
 62
     7
 10
2604.8916834985
 20
2097.344412235
 30
0.0
  0
VERTEX
  5
68C
  8
0
  6
CONTINUOUS
 62
     7
 10
2604.277636448
 20
2097.3391074217
 30
0.0
  0
VERTEX
  5
68D
  8
0
  6
CONTINUOUS
 62
     7
 10
2603.3183890973
 20
2097.330822376
 30
0.0
  0
VERTEX
  5
68E
  8
0
  6
CONTINUOUS
 62
     7
 10
2602.0214218293
 20
2097.3196167028
 30
0.0
  0
VERTEX
  5
68F
  8
0
  6
CONTINUOUS
 62
     7
 10
2600.3968972359
 20
2097.305579809
 30
0.0
  0
VERTEX
  5
690
  8
0
  6
CONTINUOUS
 62
     7
 10
2598.4575409089
 20
2097.2888309038
 30
0.0
  0
VERTEX
  5
691
  8
0
  6
CONTINUOUS
 62
     7
 10
2596.2185073291
 20
2097.2695189989
 30
0.0
  0
VERTEX
  5
692
  8
0
  6
CONTINUOUS
 62
     7
 10
2593.6973351632
 20
2097.2477335012
 30
0.0
  0
VERTEX
  5
693
  8
0
  6
CONTINUOUS
 62
     7
 10
2590.9137684499
 20
2097.2236830271
 30
0.0
  0
VERTEX
  5
694
  8
0
  6
CONTINUOUS
 62
     7
 10
2587.8895628844
 20
2097.1975761926
 30
0.0
  0
VERTEX
  5
695
  8
0
  6
CONTINUOUS
 62
     7
 10
2584.648396412
 20
2097.1695918119
 30
0.0
  0
VERTEX
  5
696
  8
0
  6
CONTINUOUS
 62
     7
 10
2581.2156606112
 20
2097.1399385011
 30
0.0
  0
VERTEX
  5
697
  8
0
  6
CONTINUOUS
 62
     7
 10
2577.6181775723
 20
2097.1088844812
 30
0.0
  0
VERTEX
  5
698
  8
0
  6
CONTINUOUS
 62
     7
 10
2573.8841402922
 20
2097.0766383684
 30
0.0
  0
VERTEX
  5
699
  8
0
  6
CONTINUOUS
 62
     7
 10
2570.0427550469
 20
2097.0434683836
 30
0.0
  0
VERTEX
  5
69A
  8
0
  6
CONTINUOUS
 62
     7
 10
2566.1240923796
 20
2097.0096129453
 30
0.0
  0
VERTEX
  5
69B
  8
0
  6
CONTINUOUS
 62
     7
 10
2562.1588188802
 20
2096.9753700769
 30
0.0
  0
VERTEX
  5
69C
  8
0
  6
CONTINUOUS
 62
     7
 10
2558.1779736672
 20
2096.9409781969
 30
0.0
  0
VERTEX
  5
69D
  8
0
  6
CONTINUOUS
 62
     7
 10
2554.2126927172
 20
2096.9067353285
 30
0.0
  0
VERTEX
  5
69E
  8
0
  6
CONTINUOUS
 62
     7
 10
2550.2940300499
 20
2096.8729096926
 30
0.0
  0
VERTEX
  5
69F
  8
0
  6
CONTINUOUS
 62
     7
 10
2546.4526522551
 20
2096.8397397077
 30
0.0
  0
VERTEX
  5
6A0
  8
0
  6
CONTINUOUS
 62
     7
 10
2542.7186075245
 20
2096.8074935949
 30
0.0
  0
VERTEX
  5
6A1
  8
0
  6
CONTINUOUS
 62
     7
 10
2539.1211393867
 20
2096.7764097727
 30
0.0
  0
VERTEX
  5
6A2
  8
0
  6
CONTINUOUS
 62
     7
 10
2535.6883886848
 20
2096.7467862642
 30
0.0
  0
VERTEX
  5
6A3
  8
0
  6
CONTINUOUS
 62
     7
 10
2532.4472371136
 20
2096.7187720812
 30
0.0
  0
VERTEX
  5
6A4
  8
0
  6
CONTINUOUS
 62
     7
 10
2529.4230315481
 20
2096.6926652468
 30
0.0
  0
VERTEX
  5
6A5
  8
0
  6
CONTINUOUS
 62
     7
 10
2526.6394499336
 20
2096.6686147726
 30
0.0
  0
VERTEX
  5
6A6
  8
0
  6
CONTINUOUS
 62
     7
 10
2524.1182852183
 20
2096.6468590772
 30
0.0
  0
VERTEX
  5
6A7
  8
0
  6
CONTINUOUS
 62
     7
 10
2521.8792590891
 20
2096.62751737
 30
0.0
  0
VERTEX
  5
6A8
  8
0
  6
CONTINUOUS
 62
     7
 10
2519.9398953114
 20
2096.6107684648
 30
0.0
  0
VERTEX
  5
6A9
  8
0
  6
CONTINUOUS
 62
     7
 10
2518.3153707181
 20
2096.596731571
 30
0.0
  0
VERTEX
  5
6AA
  8
0
  6
CONTINUOUS
 62
     7
 10
2517.0184109007
 20
2096.5855258978
 30
0.0
  0
VERTEX
  5
6AB
  8
0
  6
CONTINUOUS
 62
     7
 10
2516.0591486488
 20
2096.5772706545
 30
0.0
  0
VERTEX
  5
6AC
  8
0
  6
CONTINUOUS
 62
     7
 10
2515.4451090489
 20
2096.5719658411
 30
0.0
  0
VERTEX
  5
6AD
  8
0
  6
CONTINUOUS
 62
     7
 10
2515.1810902749
 20
2096.5696710623
 30
0.0
  0
VERTEX
  5
6AE
  8
0
  6
CONTINUOUS
 62
     7
 10
2515.1700783168
 20
2096.5695816553
 30
0.0
  0
SEQEND
  5
6FB
  8
0
  6
CONTINUOUS
 62
     7
  0
POLYLINE
  5
24D
  8
0
  6
CONTINUOUS
 62
     7
 66
     1
 10
0.0
 20
0.0
 30
0.0
  0
VERTEX
  5
6AF
  8
0
  6
CONTINUOUS
 62
     7
 10
2567.5347555075
 20
2170.3645426309
 30
0.0
  0
VERTEX
  5
6B0
  8
0
  6
CONTINUOUS
 62
     7
 10
2571.341674367
 20
2170.3974145925
 30
0.0
  0
VERTEX
  5
6B1
  8
0
  6
CONTINUOUS
 62
     7
 10
2575.1330960189
 20
2170.4301375425
 30
0.0
  0
VERTEX
  5
6B2
  8
0
  6
CONTINUOUS
 62
     7
 10
2578.8024473582
 20
2170.4618472135
 30
0.0
  0
VERTEX
  5
6B3
  8
0
  6
CONTINUOUS
 62
     7
 10
2582.3209989463
 20
2170.49221578
 30
0.0
  0
VERTEX
  5
6B4
  8
0
  6
CONTINUOUS
 62
     7
 10
2585.6612134372
 20
2170.5210644281
 30
0.0
  0
VERTEX
  5
6B5
  8
0
  6
CONTINUOUS
 62
     7
 10
2588.7969690953
 20
2170.5481547392
 30
0.0
  0
VERTEX
  5
6B6
  8
0
  6
CONTINUOUS
 62
     7
 10
2591.7036939059
 20
2170.5732482946
 30
0.0
  0
VERTEX
  5
6B7
  8
0
  6
CONTINUOUS
 62
     7
 10
2594.3586784993
 20
2170.5961960829
 30
0.0
  0
VERTEX
  5
6B8
  8
0
  6
CONTINUOUS
 62
     7
 10
2596.7411059533
 20
2170.6167596853
 30
0.0
  0
VERTEX
  5
6B9
  8
0
  6
CONTINUOUS
 62
     7
 10
2598.8323498164
 20
2170.6348198927
 30
0.0
  0
VERTEX
  5
6BA
  8
0
  6
CONTINUOUS
 62
     7
 10
2600.6160337125
 20
2170.6502276933
 30
0.0
  0
VERTEX
  5
6BB
  8
0
  6
CONTINUOUS
 62
     7
 10
2602.0782101546
 20
2170.6628340757
 30
0.0
  0
VERTEX
  5
6BC
  8
0
  6
CONTINUOUS
 62
     7
 10
2603.2074201499
 20
2170.6726092375
 30
0.0
  0
VERTEX
  5
6BD
  8
0
  6
CONTINUOUS
 62
     7
 10
2603.9948422108
 20
2170.679404167
 30
0.0
  0
VERTEX
  5
6BE
  8
0
  6
CONTINUOUS
 62
     7
 10
2604.4343072568
 20
2170.6831890619
 30
0.0
  0
VERTEX
  5
6BF
  8
0
  6
CONTINUOUS
 62
     7
 10
2604.5333850776
 20
2170.6840533293
 30
0.0
  0
SEQEND
  5
6FA
  8
0
  6
CONTINUOUS
 62
     7
  0
POLYLINE
  5
24E
  8
0
  6
CONTINUOUS
 62
     7
 66
     1
 10
0.0
 20
0.0
 30
0.0
  0
VERTEX
  5
6C0
  8
0
  6
CONTINUOUS
 62
     7
 10
2514.5367342625
 20
2169.9068385637
 30
0.0
  0
VERTEX
  5
6C1
  8
0
  6
CONTINUOUS
 62
     7
 10
2514.6358120833
 20
2169.9077028311
 30
0.0
  0
VERTEX
  5
6C2
  8
0
  6
CONTINUOUS
 62
     7
 10
2515.0752771292
 20
2169.911487726
 30
0.0
  0
VERTEX
  5
6C3
  8
0
  6
CONTINUOUS
 62
     7
 10
2515.8626991902
 20
2169.9182826555
 30
0.0
  0
VERTEX
  5
6C4
  8
0
  6
CONTINUOUS
 62
     7
 10
2516.9919091855
 20
2169.9280578172
 30
0.0
  0
VERTEX
  5
6C5
  8
0
  6
CONTINUOUS
 62
     7
 10
2518.4540856276
 20
2169.9406641996
 30
0.0
  0
VERTEX
  5
6C6
  8
0
  6
CONTINUOUS
 62
     7
 10
2520.2377769743
 20
2169.9560720003
 30
0.0
  0
VERTEX
  5
6C7
  8
0
  6
CONTINUOUS
 62
     7
 10
2522.3290133868
 20
2169.9741322077
 30
0.0
  0
VERTEX
  5
6C8
  8
0
  6
CONTINUOUS
 62
     7
 10
2524.7114482914
 20
2169.9947256124
 30
0.0
  0
VERTEX
  5
6C9
  8
0
  6
CONTINUOUS
 62
     7
 10
2527.3664179836
 20
2170.0176435983
 30
0.0
  0
VERTEX
  5
6CA
  8
0
  6
CONTINUOUS
 62
     7
 10
2530.2731576954
 20
2170.0427371538
 30
0.0
  0
VERTEX
  5
6CB
  8
0
  6
CONTINUOUS
 62
     7
 10
2533.4089059029
 20
2170.0698274648
 30
0.0
  0
VERTEX
  5
6CC
  8
0
  6
CONTINUOUS
 62
     7
 10
2536.7491278444
 20
2170.0986761129
 30
0.0
  0
VERTEX
  5
6CD
  8
0
  6
CONTINUOUS
 62
     7
 10
2540.2676794325
 20
2170.1290446794
 30
0.0
  0
VERTEX
  5
6CE
  8
0
  6
CONTINUOUS
 62
     7
 10
2543.9370233212
 20
2170.1607543505
 30
0.0
  0
VERTEX
  5
6CF
  8
0
  6
CONTINUOUS
 62
     7
 10
2547.7284449731
 20
2170.1934773004
 30
0.0
  0
VERTEX
  5
6D0
  8
0
  6
CONTINUOUS
 62
     7
 10
2551.535356382
 20
2170.226349262
 30
0.0
  0
SEQEND
  5
6F9
  8
0
  6
CONTINUOUS
 62
     7
  0
ARC
  5
24F
  8
0
  6
CONTINUOUS
 62
     7
 10
2652.6467514261
 20
2156.0959741427
 30
0.0
 40
48.70452167990113
 50
170.7341656462
 51
190.3514344982
  0
POLYLINE
  5
250
  8
0
  6
CONTINUOUS
 62
     7
 66
     1
 10
0.0
 20
0.0
 30
0.0
  0
VERTEX
  5
6D1
  8
0
  6
CONTINUOUS
 62
     7
 10
2514.5942452942
 20
2163.2475394285
 30
0.0
  0
VERTEX
  5
6D2
  8
0
  6
CONTINUOUS
 62
     7
 10
2514.6658379231
 20
2162.8202635324
 30
0.0
  0
VERTEX
  5
6D3
  8
0
  6
CONTINUOUS
 62
     7
 10
2514.8502472435
 20
2161.6174418009
 30
0.0
  0
VERTEX
  5
6D4
  8
0
  6
CONTINUOUS
 62
     7
 10
2515.0892916714
 20
2159.7099739588
 30
0.0
  0
VERTEX
  5
6D5
  8
0
  6
CONTINUOUS
 62
     7
 10
2515.3037268315
 20
2157.1277517355
 30
0.0
  0
VERTEX
  5
6D6
  8
0
  6
CONTINUOUS
 62
     7
 10
2515.3865102325
 20
2154.1599470651
 30
0.0
  0
VERTEX
  5
6D7
  8
0
  6
CONTINUOUS
 62
     7
 10
2515.2929830943
 20
2151.3202029741
 30
0.0
  0
VERTEX
  5
6D8
  8
0
  6
CONTINUOUS
 62
     7
 10
2515.0875854884
 20
2149.0156787908
 30
0.0
  0
VERTEX
  5
6D9
  8
0
  6
CONTINUOUS
 62
     7
 10
2514.8758772407
 20
2147.4227148569
 30
0.0
  0
VERTEX
  5
6DA
  8
0
  6
CONTINUOUS
 62
     7
 10
2514.7503126059
 20
2146.6380197084
 30
0.0
  0
VERTEX
  5
6DB
  8
0
  6
CONTINUOUS
 62
     7
 10
2514.7563326751
 20
2146.6738420999
 30
0.0
  0
SEQEND
  5
6F8
  8
0
  6
CONTINUOUS
 62
     7
  0
LINE
  5
251
  8
0
  6
CONTINUOUS
 62
     7
 10
2599.9073940907
 20
1874.3330526626
 30
0.0
 11
2600.2329546605
 21
1836.6344559467
 31
0.0
  0
LINE
  5
252
  8
0
  6
CONTINUOUS
 62
     7
 10
2524.2802086864
 20
1873.6799347675
 30
0.0
 11
2524.6057692562
 21
1835.9813455022
 31
0.0
  0
POLYLINE
  5
253
  8
0
  6
CONTINUOUS
 62
     7
 66
     1
 10
0.0
 20
0.0
 30
0.0
  0
VERTEX
  5
6DC
  8
0
  6
CONTINUOUS
 62
     7
 10
2561.2146962081
 20
1975.8027035272
 30
0.0
  0
VERTEX
  5
6DD
  8
0
  6
CONTINUOUS
 62
     7
 10
2558.5389990006
 20
1975.7795918262
 30
0.0
  0
VERTEX
  5
6DE
  8
0
  6
CONTINUOUS
 62
     7
 10
2555.9091005121
 20
1975.7568824566
 30
0.0
  0
VERTEX
  5
6DF
  8
0
  6
CONTINUOUS
 62
     7
 10
2553.369972447
 20
1975.7349479473
 30
0.0
  0
VERTEX
  5
6E0
  8
0
  6
CONTINUOUS
 62
     7
 10
2550.9650740419
 20
1975.7141906297
 30
0.0
  0
VERTEX
  5
6E1
  8
0
  6
CONTINUOUS
 62
     7
 10
2548.7355474029
 20
1975.6949234283
 30
0.0
  0
VERTEX
  5
6E2
  8
0
  6
CONTINUOUS
 62
     7
 10
2546.7195395027
 20
1975.677518872
 30
0.0
  0
VERTEX
  5
6E3
  8
0
  6
CONTINUOUS
 62
     7
 10
2544.9515539799
 20
1975.6622451818
 30
0.0
  0
VERTEX
  5
6E4
  8
0
  6
CONTINUOUS
 62
     7
 10
2543.4618327413
 20
1975.6493854797
 30
0.0
  0
VERTEX
  5
6E5
  8
0
  6
CONTINUOUS
 62
     7
 10
2542.2758642231
 20
1975.639148382
 30
0.0
  0
VERTEX
  5
6E6
  8
0
  6
CONTINUOUS
 62
     7
 10
2541.4139512573
 20
1975.6316978014
 30
0.0
  0
VERTEX
  5
6E7
  8
0
  6
CONTINUOUS
 62
     7
 10
2540.8908310924
 20
1975.6271827495
 30
0.0
  0
VERTEX
  5
6E8
  8
0
  6
CONTINUOUS
 62
     7
 10
2540.7154593263
 20
1975.6256628311
 30
0.0
  0
SEQEND
  5
6F7
  8
0
  6
CONTINUOUS
 62
     7
  0
POLYLINE
  5
254
  8
0
  6
CONTINUOUS
 62
     7
 66
     1
 10
0.0
 20
0.0
 30
0.0
  0
VERTEX
  5
6E9
  8
0
  6
CONTINUOUS
 62
     7
 10
2581.7139256392
 20
1975.9797293222
 30
0.0
  0
VERTEX
  5
6EA
  8
0
  6
CONTINUOUS
 62
     7
 10
2581.5385538731
 20
1975.9782094038
 30
0.0
  0
VERTEX
  5
6EB
  8
0
  6
CONTINUOUS
 62
     7
 10
2581.0154337083
 20
1975.9736943519
 30
0.0
  0
VERTEX
  5
6EC
  8
0
  6
CONTINUOUS
 62
     7
 10
2580.1535207425
 20
1975.9662586725
 30
0.0
  0
VERTEX
  5
6ED
  8
0
  6
CONTINUOUS
 62
     7
 10
2578.9675522242
 20
1975.9560066736
 30
0.0
  0
VERTEX
  5
6EE
  8
0
  6
CONTINUOUS
 62
     7
 10
2577.477823535
 20
1975.9431469715
 30
0.0
  0
VERTEX
  5
6EF
  8
0
  6
CONTINUOUS
 62
     7
 10
2575.7098454629
 20
1975.9278732813
 30
0.0
  0
VERTEX
  5
6F0
  8
0
  6
CONTINUOUS
 62
     7
 10
2573.6938375626
 20
1975.910468725
 30
0.0
  0
VERTEX
  5
6F1
  8
0
  6
CONTINUOUS
 62
     7
 10
2571.4643109237
 20
1975.8912164247
 30
0.0
  0
VERTEX
  5
6F2
  8
0
  6
CONTINUOUS
 62
     7
 10
2569.0594125186
 20
1975.870444206
 30
0.0
  0
VERTEX
  5
6F3
  8
0
  6
CONTINUOUS
 62
     7
 10
2566.5202844535
 20
1975.8485245979
 30
0.0
  0
VERTEX
  5
6F4
  8
0
  6
CONTINUOUS
 62
     7
 10
2563.8903785144
 20
1975.8258003271
 30
0.0
  0
VERTEX
  5
6F5
  8
0
  6
CONTINUOUS
 62
     7
 10
2561.2146962081
 20
1975.8027035272
 30
0.0
  0
SEQEND
  5
6F6
  8
0
  6
CONTINUOUS
 62
     7
  0
ARC
  5
255
  8
0
  6
CONTINUOUS
 62
     7
 10
2433.2618672047
 20
1738.1888853586
 30
0.0
 40
142.5000000000001
 50
50.1855882146
 51
317.5962868217
  0
ARC
  5
256
  8
0
  6
CONTINUOUS
 62
     7
 10
2433.2618672047
 20
1738.1888853586
 30
0.0
 40
150.0000000000002
 50
52.5743515319
 51
320.2040400664
  0
LINE
  5
257
  8
0
  6
CONTINUOUS
 62
     7
 10
2215.7618660126
 20
1748.1888856268
 30
0.0
 11
2215.7618660126
 21
2226.7417747057
 31
0.0
  0
LINE
  5
258
  8
0
  6
CONTINUOUS
 62
     7
 10
2215.7618660126
 20
1224.639936117
 30
0.0
 11
2215.7618660126
 21
1728.1888851425
 31
0.0
  0
LINE
  5
259
  8
0
  6
CONTINUOUS
 62
     7
 10
2183.2618672047
 20
1224.639936117
 30
0.0
 11
2215.7618660126
 21
1224.639936117
 31
0.0
  0
LINE
  5
25A
  8
0
  6
CONTINUOUS
 62
     7
 10
2183.2618672047
 20
1224.639936117
 30
0.0
 11
2183.2618672047
 21
2245.7378346002
 31
0.0
  0
LINE
  5
25B
  8
0
  6
CONTINUOUS
 62
     7
 10
2283.5955727492
 20
1728.1888851425
 30
0.0
 11
2215.7618660126
 21
1728.1888851425
 31
0.0
  0
LINE
  5
25C
  8
0
  6
CONTINUOUS
 62
     7
 10
2283.5955727492
 20
1748.1888856268
 30
0.0
 11
2215.7618660126
 21
1748.1888856268
 31
0.0
  0
LINE
  5
25D
  8
0
  6
CONTINUOUS
 62
     7
 10
2650.7618683968
 20
1748.1888856268
 30
0.0
 11
2650.7618683968
 21
2161.347611574
 31
0.0
  0
LINE
  5
25E
  8
0
  6
CONTINUOUS
 62
     7
 10
2650.7618683968
 20
2178.0717212236
 30
0.0
 11
2650.7618683968
 21
2229.0854293382
 31
0.0
  0
LINE
  5
25F
  8
0
  6
CONTINUOUS
 62
     7
 10
2683.2618672047
 20
1224.639936117
 30
0.0
 11
2683.2618672047
 21
2171.2353664911
 31
0.0
  0
LINE
  5
260
  8
0
  6
CONTINUOUS
 62
     7
 10
2683.2618672047
 20
2187.9594761408
 30
0.0
 11
2683.2618672047
 21
2229.3661076105
 31
0.0
  0
LINE
  5
261
  8
0
  6
CONTINUOUS
 62
     7
 10
2650.7618683968
 20
1224.639936117
 30
0.0
 11
2683.2618672047
 21
1224.639936117
 31
0.0
  0
LINE
  5
262
  8
0
  6
CONTINUOUS
 62
     7
 10
2650.7618683968
 20
1224.639936117
 30
0.0
 11
2650.7618683968
 21
1728.1888851425
 31
0.0
  0
LINE
  5
263
  8
0
  6
CONTINUOUS
 62
     7
 10
2613.1822127496
 20
1748.1888856268
 30
0.0
 11
2650.7618683968
 21
1748.1888856268
 31
0.0
  0
LINE
  5
264
  8
0
  6
CONTINUOUS
 62
     7
 10
2613.354932109
 20
1728.1888851425
 30
0.0
 11
2650.7618683968
 21
1728.1888851425
 31
0.0
  0
LINE
  5
265
  8
0
  6
CONTINUOUS
 62
     7
 10
2688.2618624364
 20
1735.1888853586
 30
0.0
 11
2688.2618624364
 21
2172.7565664327
 31
0.0
  0
LINE
  5
266
  8
0
  6
CONTINUOUS
 62
     7
 10
2688.2618624364
 20
2189.4806462801
 30
0.0
 11
2688.2618624364
 21
2229.4092911756
 31
0.0
  0
LINE
  5
267
  8
0
  6
CONTINUOUS
 62
     7
 10
2688.2618624364
 20
1234.6888619936
 30
0.0
 11
2688.2618624364
 21
1735.1888853586
 31
0.0
  0
LINE
  5
268
  8
0
  6
CONTINUOUS
 62
     7
 10
2178.2618719731
 20
1735.1888853586
 30
0.0
 11
2178.2618719731
 21
2235.6889087236
 31
0.0
  0
LINE
  5
269
  8
0
  6
CONTINUOUS
 62
     7
 10
2178.2618719731
 20
1234.6888619936
 30
0.0
 11
2178.2618719731
 21
1735.1888853586
 31
0.0
  0
LINE
  5
26A
  8
0
  6
CONTINUOUS
 62
     7
 10
2235.7618618403
 20
1262.412681011
 30
0.0
 11
2235.7618618403
 21
1728.1888851425
 31
0.0
  0
ARC
  5
26B
  8
0
  6
CONTINUOUS
 62
     7
 10
2235.7541007568
 20
1242.420446328
 30
0.0
 40
19.99223618945701
 50
89.9777574986
 51
179.9782135524
  0
ARC
  5
26C
  8
0
  6
CONTINUOUS
 62
     7
 10
2630.7696716926
 20
1242.4204843971
 30
0.0
 40
19.99219813512365
 50
0.0216773865
 51
90.0223515625
  0
LINE
  5
26D
  8
0
  6
CONTINUOUS
 62
     7
 10
2630.7618725692
 20
1262.412681011
 30
0.0
 11
2630.7618725692
 21
1728.1888851425
 31
0.0
  0
ARC
  5
26E
  8
0
  6
CONTINUOUS
 62
     7
 10
2630.7696336527
 20
2227.9573243892
 30
0.0
 40
19.99223618945746
 50
269.9777574986
 51
359.9782135524
  0
LINE
  5
26F
  8
0
  6
CONTINUOUS
 62
     7
 10
2235.7618618403
 20
1748.1888856268
 30
0.0
 11
2235.7618618403
 21
2207.9650897062
 31
0.0
  0
LINE
  5
270
  8
0
  6
CONTINUOUS
 62
     7
 10
2235.7618618403
 20
1262.412681011
 30
0.0
 11
2630.7618725692
 21
1262.412681011
 31
0.0
  0
LINE
  5
271
  8
0
  6
CONTINUOUS
 62
     7
 10
2183.2618672047
 20
2282.3691803491
 30
0.0
 11
2215.7618660126
 21
2282.3691803491
 31
0.0
  0
LINE
  5
272
  8
0
  6
CONTINUOUS
 62
     7
 10
2215.7618660126
 20
2282.3691803491
 30
0.0
 11
2215.7618660126
 21
2249.0148383653
 31
0.0
  0
LINE
  5
273
  8
0
  6
CONTINUOUS
 62
     7
 10
2183.2618672047
 20
2245.7378346002
 30
0.0
 11
2183.2618672047
 21
2282.3691803491
 31
0.0
  0
LINE
  5
274
  8
0
  6
CONTINUOUS
 62
     7
 10
2650.7618683968
 20
2282.3691803491
 30
0.0
 11
2683.2618672047
 21
2282.3691803491
 31
0.0
  0
LINE
  5
275
  8
0
  6
CONTINUOUS
 62
     7
 10
2650.7618683968
 20
2254.0863591707
 30
0.0
 11
2650.7618683968
 21
2282.3691803491
 31
0.0
  0
LINE
  5
276
  8
0
  6
CONTINUOUS
 62
     7
 10
2683.2618672047
 20
2282.3691803491
 30
0.0
 11
2683.2618672047
 21
2254.3670374429
 31
0.0
  0
LINE
  5
277
  8
0
  6
CONTINUOUS
 62
     7
 10
2683.2618672047
 20
1188.0085903681
 30
0.0
 11
2650.7618683968
 21
1188.0085903681
 31
0.0
  0
LINE
  5
278
  8
0
  6
CONTINUOUS
 62
     7
 10
2650.7618683968
 20
1188.0085903681
 30
0.0
 11
2650.7618683968
 21
1224.639936117
 31
0.0
  0
LINE
  5
279
  8
0
  6
CONTINUOUS
 62
     7
 10
2683.2618672047
 20
1224.639936117
 30
0.0
 11
2683.2618672047
 21
1188.0085903681
 31
0.0
  0
LINE
  5
27A
  8
0
  6
CONTINUOUS
 62
     7
 10
2215.7618660126
 20
1188.0085903681
 30
0.0
 11
2183.2618672047
 21
1188.0085903681
 31
0.0
  0
LINE
  5
27B
  8
0
  6
CONTINUOUS
 62
     7
 10
2215.7618660126
 20
1224.639936117
 30
0.0
 11
2215.7618660126
 21
1188.0085903681
 31
0.0
  0
LINE
  5
27C
  8
0
  6
CONTINUOUS
 62
     7
 10
2183.2618672047
 20
1188.0085903681
 30
0.0
 11
2183.2618672047
 21
1224.639936117
 31
0.0
  0
LINE
  5
27D
  8
0
  6
CONTINUOUS
 62
     7
 10
2183.2618672047
 20
2292.688890127
 30
0.0
 11
2215.7618660126
 21
2292.688890127
 31
0.0
  0
LINE
  5
27E
  8
0
  6
CONTINUOUS
 62
     7
 10
2215.7618660126
 20
2282.3691803491
 30
0.0
 11
2215.7618660126
 21
2292.688890127
 31
0.0
  0
LINE
  5
27F
  8
0
  6
CONTINUOUS
 62
     7
 10
2183.2618672047
 20
2282.3691803491
 30
0.0
 11
2183.2618672047
 21
2292.688890127
 31
0.0
  0
LINE
  5
280
  8
0
  6
CONTINUOUS
 62
     7
 10
2650.7618683968
 20
2292.688890127
 30
0.0
 11
2683.2618672047
 21
2292.688890127
 31
0.0
  0
LINE
  5
281
  8
0
  6
CONTINUOUS
 62
     7
 10
2650.7618683968
 20
2282.3691803491
 30
0.0
 11
2650.7618683968
 21
2292.688890127
 31
0.0
  0
LINE
  5
282
  8
0
  6
CONTINUOUS
 62
     7
 10
2683.2618672047
 20
2282.3691803491
 30
0.0
 11
2683.2618672047
 21
2292.688890127
 31
0.0
  0
LINE
  5
283
  8
0
  6
CONTINUOUS
 62
     7
 10
2683.2618672047
 20
1177.6888805902
 30
0.0
 11
2650.7618683968
 21
1177.6888805902
 31
0.0
  0
LINE
  5
284
  8
0
  6
CONTINUOUS
 62
     7
 10
2650.7618683968
 20
1188.0085903681
 30
0.0
 11
2650.7618683968
 21
1177.6888805902
 31
0.0
  0
LINE
  5
285
  8
0
  6
CONTINUOUS
 62
     7
 10
2683.2618672047
 20
1188.0085903681
 30
0.0
 11
2683.2618672047
 21
1177.6888805902
 31
0.0
  0
LINE
  5
286
  8
0
  6
CONTINUOUS
 62
     7
 10
2215.7618660126
 20
1177.6888805902
 30
0.0
 11
2183.2618672047
 21
1177.6888805902
 31
0.0
  0
LINE
  5
287
  8
0
  6
CONTINUOUS
 62
     7
 10
2215.7618660126
 20
1188.0085903681
 30
0.0
 11
2215.7618660126
 21
1177.6888805902
 31
0.0
  0
LINE
  5
288
  8
0
  6
CONTINUOUS
 62
     7
 10
2183.2618672047
 20
1188.0085903681
 30
0.0
 11
2183.2618672047
 21
1177.6888805902
 31
0.0
  0
LINE
  5
289
  8
0
  6
CONTINUOUS
 62
     7
 10
2650.7618683968
 20
2227.9497224367
 30
0.0
 11
2635.7618678008
 21
2227.9497224367
 31
0.0
  0
LINE
  5
28A
  8
0
  6
CONTINUOUS
 62
     7
 10
2635.7618678008
 20
2282.6888996637
 30
0.0
 11
2636.6197276507
 21
2282.6888996637
 31
0.0
  0
ARC
  5
28B
  8
0
  6
CONTINUOUS
 62
     7
 10
2636.6137456504
 20
2297.6973715134
 30
0.0
 40
15.00847304184741
 50
270.0228366591
 51
340.5058716238
  0
LINE
  5
28C
  8
0
  6
CONTINUOUS
 62
     7
 10
2229.9040067588
 20
2282.6888996637
 30
0.0
 11
2230.7618666087
 21
2282.6888996637
 31
0.0
  0
ARC
  5
28D
  8
0
  6
CONTINUOUS
 62
     7
 10
2229.9039628613
 20
2297.6888495957
 30
0.0
 40
14.99994993206289
 50
199.4711240404
 51
270.0001676767
  0
LINE
  5
28E
  8
0
  6
CONTINUOUS
 62
     7
 10
2630.7618725692
 20
2207.9650897062
 30
0.0
 11
2630.7618725692
 21
2222.9421574152
 31
0.0
  0
ARC
  5
28F
  8
0
  6
CONTINUOUS
 62
     7
 10
2630.7580565659
 20
2227.945968603
 30
0.0
 40
5.003812642944485
 50
270.043694862
 51
0.0429829933
  0
ARC
  5
290
  8
0
  6
CONTINUOUS
 62
     7
 10
2235.7656778436
 20
1242.4318021142
 30
0.0
 40
5.003812642944485
 50
90.043694862
 51
180.0429829933
  0
LINE
  5
291
  8
0
  6
CONTINUOUS
 62
     7
 10
2230.7618666087
 20
1242.4280482805
 30
0.0
 11
2215.7618660126
 21
1242.4280482805
 31
0.0
  0
LINE
  5
292
  8
0
  6
CONTINUOUS
 62
     7
 10
2235.7618618403
 20
1247.435613302
 30
0.0
 11
2235.7618618403
 21
1262.412681011
 31
0.0
  0
LINE
  5
293
  8
0
  6
CONTINUOUS
 62
     7
 10
2235.7618618403
 20
2207.9650897062
 30
0.0
 11
2235.7618618403
 21
2222.9421574152
 31
0.0
  0
ARC
  5
294
  8
0
  6
CONTINUOUS
 62
     7
 10
2630.7580651531
 20
1242.4318106884
 30
0.0
 40
5.003804062161712
 50
359.9569187541
 51
89.9564033907
  0
LINE
  5
295
  8
0
  6
CONTINUOUS
 62
     7
 10
2630.7618725692
 20
1247.435613302
 30
0.0
 11
2630.7618725692
 21
1262.412681011
 31
0.0
  0
LINE
  5
296
  8
0
  6
CONTINUOUS
 62
     7
 10
2635.7618678008
 20
1242.4280482805
 30
0.0
 11
2650.7618683968
 21
1242.4280482805
 31
0.0
  0
LINE
  5
297
  8
0
  6
CONTINUOUS
 62
     7
 10
2636.6197276507
 20
1187.6888710535
 30
0.0
 11
2635.7618678008
 21
1187.6888710535
 31
0.0
  0
LINE
  5
298
  8
0
  6
CONTINUOUS
 62
     7
 10
2635.7618678008
 20
1187.6888710535
 30
0.0
 11
2635.7618678008
 21
1242.4280482805
 31
0.0
  0
ARC
  5
299
  8
0
  6
CONTINUOUS
 62
     7
 10
2636.6196914316
 20
1172.6888078193
 30
0.0
 40
15.00006323426426
 50
19.4714300635
 51
89.9998616536
  0
LINE
  5
29A
  8
0
  6
CONTINUOUS
 62
     7
 10
2230.7618666087
 20
1242.4280482805
 30
0.0
 11
2230.7618666087
 21
1187.6888710535
 31
0.0
  0
LINE
  5
29B
  8
0
  6
CONTINUOUS
 62
     7
 10
2230.7618666087
 20
1187.6888710535
 30
0.0
 11
2229.9040067588
 21
1187.6888710535
 31
0.0
  0
ARC
  5
29C
  8
0
  6
CONTINUOUS
 62
     7
 10
2229.9040429779
 20
1172.6888078193
 30
0.0
 40
15.00006323426468
 50
90.0001383464
 51
160.5285699365
  0
LINE
  5
29D
  8
0
  6
CONTINUOUS
 62
     7
 10
2630.7618725692
 20
1247.435613302
 30
0.0
 11
2235.7618618403
 21
1247.435613302
 31
0.0
  0
ARC
  5
29E
  8
0
  6
CONTINUOUS
 62
     7
 10
2333.2618672047
 20
2247.6888853586
 30
0.0
 40
17.50000000000006
 50
12.5516320431
 51
168.4379515472
  0
ARC
  5
29F
  8
0
  6
CONTINUOUS
 62
     7
 10
2533.2618672047
 20
2247.6888853586
 30
0.0
 40
17.5
 50
18.4079394378
 51
162.5816441525
  0
LINE
  5
2A0
  8
0
  6
CONTINUOUS
 62
     7
 10
2635.7618678008
 20
2282.6888996637
 30
0.0
 11
2230.7618666087
 21
2282.6888996637
 31
0.0
  0
CIRCLE
  5
2A1
  8
0
  6
CONTINUOUS
 62
     7
 10
2333.2618672047
 20
1222.6888853586
 30
0.0
 40
17.5
  0
CIRCLE
  5
2A2
  8
0
  6
CONTINUOUS
 62
     7
 10
2533.2618672047
 20
1222.6888853586
 30
0.0
 40
17.5
  0
LINE
  5
2A3
  8
0
  6
CONTINUOUS
 62
     7
 10
2635.7618678008
 20
1187.6888710535
 30
0.0
 11
2230.7618666087
 21
1187.6888710535
 31
0.0
  0
LINE
  5
2A4
  8
0
  6
CONTINUOUS
 62
     7
 10
2211.7188829575
 20
2245.7378346002
 30
0.0
 11
2183.2618672047
 21
2245.7378346002
 31
0.0
  0
LINE
  5
2A5
  8
0
  6
CONTINUOUS
 62
     7
 10
2685.2618712579
 20
1735.1888853586
 30
0.0
 11
2685.2618712579
 21
2171.8438405073
 31
0.0
  0
LINE
  5
2A6
  8
0
  6
CONTINUOUS
 62
     7
 10
2685.2618712579
 20
2188.567950157
 30
0.0
 11
2685.2618712579
 21
2229.3833929575
 31
0.0
  0
LINE
  5
2A7
  8
0
  6
CONTINUOUS
 62
     7
 10
2685.2618712579
 20
1234.6888619936
 30
0.0
 11
2685.2618712579
 21
1735.1888853586
 31
0.0
  0
LINE
  5
2A8
  8
0
  6
CONTINUOUS
 62
     7
 10
2181.2618631516
 20
1735.1888853586
 30
0.0
 11
2181.2618631516
 21
2235.6889087236
 31
0.0
  0
LINE
  5
2A9
  8
0
  6
CONTINUOUS
 62
     7
 10
2181.2618631516
 20
1234.6888619936
 30
0.0
 11
2181.2618631516
 21
1735.1888853586
 31
0.0
  0
LINE
  5
2AA
  8
0
  6
CONTINUOUS
 62
     7
 10
2630.7618725692
 20
1748.1888856268
 30
0.0
 11
2630.7618725692
 21
2155.2628714121
 31
0.0
  0
LINE
  5
2AB
  8
0
  6
CONTINUOUS
 62
     7
 10
2630.7618725692
 20
2171.9869512594
 30
0.0
 11
2630.7618725692
 21
2207.9650897062
 31
0.0
  0
ARC
  5
2AC
  8
0
  6
CONTINUOUS
 62
     7
 10
2235.6346370105
 20
2227.7232707148
 30
0.0
 40
19.75859061079722
 50
183.0076514003
 51
270.368927942
  0
LINE
  5
2AD
  8
0
  6
CONTINUOUS
 62
     7
 10
2630.7618725692
 20
2207.9650897062
 30
0.0
 11
2567.210044304
 21
2207.9650897062
 31
0.0
  0
LINE
  5
2AE
  8
0
  6
CONTINUOUS
 62
     7
 10
2551.2094456349
 20
2207.9650897062
 30
0.0
 11
2357.9460639153
 21
2207.9650897062
 31
0.0
  0
LINE
  5
2AF
  8
0
  6
CONTINUOUS
 62
     7
 10
2299.6581304465
 20
2207.9650897062
 30
0.0
 11
2235.7618618403
 21
2207.9650897062
 31
0.0
  0
LINE
  5
2B0
  8
0
  6
CONTINUOUS
 62
     7
 10
2635.7618678008
 20
2227.9497224367
 30
0.0
 11
2635.7618678008
 21
2228.9559084451
 31
0.0
  0
LINE
  5
2B1
  8
0
  6
CONTINUOUS
 62
     7
 10
2635.7618678008
 20
2253.9568382776
 30
0.0
 11
2635.7618678008
 21
2282.6888996637
 31
0.0
  0
LINE
  5
2B2
  8
0
  6
CONTINUOUS
 62
     7
 10
2230.7618666087
 20
2282.6888996637
 30
0.0
 11
2230.7618666087
 21
2250.4592973268
 31
0.0
  0
ARC
  5
2B3
  8
0
  6
CONTINUOUS
 62
     7
 10
2235.5503992607
 20
2227.521441284
 30
0.0
 40
4.584163737713781
 50
206.6635086008
 51
272.6439313723
  0
LINE
  5
2B4
  8
0
  6
CONTINUOUS
 62
     7
 10
2235.7618618403
 20
2222.9421574152
 30
0.0
 11
2247.1925723944
 21
2222.9421574152
 31
0.0
  0
LINE
  5
2B5
  8
0
  6
CONTINUOUS
 62
     7
 10
2305.4805058633
 20
2222.9421574152
 30
0.0
 11
2551.0801035558
 21
2222.9421574152
 31
0.0
  0
LINE
  5
2B6
  8
0
  6
CONTINUOUS
 62
     7
 10
2567.0807022248
 20
2222.9421574152
 30
0.0
 11
2630.7618725692
 21
2222.9421574152
 31
0.0
  0
INSERT
  5
2C2
  8
FORMAT
  2
SW_CENTERMARKSYMBOL_1
 10
2433.2618672047
 20
1738.1888853586
 30
0.0
  0
ENDSEC
  0
EOF
