  0
SECTION
  2
HEADER
  9
$ACADVER
  1
AC1015
  9
$ACADMAINTVER
 70
     6
  9
$DWGCODEPAGE
  3
ANSI_1252
  9
$INSBASE
 10
0.0
 20
0.0
 30
0.0
  9
$EXTMIN
 10
0.0
 20
0.0
 30
0.0
  9
$EXTMAX
 10
431.8
 20
279.4
 30
0.0
  9
$LIMMIN
 10
0.0
 20
0.0
  9
$LIMMAX
 10
431.8
 20
279.4
  9
$ORTHOMODE
 70
     0
  9
$REGENMODE
 70
     1
  9
$FILLMODE
 70
     1
  9
$QTEXTMODE
 70
     0
  9
$MIRRTEXT
 70
     1
  9
$LTSCALE
 40
1.0
  9
$ATTMODE
 70
     1
  9
$TEXTSIZE
 40
2.5
  9
$TRACEWID
 40
1.0
  9
$TEXTSTYLE
  7
Standard
  9
$CLAYER
  8
0
  9
$CELTYPE
  6
ByLayer
  9
$CECOLOR
 62
   256
  9
$CELTSCALE
 40
1.0
  9
$DISPSILH
 70
     0
  9
$DIMSCALE
 40
1.0
  9
$DIMASZ
 40
2.5
  9
$DIMEXO
 40
1.0
  9
$DIMDLI
 40
3.75
  9
$DIMRND
 40
0.0
  9
$DIMDLE
 40
0.0
  9
$DIMEXE
 40
1.0
  9
$DIMTP
 40
0.0
  9
$DIMTM
 40
0.0
  9
$DIMTXT
 40
2.5
  9
$DIMCEN
 40
2.5
  9
$DIMTSZ
 40
0.0
  9
$DIMTOL
 70
     0
  9
$DIMLIM
 70
     0
  9
$DIMTIH
 70
     1
  9
$DIMTOH
 70
     1
  9
$DIMSE1
 70
     0
  9
$DIMSE2
 70
     0
  9
$DIMTAD
 70
     1
  9
$DIMZIN
 70
     0
  9
$DIMBLK
  1

  9
$DIMASO
 70
     1
  9
$DIMSHO
 70
     1
  9
$DIMPOST
  1

  9
$DIMAPOST
  1

  9
$DIMALT
 70
     0
  9
$DIMALTD
 70
     3
  9
$DIMALTF
 40
0.0393700787
  9
$DIMLFAC
 40
1.0
  9
$DIMTOFL
 70
     1
  9
$DIMTVP
 40
0.0
  9
$DIMTIX
 70
     0
  9
$DIMSOXD
 70
     0
  9
$DIMSAH
 70
     0
  9
$DIMBLK1
  1

  9
$DIMBLK2
  1

  9
$DIMSTYLE
  2
ISO-25
  9
$DIMCLRD
 70
     0
  9
$DIMCLRE
 70
     0
  9
$DIMCLRT
 70
     0
  9
$DIMTFAC
 40
1.0
  9
$DIMGAP
 40
1.524
  9
$DIMJUST
 70
     0
  9
$DIMSD1
 70
     0
  9
$DIMSD2
 70
     0
  9
$DIMTOLJ
 70
     0
  9
$DIMTZIN
 70
     0
  9
$DIMALTZ
 70
     0
  9
$DIMALTTZ
 70
     0
  9
$DIMUPT
 70
     0
  9
$DIMDEC
 70
     2
  9
$DIMTDEC
 70
     2
  9
$DIMALTU
 70
     2
  9
$DIMALTTD
 70
     3
  9
$DIMTXSTY
  7
Standard
  9
$DIMAUNIT
 70
     0
  9
$DIMADEC
 70
     2
  9
$DIMALTRND
 40
0.0
  9
$DIMAZIN
 70
     0
  9
$DIMDSEP
 70
    44
  9
$DIMATFIT
 70
     3
  9
$DIMFRAC
 70
     0
  9
$DIMLDRBLK
  1

  9
$DIMLUNIT
 70
     2
  9
$DIMLWD
 70
    -2
  9
$DIMLWE
 70
    -2
  9
$DIMTMOVE
 70
     0
  9
$LUNITS
 70
     2
  9
$LUPREC
 70
     2
  9
$SKETCHINC
 40
1.0
  9
$FILLETRAD
 40
10.0
  9
$AUNITS
 70
     0
  9
$AUPREC
 70
     2
  9
$MENU
  1
.
  9
$ELEVATION
 40
0.0
  9
$PELEVATION
 40
0.0
  9
$THICKNESS
 40
0.0
  9
$LIMCHECK
 70
     0
  9
$CHAMFERA
 40
10.0
  9
$CHAMFERB
 40
10.0
  9
$CHAMFERC
 40
20.0
  9
$CHAMFERD
 40
0.0
  9
$SKPOLY
 70
     0
  9
$TDCREATE
 40
2457130.378971667
  9
$TDUCREATE
 40
2457130.045638334
  9
$TDUPDATE
 40
2457130.378972245
  9
$TDUUPDATE
 40
2457130.045638912
  9
$TDINDWG
 40
0.0000000116
  9
$TDUSRTIMER
 40
0.0000000116
  9
$USRTIMER
 70
     1
  9
$ANGBASE
 50
0.0
  9
$ANGDIR
 70
     0
  9
$PDMODE
 70
     0
  9
$PDSIZE
 40
-1.0
  9
$PLINEWID
 40
0.0
  9
$SPLFRAME
 70
     0
  9
$SPLINETYPE
 70
     6
  9
$SPLINESEGS
 70
     8
  9
$HANDSEED
  5
26A
  9
$SURFTAB1
 70
     6
  9
$SURFTAB2
 70
     6
  9
$SURFTYPE
 70
     6
  9
$SURFU
 70
     6
  9
$SURFV
 70
     6
  9
$UCSBASE
  2

  9
$UCSNAME
  2

  9
$UCSORG
 10
0.0
 20
0.0
 30
0.0
  9
$UCSXDIR
 10
1.0
 20
0.0
 30
0.0
  9
$UCSYDIR
 10
0.0
 20
1.0
 30
0.0
  9
$UCSORTHOREF
  2

  9
$UCSORTHOVIEW
 70
     0
  9
$UCSORGTOP
 10
0.0
 20
0.0
 30
0.0
  9
$UCSORGBOTTOM
 10
0.0
 20
0.0
 30
0.0
  9
$UCSORGLEFT
 10
0.0
 20
0.0
 30
0.0
  9
$UCSORGRIGHT
 10
0.0
 20
0.0
 30
0.0
  9
$UCSORGFRONT
 10
0.0
 20
0.0
 30
0.0
  9
$UCSORGBACK
 10
0.0
 20
0.0
 30
0.0
  9
$PUCSBASE
  2

  9
$PUCSNAME
  2

  9
$PUCSORG
 10
0.0
 20
0.0
 30
0.0
  9
$PUCSXDIR
 10
1.0
 20
0.0
 30
0.0
  9
$PUCSYDIR
 10
0.0
 20
1.0
 30
0.0
  9
$PUCSORTHOREF
  2

  9
$PUCSORTHOVIEW
 70
     0
  9
$PUCSORGTOP
 10
0.0
 20
0.0
 30
0.0
  9
$PUCSORGBOTTOM
 10
0.0
 20
0.0
 30
0.0
  9
$PUCSORGLEFT
 10
0.0
 20
0.0
 30
0.0
  9
$PUCSORGRIGHT
 10
0.0
 20
0.0
 30
0.0
  9
$PUCSORGFRONT
 10
0.0
 20
0.0
 30
0.0
  9
$PUCSORGBACK
 10
0.0
 20
0.0
 30
0.0
  9
$USERI1
 70
     0
  9
$USERI2
 70
     0
  9
$USERI3
 70
     0
  9
$USERI4
 70
     0
  9
$USERI5
 70
     0
  9
$USERR1
 40
0.0
  9
$USERR2
 40
0.0
  9
$USERR3
 40
0.0
  9
$USERR4
 40
0.0
  9
$USERR5
 40
0.0
  9
$WORLDVIEW
 70
     1
  9
$SHADEDGE
 70
     3
  9
$SHADEDIF
 70
    70
  9
$TILEMODE
 70
     1
  9
$MAXACTVP
 70
    64
  9
$PINSBASE
 10
0.0
 20
0.0
 30
0.0
  9
$PLIMCHECK
 70
     0
  9
$PEXTMIN
 10
1.0000000000E+20
 20
1.0000000000E+20
 30
1.0000000000E+20
  9
$PEXTMAX
 10
-1.0000000000E+20
 20
-1.0000000000E+20
 30
-1.0000000000E+20
  9
$PLIMMIN
 10
0.0
 20
0.0
  9
$PLIMMAX
 10
420.0
 20
297.0
  9
$UNITMODE
 70
     0
  9
$VISRETAIN
 70
     1
  9
$PLINEGEN
 70
     0
  9
$PSLTSCALE
 70
     1
  9
$TREEDEPTH
 70
  3020
  9
$CMLSTYLE
  2
Standard
  9
$CMLJUST
 70
     0
  9
$CMLSCALE
 40
20.0
  9
$PROXYGRAPHICS
 70
     1
  9
$MEASUREMENT
 70
     1
  9
$CELWEIGHT
370
    -1
  9
$ENDCAPS
280
     0
  9
$JOINSTYLE
280
     0
  9
$LWDISPLAY
290
     1
  9
$INSUNITS
 70
     4
  9
$HYPERLINKBASE
  1

  9
$STYLESHEET
  1

  9
$XEDIT
290
     1
  9
$CEPSNTYPE
380
     0
  9
$PSTYLEMODE
290
     1
  9
$FINGERPRINTGUID
  2
{F7B17108-ECD6-47D9-9BE3-63C353310F26}
  9
$VERSIONGUID
  2
{FAEB1C32-E019-11D5-929B-00C0DF256EC4}
  9
$EXTNAMES
290
     1
  9
$PSVPSCALE
 40
0.0
  9
$OLESTARTUP
290
     0
  0
ENDSEC
  0
SECTION
  2
CLASSES
  0
CLASS
  1
ACDBDICTIONARYWDFLT
  2
AcDbDictionaryWithDefault
  3
ObjectDBX Classes
 90
        0
280
     0
281
     0
  0
CLASS
  1
VISUALSTYLE
  2
AcDbVisualStyle
  3
ObjectDBX Classes
 90
     4095
280
     0
281
     0
  0
CLASS
  1
MATERIAL
  2
AcDbMaterial
  3
ObjectDBX Classes
 90
     1153
280
     0
281
     0
  0
CLASS
  1
ACDBPLACEHOLDER
  2
AcDbPlaceHolder
  3
ObjectDBX Classes
 90
        0
280
     0
281
     0
  0
CLASS
  1
LAYOUT
  2
AcDbLayout
  3
ObjectDBX Classes
 90
        0
280
     0
281
     0
  0
ENDSEC
  0
SECTION
  2
TABLES
  0
TABLE
  2
VPORT
  5
8
330
0
100
AcDbSymbolTable
 70
     1
  0
VPORT
  5
29
330
8
100
AcDbSymbolTableRecord
100
AcDbViewportTableRecord
  2
*Active
 70
     0
 10
0.0
 20
0.0
 11
1.0
 21
1.0
 12
215.9
 22
139.7
 13
0.0
 23
0.0
 14
10.0
 24
10.0
 15
10.0
 25
10.0
 16
0.0
 26
0.0
 36
1.0
 17
0.0
 27
0.0
 37
0.0
 40
279.4
 41
1.5454545455
 42
50.0
 43
0.0
 44
0.0
 50
0.0
 51
0.0
 71
     0
 72
  2000
 73
     1
 74
     3
 75
     0
 76
     0
 77
     0
 78
     0
281
     0
 65
     1
110
0.0
120
0.0
130
0.0
111
1.0
121
0.0
131
0.0
112
0.0
122
1.0
132
0.0
 79
     0
146
0.0
  0
ENDTAB
  0
TABLE
  2
LTYPE
  5
5
330
0
100
AcDbSymbolTable
 70
     6
  0
LTYPE
  5
14
330
5
100
AcDbSymbolTableRecord
100
AcDbLinetypeTableRecord
  2
ByBlock
 70
     0
  3

 72
    65
 73
     0
 40
0.0
  0
LTYPE
  5
15
330
5
100
AcDbSymbolTableRecord
100
AcDbLinetypeTableRecord
  2
ByLayer
 70
     0
  3

 72
    65
 73
     0
 40
0.0
  0
LTYPE
  5
16
330
5
100
AcDbSymbolTableRecord
100
AcDbLinetypeTableRecord
  2
Continuous
 70
     0
  3
Solid line
 72
    65
 73
     0
 40
0.0
  0
LTYPE
  5
3F
330
5
100
AcDbSymbolTableRecord
100
AcDbLinetypeTableRecord
  2
HIDDEN
 70
     0
  3
Hidden __ __ __ __ __ __ __ __ __ __ __ __ __ __
 72
    65
 73
     2
 40
1.905
 49
1.27
 74
     0
 49
-0.635
 74
     0
  0
LTYPE
  5
40
330
5
100
AcDbSymbolTableRecord
100
AcDbLinetypeTableRecord
  2
PHANTOM
 70
     0
  3
Phantom ______  __  __  ______  __  __  ______
 72
    65
 73
     6
 40
12.7
 49
6.35
 74
     0
 49
-1.27
 74
     0
 49
1.27
 74
     0
 49
-1.27
 74
     0
 49
1.27
 74
     0
 49
-1.27
 74
     0
  0
LTYPE
  5
41
330
5
100
AcDbSymbolTableRecord
100
AcDbLinetypeTableRecord
  2
CENTER
 70
     0
  3
Center ____ _ ____ _ ____ _ ____ _ ____ _ ____
 72
    65
 73
     4
 40
10.16
 49
6.35
 74
     0
 49
-1.27
 74
     0
 49
1.27
 74
     0
 49
-1.27
 74
     0
  0
LTYPE
  5
42
330
5
100
AcDbSymbolTableRecord
100
AcDbLinetypeTableRecord
  2
CENTERX2
 70
     0
  3
Center (2x) ________  __  ________  __  _____
 72
    65
 73
     4
 40
20.32
 49
12.7
 74
     0
 49
-2.54
 74
     0
 49
2.54
 74
     0
 49
-2.54
 74
     0
  0
LTYPE
  5
43
330
5
100
AcDbSymbolTableRecord
100
AcDbLinetypeTableRecord
  2
DOT2
 70
     0
  3
Dot (.5x) ........................................
 72
    65
 73
     2
 40
0.635
 49
0.0
 74
     0
 49
-0.635
 74
     0
  0
ENDTAB
  0
TABLE
  2
LAYER
  5
2
330
0
100
AcDbSymbolTable
 70
     3
  0
LAYER
  5
10
330
2
100
AcDbSymbolTableRecord
100
AcDbLayerTableRecord
  2
0
 70
     0
 62
     7
  6
Continuous
370
    -3
390
F
  0
LAYER
  5
44
330
2
100
AcDbSymbolTableRecord
100
AcDbLayerTableRecord
  2
FORMAT
 70
     0
 62
     7
  6
Continuous
370
    -3
390
F
  0
LAYER
  5
45
330
2
100
AcDbSymbolTableRecord
100
AcDbLayerTableRecord
  2
PROTOTYPE
 70
     0
 62
     7
  6
Continuous
370
    -3
390
F
  0
ENDTAB
  0
TABLE
  2
STYLE
  5
3
330
0
100
AcDbSymbolTable
 70
     1
  0
STYLE
  5
11
330
3
100
AcDbSymbolTableRecord
100
AcDbTextStyleTableRecord
  2
Standard
 70
     0
 40
0.0
 41
1.0
 50
0.0
 71
     0
 42
2.5
  3
txt
  4

  0
ENDTAB
  0
TABLE
  2
VIEW
  5
6
330
0
100
AcDbSymbolTable
 70
     0
  0
ENDTAB
  0
TABLE
  2
UCS
  5
7
330
0
100
AcDbSymbolTable
 70
     0
  0
ENDTAB
  0
TABLE
  2
APPID
  5
9
330
0
100
AcDbSymbolTable
 70
     1
  0
APPID
  5
12
330
9
100
AcDbSymbolTableRecord
100
AcDbRegAppTableRecord
  2
ACAD
 70
     0
  0
ENDTAB
  0
TABLE
  2
DIMSTYLE
  5
A
330
0
100
AcDbSymbolTable
 70
     1
100
AcDbDimStyleTable
  0
DIMSTYLE
105
27
330
A
100
AcDbSymbolTableRecord
100
AcDbDimStyleTableRecord
  2
ISO-25
 70
     0
 41
2.5
 42
0.625
 43
3.75
 44
1.25
 73
     0
 74
     0
 77
     1
 78
     8
140
2.5
141
2.5
143
0.0393700787
147
0.625
171
     3
172
     1
178
     0
271
     2
272
     2
274
     3
278
    44
283
     0
284
     8
340
11
  0
ENDTAB
  0
TABLE
  2
BLOCK_RECORD
  5
1
330
0
100
AcDbSymbolTable
 70
     2
  0
BLOCK_RECORD
  5
1F
330
1
100
AcDbSymbolTableRecord
100
AcDbBlockTableRecord
  2
*Model_Space
340
22
  0
BLOCK_RECORD
  5
1B
330
1
100
AcDbSymbolTableRecord
100
AcDbBlockTableRecord
  2
*Paper_Space
340
1E
  0
BLOCK_RECORD
  5
23
330
1
100
AcDbSymbolTableRecord
100
AcDbBlockTableRecord
  2
*Paper_Space0
340
26
  0
BLOCK_RECORD
  5
192
330
1
100
AcDbSymbolTableRecord
100
AcDbBlockTableRecord
  2
SW_CENTERMARKSYMBOL_0
340
0
102
{BLKREFS
331
19D
102
}
  0
ENDTAB
  0
ENDSEC
  0
SECTION
  2
BLOCKS
  0
BLOCK
  5
20
330
1F
100
AcDbEntity
  8
0
100
AcDbBlockBegin
  2
*Model_Space
 70
     0
 10
0.0
 20
0.0
 30
0.0
  3
*Model_Space
  1

  0
ENDBLK
  5
21
330
1F
100
AcDbEntity
  8
0
100
AcDbBlockEnd
  0
BLOCK
  5
1C
330
1B
100
AcDbEntity
 67
     1
  8
0
100
AcDbBlockBegin
  2
*Paper_Space
 70
     0
 10
0.0
 20
0.0
 30
0.0
  3
*Paper_Space
  1

  0
ENDBLK
  5
1D
330
1B
100
AcDbEntity
 67
     1
  8
0
100
AcDbBlockEnd
  0
BLOCK
  5
24
330
23
100
AcDbEntity
  8
0
100
AcDbBlockBegin
  2
*Paper_Space0
 70
     0
 10
0.0
 20
0.0
 30
0.0
  3
*Paper_Space0
  1

  0
ENDBLK
  5
25
330
23
100
AcDbEntity
  8
0
100
AcDbBlockEnd
  0
BLOCK
  5
193
330
192
100
AcDbEntity
  8
0
100
AcDbBlockBegin
  2
SW_CENTERMARKSYMBOL_0
 70
     0
 10
0.0
 20
0.0
 30
0.0
  3
SW_CENTERMARKSYMBOL_0
  1

  0
LINE
  5
195
330
192
100
AcDbEntity
  8
0
  6
Continuous
 62
     0
370
     0
100
AcDbLine
 10
0.0
 20
0.0
 30
0.0
 11
0.0
 21
2.5
 31
0.0
  0
LINE
  5
196
330
192
100
AcDbEntity
  8
0
  6
Continuous
 62
     0
370
     0
100
AcDbLine
 10
0.0
 20
0.0
 30
0.0
 11
-2.5
 21
0.0
 31
0.0
  0
LINE
  5
197
330
192
100
AcDbEntity
  8
0
  6
Continuous
 62
     0
370
     0
100
AcDbLine
 10
0.0
 20
0.0
 30
0.0
 11
0.0
 21
-2.5
 31
0.0
  0
LINE
  5
198
330
192
100
AcDbEntity
  8
0
  6
Continuous
 62
     0
370
     0
100
AcDbLine
 10
0.0
 20
0.0
 30
0.0
 11
2.5
 21
0.0
 31
0.0
  0
LINE
  5
199
330
192
100
AcDbEntity
  8
0
  6
Continuous
 62
     0
370
     0
100
AcDbLine
 10
0.0
 20
5.0
 30
0.0
 11
0.0
 21
373.3233878951
 31
0.0
  0
LINE
  5
19A
330
192
100
AcDbEntity
  8
0
  6
Continuous
 62
     0
370
     0
100
AcDbLine
 10
-5.0
 20
0.0
 30
0.0
 11
-375.1215462404
 21
0.0
 31
0.0
  0
LINE
  5
19B
330
192
100
AcDbEntity
  8
0
  6
Continuous
 62
     0
370
     0
100
AcDbLine
 10
0.0
 20
-5.0
 30
0.0
 11
0.0
 21
-380.4756110178
 31
0.0
  0
LINE
  5
19C
330
192
100
AcDbEntity
  8
0
  6
Continuous
 62
     0
370
     0
100
AcDbLine
 10
5.0
 20
0.0
 30
0.0
 11
378.7763354032
 21
0.0
 31
0.0
  0
ENDBLK
  5
194
330
192
100
AcDbEntity
  8
0
100
AcDbBlockEnd
  0
ENDSEC
  0
SECTION
  2
ENTITIES
  0
LINE
  5
46
330
1F
100
AcDbEntity
  8
0
  6
Continuous
 62
     7
370
    15
100
AcDbLine
 10
-574.0737369331
 20
471.8834406141
 30
0.0
 11
-574.0737369331
 21
446.8834421042
 31
0.0
  0
LINE
  5
47
330
1F
100
AcDbEntity
  8
0
  6
Continuous
 62
     7
370
    15
100
AcDbLine
 10
140.9262368408
 20
446.8834421042
 30
0.0
 11
140.9262368408
 21
471.8834406141
 31
0.0
  0
LINE
  5
48
330
1F
100
AcDbEntity
  8
0
  6
Continuous
 62
     7
370
    15
100
AcDbLine
 10
-524.0737548145
 20
594.8834440116
 30
0.0
 11
-524.0737548145
 21
591.6324353222
 31
0.0
  0
LINE
  5
49
330
1F
100
AcDbEntity
  8
0
  6
Continuous
 62
     7
370
    15
100
AcDbLine
 10
90.9262547222
 20
591.6324353222
 30
0.0
 11
90.9262547222
 21
594.8834440116
 31
0.0
  0
ARC
  5
4A
330
1F
100
AcDbEntity
  8
0
  6
Continuous
 62
     7
370
    15
100
AcDbCircle
 10
-521.0737500461
 20
591.6324371164
 30
0.0
 40
3.0
100
AcDbArc
 50
180.0
 51
265.0
  0
ARC
  5
4B
330
1F
100
AcDbEntity
  8
0
  6
Continuous
 62
     7
370
    15
100
AcDbCircle
 10
87.9262499539
 20
591.6324371164
 30
0.0
 40
3.0
100
AcDbArc
 50
275.0
 51
0.0
  0
LINE
  5
4C
330
1F
100
AcDbEntity
  8
0
  6
Continuous
 62
     7
370
    15
100
AcDbLine
 10
-204.5737499418
 20
594.8834440116
 30
0.0
 11
-204.5737499418
 21
597.3834453527
 31
0.0
  0
LINE
  5
4D
330
1F
100
AcDbEntity
  8
0
  6
Continuous
 62
     7
370
    15
100
AcDbLine
 10
-228.5737501504
 20
597.3834453527
 30
0.0
 11
-228.5737501504
 21
594.8834440116
 31
0.0
  0
LINE
  5
4E
330
1F
100
AcDbEntity
  8
0
  6
Continuous
 62
     7
370
    15
100
AcDbLine
 10
-521.3352194103
 20
588.6438547078
 30
0.0
 11
-505.0785591873
 21
587.2215798501
 31
0.0
  0
LINE
  5
4F
330
1F
100
AcDbEntity
  8
0
  6
Continuous
 62
     7
370
    15
100
AcDbLine
 10
71.931059095
 20
587.2215798501
 30
0.0
 11
88.187719318
 21
588.6438547078
 31
0.0
  0
LINE
  5
50
330
1F
100
AcDbEntity
  8
0
  6
Continuous
 62
     7
370
    15
100
AcDbLine
 10
-208.5737496662
 20
612.8834432367
 30
0.0
 11
-208.5737496662
 21
613.38344425
 31
0.0
  0
LINE
  5
51
330
1F
100
AcDbEntity
  8
0
  6
Continuous
 62
     7
370
    15
100
AcDbLine
 10
-224.5737504261
 20
613.38344425
 30
0.0
 11
-224.5737504261
 21
612.8834432367
 31
0.0
  0
LINE
  5
52
330
1F
100
AcDbEntity
  8
0
  6
Continuous
 62
     7
370
    15
100
AcDbLine
 10
-210.073749912
 20
613.38344425
 30
0.0
 11
-210.073749912
 21
624.8834452037
 31
0.0
  0
LINE
  5
53
330
1F
100
AcDbEntity
  8
0
  6
Continuous
 62
     7
370
    15
100
AcDbLine
 10
-223.0737501802
 20
624.8834452037
 30
0.0
 11
-223.0737501802
 21
613.38344425
 31
0.0
  0
LINE
  5
54
330
1F
100
AcDbEntity
  8
0
  6
Continuous
 62
     7
370
    15
100
AcDbLine
 10
-210.573749994
 20
471.8834406141
 30
0.0
 11
-210.573749994
 21
587.7513496581
 31
0.0
  0
LINE
  5
55
330
1F
100
AcDbEntity
  8
0
  6
Continuous
 62
     7
370
    15
100
AcDbLine
 10
-222.5737500983
 20
587.7513571087
 30
0.0
 11
-222.5737500983
 21
471.8834406141
 31
0.0
  0
LINE
  5
56
330
1F
100
AcDbEntity
  8
0
  6
Continuous
 62
     7
370
    15
100
AcDbLine
 10
-210.573749994
 20
607.3834432665
 30
0.0
 11
-210.573749994
 21
612.8834432367
 31
0.0
  0
LINE
  5
57
330
1F
100
AcDbEntity
  8
0
  6
Continuous
 62
     7
370
    15
100
AcDbLine
 10
-222.5737500983
 20
612.8834432367
 30
0.0
 11
-222.5737500983
 21
607.3834432665
 31
0.0
  0
ARC
  5
58
330
1F
100
AcDbEntity
  8
0
  6
Continuous
 62
     7
370
    15
100
AcDbCircle
 10
-505.5143399273
 20
582.2406064195
 30
0.0
 40
4.999999999999988
100
AcDbArc
 50
55.1877466659
 51
85.0
  0
ARC
  5
59
330
1F
100
AcDbEntity
  8
0
  6
Continuous
 62
     7
370
    15
100
AcDbCircle
 10
72.366839835
 20
582.2406064195
 30
0.0
 40
4.999999999999912
100
AcDbArc
 50
95.0
 51
124.8122533341
  0
LINE
  5
5A
330
1F
100
AcDbEntity
  8
0
  6
Continuous
 62
     7
370
    15
100
AcDbLine
 10
-490.6598975929
 20
554.4042407911
 30
0.0
 11
-395.6765135797
 21
554.4042407911
 31
0.0
  0
LINE
  5
5B
330
1F
100
AcDbEntity
  8
0
  6
Continuous
 62
     7
370
    15
100
AcDbLine
 10
-383.6765041622
 20
554.4042407911
 30
0.0
 11
-222.5737500983
 21
554.4042407911
 31
0.0
  0
LINE
  5
5C
330
1F
100
AcDbEntity
  8
0
  6
Continuous
 62
     7
370
    15
100
AcDbLine
 10
-210.573749994
 20
554.4042407911
 30
0.0
 11
-49.4709959301
 21
554.4042407911
 31
0.0
  0
LINE
  5
5D
330
1F
100
AcDbEntity
  8
0
  6
Continuous
 62
     7
370
    15
100
AcDbLine
 10
-37.4709865125
 20
554.4042407911
 30
0.0
 11
57.5123975006
 21
554.4042407911
 31
0.0
  0
LINE
  5
5E
330
1F
100
AcDbEntity
  8
0
  6
Continuous
 62
     7
370
    15
100
AcDbLine
 10
-485.5737438473
 20
546.8834435943
 30
0.0
 11
-485.5737438473
 21
471.8834406141
 31
0.0
  0
LINE
  5
5F
330
1F
100
AcDbEntity
  8
0
  6
Continuous
 62
     7
370
    15
100
AcDbLine
 10
52.426243755
 20
471.8834406141
 30
0.0
 11
52.426243755
 21
546.8834435943
 31
0.0
  0
ARC
  5
60
330
1F
100
AcDbEntity
  8
0
  6
Continuous
 62
     7
370
    15
100
AcDbCircle
 10
-485.0737500461
 20
550.8834435943
 30
0.0
 40
6.000000000000086
100
AcDbArc
 50
25.0
 51
35.9302218348
  0
ARC
  5
61
330
1F
100
AcDbEntity
  8
0
  6
Continuous
 62
     7
370
    15
100
AcDbCircle
 10
51.9262499539
 20
550.8834435943
 30
0.0
 40
6.000000000000149
100
AcDbArc
 50
144.0697781652
 51
155.0
  0
LINE
  5
62
330
1F
100
AcDbEntity
  8
0
  6
Continuous
 62
     7
370
    15
100
AcDbLine
 10
-479.6358993324
 20
553.4191529643
 30
0.0
 11
-476.5882542404
 21
546.8834435943
 31
0.0
  0
LINE
  5
63
330
1F
100
AcDbEntity
  8
0
  6
Continuous
 62
     7
370
    15
100
AcDbLine
 10
43.4407541481
 20
546.8834435943
 30
0.0
 11
46.4883992401
 21
553.4191529643
 31
0.0
  0
LINE
  5
64
330
1F
100
AcDbEntity
  8
0
  6
Continuous
 62
     7
370
    15
100
AcDbLine
 10
-377.676506904
 20
594.8834440116
 30
0.0
 11
-377.676506904
 21
597.3834453527
 31
0.0
  0
LINE
  5
65
330
1F
100
AcDbEntity
  8
0
  6
Continuous
 62
     7
370
    15
100
AcDbLine
 10
-401.6765108379
 20
597.3834453527
 30
0.0
 11
-401.6765108379
 21
594.8834440116
 31
0.0
  0
LINE
  5
66
330
1F
100
AcDbEntity
  8
0
  6
Continuous
 62
     7
370
    15
100
AcDbLine
 10
-31.4709892544
 20
594.8834440116
 30
0.0
 11
-31.4709892544
 21
597.3834453527
 31
0.0
  0
LINE
  5
67
330
1F
100
AcDbEntity
  8
0
  6
Continuous
 62
     7
370
    15
100
AcDbLine
 10
-55.4709931883
 20
597.3834453527
 30
0.0
 11
-55.4709931883
 21
594.8834440116
 31
0.0
  0
LINE
  5
68
330
1F
100
AcDbEntity
  8
0
  6
Continuous
 62
     7
370
    15
100
AcDbLine
 10
-381.6765001091
 20
612.8834432367
 30
0.0
 11
-381.6765001091
 21
613.38344425
 31
0.0
  0
LINE
  5
69
330
1F
100
AcDbEntity
  8
0
  6
Continuous
 62
     7
370
    15
100
AcDbLine
 10
-397.6765027317
 20
613.38344425
 30
0.0
 11
-397.6765027317
 21
612.8834432367
 31
0.0
  0
LINE
  5
6A
330
1F
100
AcDbEntity
  8
0
  6
Continuous
 62
     7
370
    15
100
AcDbLine
 10
-35.4709973606
 20
612.8834432367
 30
0.0
 11
-35.4709973606
 21
613.38344425
 31
0.0
  0
LINE
  5
6B
330
1F
100
AcDbEntity
  8
0
  6
Continuous
 62
     7
370
    15
100
AcDbLine
 10
-51.4709999832
 20
613.38344425
 30
0.0
 11
-51.4709999832
 21
612.8834432367
 31
0.0
  0
LINE
  5
6C
330
1F
100
AcDbEntity
  8
0
  6
Continuous
 62
     7
370
    15
100
AcDbLine
 10
-383.1765105995
 20
613.38344425
 30
0.0
 11
-383.1765105995
 21
624.8834452037
 31
0.0
  0
LINE
  5
6D
330
1F
100
AcDbEntity
  8
0
  6
Continuous
 62
     7
370
    15
100
AcDbLine
 10
-396.1765071424
 20
624.8834452037
 30
0.0
 11
-396.1765071424
 21
613.38344425
 31
0.0
  0
LINE
  5
6E
330
1F
100
AcDbEntity
  8
0
  6
Continuous
 62
     7
370
    15
100
AcDbLine
 10
-36.9709929498
 20
613.38344425
 30
0.0
 11
-36.9709929498
 21
624.8834452037
 31
0.0
  0
LINE
  5
6F
330
1F
100
AcDbEntity
  8
0
  6
Continuous
 62
     7
370
    15
100
AcDbLine
 10
-49.9709894928
 20
624.8834452037
 30
0.0
 11
-49.9709894928
 21
613.38344425
 31
0.0
  0
LINE
  5
70
330
1F
100
AcDbEntity
  8
0
  6
Continuous
 62
     7
370
    15
100
AcDbLine
 10
-383.6765041622
 20
471.8834406141
 30
0.0
 11
-383.6765041622
 21
587.4421952668
 31
0.0
  0
LINE
  5
71
330
1F
100
AcDbEntity
  8
0
  6
Continuous
 62
     7
370
    15
100
AcDbLine
 10
-395.6765135797
 20
588.0576132241
 30
0.0
 11
-395.6765135797
 21
471.8834406141
 31
0.0
  0
LINE
  5
72
330
1F
100
AcDbEntity
  8
0
  6
Continuous
 62
     7
370
    15
100
AcDbLine
 10
-383.6765041622
 20
607.3834432665
 30
0.0
 11
-383.6765041622
 21
612.8834432367
 31
0.0
  0
LINE
  5
73
330
1F
100
AcDbEntity
  8
0
  6
Continuous
 62
     7
370
    15
100
AcDbLine
 10
-395.6765135797
 20
612.8834432367
 30
0.0
 11
-395.6765135797
 21
607.3834432665
 31
0.0
  0
LINE
  5
74
330
1F
100
AcDbEntity
  8
0
  6
Continuous
 62
     7
370
    15
100
AcDbLine
 10
-37.4709865125
 20
471.8834406141
 30
0.0
 11
-37.4709865125
 21
588.0578739945
 31
0.0
  0
LINE
  5
75
330
1F
100
AcDbEntity
  8
0
  6
Continuous
 62
     7
370
    15
100
AcDbLine
 10
-49.4709959301
 20
587.4421468381
 30
0.0
 11
-49.4709959301
 21
471.8834406141
 31
0.0
  0
LINE
  5
76
330
1F
100
AcDbEntity
  8
0
  6
Continuous
 62
     7
370
    15
100
AcDbLine
 10
-37.4709865125
 20
607.3834432665
 30
0.0
 11
-37.4709865125
 21
612.8834432367
 31
0.0
  0
LINE
  5
77
330
1F
100
AcDbEntity
  8
0
  6
Continuous
 62
     7
370
    15
100
AcDbLine
 10
-49.4709959301
 20
612.8834432367
 30
0.0
 11
-49.4709959301
 21
607.3834432665
 31
0.0
  0
LINE
  5
78
330
1F
100
AcDbEntity
  8
0
  6
Continuous
 62
     7
370
    15
100
AcDbLine
 10
-484.6598854336
 20
594.8834440116
 30
0.0
 11
-484.6598854336
 21
597.3834453527
 31
0.0
  0
LINE
  5
79
330
1F
100
AcDbEntity
  8
0
  6
Continuous
 62
     7
370
    15
100
AcDbLine
 10
-508.6599042686
 20
597.3834453527
 30
0.0
 11
-508.6599042686
 21
594.8834440116
 31
0.0
  0
LINE
  5
7A
330
1F
100
AcDbEntity
  8
0
  6
Continuous
 62
     7
370
    15
100
AcDbLine
 10
75.5124041764
 20
594.8834440116
 30
0.0
 11
75.5124041764
 21
597.3834453527
 31
0.0
  0
LINE
  5
7B
330
1F
100
AcDbEntity
  8
0
  6
Continuous
 62
     7
370
    15
100
AcDbLine
 10
51.5123853413
 20
597.3834453527
 30
0.0
 11
51.5123853413
 21
594.8834440116
 31
0.0
  0
LINE
  5
7C
330
1F
100
AcDbEntity
  8
0
  6
Continuous
 62
     7
370
    15
100
AcDbLine
 10
-488.6598935398
 20
612.8834432367
 30
0.0
 11
-488.6598935398
 21
613.38344425
 31
0.0
  0
LINE
  5
7D
330
1F
100
AcDbEntity
  8
0
  6
Continuous
 62
     7
370
    15
100
AcDbLine
 10
-504.6598961624
 20
613.38344425
 30
0.0
 11
-504.6598961624
 21
612.8834432367
 31
0.0
  0
LINE
  5
7E
330
1F
100
AcDbEntity
  8
0
  6
Continuous
 62
     7
370
    15
100
AcDbLine
 10
71.5123960701
 20
612.8834432367
 30
0.0
 11
71.5123960701
 21
613.38344425
 31
0.0
  0
LINE
  5
7F
330
1F
100
AcDbEntity
  8
0
  6
Continuous
 62
     7
370
    15
100
AcDbLine
 10
55.5123934475
 20
613.38344425
 30
0.0
 11
55.5123934475
 21
612.8834432367
 31
0.0
  0
LINE
  5
80
330
1F
100
AcDbEntity
  8
0
  6
Continuous
 62
     7
370
    15
100
AcDbLine
 10
-490.1599040302
 20
613.38344425
 30
0.0
 11
-490.1599040302
 21
624.8834452037
 31
0.0
  0
LINE
  5
81
330
1F
100
AcDbEntity
  8
0
  6
Continuous
 62
     7
370
    15
100
AcDbLine
 10
-503.159885672
 20
624.8834452037
 30
0.0
 11
-503.159885672
 21
613.38344425
 31
0.0
  0
LINE
  5
82
330
1F
100
AcDbEntity
  8
0
  6
Continuous
 62
     7
370
    15
100
AcDbLine
 10
70.0123855797
 20
613.38344425
 30
0.0
 11
70.0123855797
 21
624.8834452037
 31
0.0
  0
LINE
  5
83
330
1F
100
AcDbEntity
  8
0
  6
Continuous
 62
     7
370
    15
100
AcDbLine
 10
57.0124039379
 20
624.8834452037
 30
0.0
 11
57.0124039379
 21
613.38344425
 31
0.0
  0
LINE
  5
84
330
1F
100
AcDbEntity
  8
0
  6
Continuous
 62
     7
370
    15
100
AcDbLine
 10
-490.6598975929
 20
471.8834406141
 30
0.0
 11
-490.6598975929
 21
587.2488452498
 31
0.0
  0
LINE
  5
85
330
1F
100
AcDbEntity
  8
0
  6
Continuous
 62
     7
370
    15
100
AcDbLine
 10
-502.6598921093
 20
588.2443284992
 30
0.0
 11
-502.6598921093
 21
471.8834406141
 31
0.0
  0
LINE
  5
86
330
1F
100
AcDbEntity
  8
0
  6
Continuous
 62
     7
370
    15
100
AcDbLine
 10
-490.6598975929
 20
607.3834432665
 30
0.0
 11
-490.6598975929
 21
612.8834432367
 31
0.0
  0
LINE
  5
87
330
1F
100
AcDbEntity
  8
0
  6
Continuous
 62
     7
370
    15
100
AcDbLine
 10
-502.6598921093
 20
612.8834432367
 30
0.0
 11
-502.6598921093
 21
607.3834432665
 31
0.0
  0
LINE
  5
88
330
1F
100
AcDbEntity
  8
0
  6
Continuous
 62
     7
370
    15
100
AcDbLine
 10
69.512392017
 20
607.3834432665
 30
0.0
 11
69.512392017
 21
612.8834432367
 31
0.0
  0
LINE
  5
89
330
1F
100
AcDbEntity
  8
0
  6
Continuous
 62
     7
370
    15
100
AcDbLine
 10
57.5123975006
 20
612.8834432367
 30
0.0
 11
57.5123975006
 21
607.3834432665
 31
0.0
  0
LINE
  5
8A
330
1F
100
AcDbEntity
  8
0
  6
Continuous
 62
     7
370
    15
100
AcDbLine
 10
69.512392017
 20
471.8834406141
 30
0.0
 11
69.512392017
 21
588.2443284992
 31
0.0
  0
LINE
  5
8B
330
1F
100
AcDbEntity
  8
0
  6
Continuous
 62
     7
370
    15
100
AcDbLine
 10
57.5123975006
 20
587.2488452498
 30
0.0
 11
57.5123975006
 21
471.8834406141
 31
0.0
  0
LINE
  5
8C
330
1F
100
AcDbEntity
  8
0
  6
Continuous
 62
     7
370
    15
100
AcDbLine
 10
-216.5737500461
 20
446.8834421042
 30
0.0
 11
140.9262368408
 21
446.8834421042
 31
0.0
  0
LINE
  5
8D
330
1F
100
AcDbEntity
  8
0
  6
Continuous
 62
     7
370
    15
100
AcDbLine
 10
-574.0737369331
 20
446.8834421042
 30
0.0
 11
-216.5737500461
 21
446.8834421042
 31
0.0
  0
LINE
  5
8E
330
1F
100
AcDbEntity
  8
0
  6
Continuous
 62
     7
370
    15
100
AcDbLine
 10
-216.5737500461
 20
471.8834406141
 30
0.0
 11
140.9262368408
 21
471.8834406141
 31
0.0
  0
LINE
  5
8F
330
1F
100
AcDbEntity
  8
0
  6
Continuous
 62
     7
370
    15
100
AcDbLine
 10
-574.0737369331
 20
471.8834406141
 30
0.0
 11
-216.5737500461
 21
471.8834406141
 31
0.0
  0
LINE
  5
90
330
1F
100
AcDbEntity
  8
0
  6
Continuous
 62
     7
370
    15
100
AcDbLine
 10
-216.5737500461
 20
594.8834440116
 30
0.0
 11
90.9262547222
 21
594.8834440116
 31
0.0
  0
LINE
  5
91
330
1F
100
AcDbEntity
  8
0
  6
Continuous
 62
     7
370
    15
100
AcDbLine
 10
-524.0737548145
 20
594.8834440116
 30
0.0
 11
-216.5737500461
 21
594.8834440116
 31
0.0
  0
LINE
  5
92
330
1F
100
AcDbEntity
  8
0
  6
Continuous
 62
     7
370
    15
100
AcDbLine
 10
-204.5737499418
 20
597.3834453527
 30
0.0
 11
-228.5737501504
 21
597.3834453527
 31
0.0
  0
LINE
  5
93
330
1F
100
AcDbEntity
  8
0
  6
Continuous
 62
     7
370
    15
100
AcDbLine
 10
-217.4245474441
 20
607.3834432665
 30
0.0
 11
-217.4245474441
 21
597.3834453527
 31
0.0
  0
LINE
  5
94
330
1F
100
AcDbEntity
  8
0
  6
Continuous
 62
     7
370
    15
100
AcDbLine
 10
-217.4245474441
 20
607.3834432665
 30
0.0
 11
-207.5277654501
 21
607.3834432665
 31
0.0
  0
LINE
  5
95
330
1F
100
AcDbEntity
  8
0
  6
Continuous
 62
     7
370
    15
100
AcDbLine
 10
-207.5277654501
 20
607.3834432665
 30
0.0
 11
-207.5277654501
 21
597.3834453527
 31
0.0
  0
LINE
  5
96
330
1F
100
AcDbEntity
  8
0
  6
Continuous
 62
     7
370
    15
100
AcDbLine
 10
-226.470532273
 20
607.3834432665
 30
0.0
 11
-226.470532273
 21
597.3834453527
 31
0.0
  0
LINE
  5
97
330
1F
100
AcDbEntity
  8
0
  6
Continuous
 62
     7
370
    15
100
AcDbLine
 10
-226.470532273
 20
607.3834432665
 30
0.0
 11
-217.4245474441
 21
607.3834432665
 31
0.0
  0
SPLINE
  5
98
330
1F
100
AcDbEntity
  8
0
  6
Continuous
 62
     7
370
    15
100
AcDbSpline
210
0.0
220
0.0
230
1.0
 70
     8
 71
     3
 72
    27
 73
    23
 74
     0
 42
0.00000001
 43
0.00000001
 12
1.0
 22
0.0
 32
0.0
 13
1.0
 23
0.0
 33
0.0
 40
0.0
 40
0.0
 40
0.0
 40
0.0
 40
0.0161796213633495
 40
0.0696196597896243
 40
0.1230600567499368
 40
0.1766025880064968
 40
0.2301456762638543
 40
0.2838912588245122
 40
0.3376378677852817
 40
0.3915611695906053
 40
0.4454845539144319
 40
0.4994846964386794
 40
0.553483230596809
 40
0.6074225669262361
 40
0.6613613982416494
 40
0.7151381928070635
 40
0.7689128386714577
 40
0.8224943899099992
 40
0.876074825406612
 40
0.929511564723625
 40
0.9829484452895303
 40
1.0
 40
1.0
 40
1.0
 40
1.0
 10
57.52962324297464
 20
587.2488452497709
 30
0.0
 10
57.52474110140663
 20
587.2512352952051
 30
0.0
 10
57.50373362370512
 20
587.2615194759205
 30
0.0
 10
57.63675366243567
 20
587.2939966844198
 30
0.0
 10
57.92759414023737
 20
587.345186533754
 30
0.0
 10
58.39111902299179
 20
587.4090288492846
 30
0.0
 10
58.99357553911419
 20
587.482036416562
 30
0.0
 10
59.72779385485658
 20
587.5627450770667
 30
0.0
 10
60.56843135250703
 20
587.6485961505318
 30
0.0
 10
61.49532877736
 20
587.737209870156
 30
0.0
 10
62.48003711849895
 20
587.826066216783
 30
0.0
 10
63.49553436461316
 20
587.9124952662157
 30
0.0
 10
64.51200793690256
 20
587.9942089990228
 30
0.0
 10
65.49944799325694
 20
588.068635083628
 30
0.0
 10
66.43050829008077
 20
588.1339891620298
 30
0.0
 10
67.27607872635241
 20
588.1881045570842
 30
0.0
 10
68.01545321381371
 20
588.229985160773
 30
0.0
 10
68.62272902812464
 20
588.2579432555543
 30
0.0
 10
69.0902753461877
 20
588.2721818531941
 30
0.0
 10
69.38428775675546
 20
588.2705374078988
 30
0.0
 10
69.52075258431064
 20
588.2611221587075
 30
0.0
 10
69.49907025044452
 20
588.2475996670822
 30
0.0
 10
69.4938251701597
 20
588.2443284991967
 30
0.0
  0
SPLINE
  5
99
330
1F
100
AcDbEntity
  8
0
  6
Continuous
 62
     7
370
    15
100
AcDbSpline
210
0.0
220
0.0
230
1.0
 70
     8
 71
     3
 72
    27
 73
    23
 74
     0
 42
0.00000001
 43
0.00000001
 12
1.0
 22
0.0
 32
0.0
 13
1.0
 23
0.0
 33
0.0
 40
0.0
 40
0.0
 40
0.0
 40
0.0
 40
0.0302531386640408
 40
0.0839988388891903
 40
0.1377453052274325
 40
0.1916693105867761
 40
0.2455932520912905
 40
0.2995924471535432
 40
0.3535909557226868
 40
0.4075310689148254
 40
0.461470723431476
 40
0.515246982847236
 40
0.5690224927145158
 40
0.6226038319194409
 40
0.6761842925424034
 40
0.7296211836282686
 40
0.7830590956687744
 40
0.8364627361059558
 40
0.8898671916502137
 40
0.9433606859426292
 40
0.9968558195744562
 40
1.0
 40
1.0
 40
1.0
 40
1.0
 10
-49.44983628118005
 20
587.4421468380677
 30
0.0
 10
-49.4528930108388
 20
587.4556025086415
 30
0.0
 10
-49.46138012171294
 20
587.4929626224867
 30
0.0
 10
-49.28514913115917
 20
587.5629900376656
 30
0.0
 10
-48.94669173027852
 20
587.6485310228531
 30
0.0
 10
-48.44105478475433
 20
587.7372275190227
 30
0.0
 10
-47.79787770501054
 20
587.8260599037139
 30
0.0
 10
-47.0275085383123
 20
587.9124975541027
 30
0.0
 10
-46.15722180587751
 20
587.9942091174261
 30
0.0
 10
-45.20829042826915
 20
588.0686355201933
 30
0.0
 10
-44.21140458882175
 20
588.1339872602656
 30
0.0
 10
-43.19333411477733
 20
588.1881086901581
 30
0.0
 10
-42.1846726169135
 20
588.2299727236459
 30
0.0
 10
-41.21413528267104
 20
588.2579874740244
 30
0.0
 10
-40.3079796458245
 20
588.2720175796103
 30
0.0
 10
-39.49398765027598
 20
588.2711485587047
 30
0.0
 10
-38.7905153855011
 20
588.2560796582412
 30
0.0
 10
-38.22343077145538
 20
588.2265504049733
 30
0.0
 10
-37.79607352103403
 20
588.1842458996047
 30
0.0
 10
-37.55084763717475
 20
588.1285693785463
 30
0.0
 10
-37.44605919754848
 20
588.0855796103913
 30
0.0
 10
-37.47415075288413
 20
588.0593311099484
 30
0.0
 10
-37.47571018063989
 20
588.0578739944684
 30
0.0
  0
SPLINE
  5
9A
330
1F
100
AcDbEntity
  8
0
  6
Continuous
 62
     7
370
    15
100
AcDbSpline
210
0.0
220
0.0
230
1.0
 70
     8
 71
     3
 72
    26
 73
    22
 74
     0
 42
0.00000001
 43
0.00000001
 12
1.0
 22
0.0
 32
0.0
 13
1.0
 23
0.0
 33
0.0
 40
0.0
 40
0.0
 40
0.0
 40
0.0
 40
0.0453045941691882
 40
0.0993031707700902
 40
0.1533010732962361
 40
0.2072401366690557
 40
0.2611782070982603
 40
0.3149537072674363
 40
0.3687281534815693
 40
0.4223083175124412
 40
0.4758880132343431
 40
0.5293242532488379
 40
0.5827605928926233
 40
0.6361631432083462
 40
0.6895668292700977
 40
0.7430597734126846
 40
0.7965538399714962
 40
0.8502231065663508
 40
0.9038931905918708
 40
0.9577526834858691
 40
1.0
 40
1.0
 40
1.0
 40
1.0
 10
-222.5617430219945
 20
587.751357108711
 30
0.0
 10
-222.554995625665
 20
587.7762132512421
 30
0.0
 10
-222.5402060030616
 20
587.8306954469601
 30
0.0
 10
-222.3085479026012
 20
587.9124876431786
 30
0.0
 10
-221.9205392371662
 20
587.9942114466206
 30
0.0
 10
-221.3715896750375
 20
588.0686343626242
 30
0.0
 10
-220.6899213220318
 20
588.1339880724179
 30
0.0
 10
-219.888184442953
 20
588.1881084035336
 30
0.0
 10
-218.9953596863784
 20
588.2299726702939
 30
0.0
 10
-218.0329332319374
 20
588.2579877890385
 30
0.0
 10
-217.0317476603209
 20
588.272016738599
 30
0.0
 10
-216.0181698980683
 20
588.2711516717533
 30
0.0
 10
-215.0211793419271
 20
588.2560683213017
 30
0.0
 10
-214.0693645403805
 20
588.2265921699551
 30
0.0
 10
-213.186785877176
 20
588.1840894014538
 30
0.0
 10
-212.4014773868188
 20
588.1291542899321
 30
0.0
 10
-211.7310273841173
 20
588.0636724415612
 30
0.0
 10
-211.1983876282377
 20
587.9890160638605
 30
0.0
 10
-210.8193015515701
 20
587.9074274805914
 30
0.0
 10
-210.6033953669359
 20
587.8272551308188
 30
0.0
 10
-210.5929331123172
 20
587.7745278792961
 30
0.0
 10
-210.5883340398368
 20
587.7513496581304
 30
0.0
  0
SPLINE
  5
9B
330
1F
100
AcDbEntity
  8
0
  6
Continuous
 62
     7
370
    15
100
AcDbSpline
210
0.0
220
0.0
230
1.0
 70
     8
 71
     3
 72
    27
 73
    23
 74
     0
 42
0.00000001
 43
0.00000001
 12
1.0
 22
0.0
 32
0.0
 13
1.0
 23
0.0
 33
0.0
 40
0.0
 40
0.0
 40
0.0
 40
0.0
 40
0.0069327171542713
 40
0.0608730155872041
 40
0.1146502047773004
 40
0.1684265183644333
 40
0.2220083813784375
 40
0.2755894921382534
 40
0.3290267782697132
 40
0.382465116125182
 40
0.4358690379748779
 40
0.4892742091932541
 40
0.5427688565525584
 40
0.5962640106860871
 40
0.6499350472555131
 40
0.7036071134544715
 40
0.7574679088381949
 40
0.8113295953860693
 40
0.8653133605334752
 40
0.9192972915325057
 40
0.9732786281294592
 40
1.0
 40
1.0
 40
1.0
 40
1.0
 10
-395.6663509877917
 20
588.0576132241475
 30
0.0
 10
-395.669429339067
 20
588.0608072347317
 30
0.0
 10
-395.6964589323699
 20
588.0888523794774
 30
0.0
 10
-395.5856163064238
 20
588.1334743797524
 30
0.0
 10
-395.3198673743411
 20
588.1882459372475
 30
0.0
 10
-394.8803297387295
 20
588.2299359223089
 30
0.0
 10
-394.2945692614392
 20
588.2579975374591
 30
0.0
 10
-393.5805115384898
 20
588.2720141272731
 30
0.0
 10
-392.7546332024435
 20
588.2711522628116
 30
0.0
 10
-391.8446311814304
 20
588.2560682950127
 30
0.0
 10
-390.8727544964813
 20
588.2265921829421
 30
0.0
 10
-389.8680005227153
 20
588.1840892550969
 30
0.0
 10
-388.8577545873564
 20
588.1291545851677
 30
0.0
 10
-387.8691016783233
 20
588.0636726734891
 30
0.0
 10
-386.9320326516748
 20
587.9890129139281
 30
0.0
 10
-386.0695268369542
 20
587.9074391744888
 30
0.0
 10
-385.3106065073205
 20
587.8209975139087
 30
0.0
 10
-384.6727999617463
 20
587.7322172755551
 30
0.0
 10
-384.1777051334008
 20
587.6434774150274
 30
0.0
 10
-383.845225595375
 20
587.5578617291827
 30
0.0
 10
-383.6820039786803
 20
587.4896770597296
 30
0.0
 10
-383.6942722361165
 20
587.4540062001151
 30
0.0
 10
-383.698334363341
 20
587.4421952668416
 30
0.0
  0
SPLINE
  5
9C
330
1F
100
AcDbEntity
  8
0
  6
Continuous
 62
     7
370
    15
100
AcDbSpline
210
0.0
220
0.0
230
1.0
 70
     8
 71
     3
 72
    27
 73
    23
 74
     0
 42
0.00000001
 43
0.00000001
 12
1.0
 22
0.0
 32
0.0
 13
1.0
 23
0.0
 33
0.0
 40
0.0
 40
0.0
 40
0.0
 40
0.0
 40
0.0161796213633495
 40
0.0696196597896243
 40
0.1230600567499368
 40
0.1766025880064968
 40
0.2301456762638543
 40
0.2838912588245122
 40
0.3376378677852817
 40
0.3915611695906053
 40
0.4454845539144319
 40
0.4994846964386794
 40
0.553483230596809
 40
0.6074225669262361
 40
0.6613613982416494
 40
0.7151381928070635
 40
0.7689128386714577
 40
0.8224943899099992
 40
0.876074825406612
 40
0.929511564723625
 40
0.9829484452895303
 40
1.0
 40
1.0
 40
1.0
 40
1.0
 10
-490.677123335242
 20
587.2488452497709
 30
0.0
 10
-490.6722411936739
 20
587.2512352952051
 30
0.0
 10
-490.6512337159724
 20
587.2615194759205
 30
0.0
 10
-490.7842537547029
 20
587.2939966844198
 30
0.0
 10
-491.0750942325046
 20
587.345186533754
 30
0.0
 10
-491.5386191152591
 20
587.4090288492846
 30
0.0
 10
-492.1410756313815
 20
587.482036416562
 30
0.0
 10
-492.8752939471238
 20
587.5627450770667
 30
0.0
 10
-493.7159314447743
 20
587.6485961505318
 30
0.0
 10
-494.6428288696273
 20
587.737209870156
 30
0.0
 10
-495.6275372107663
 20
587.826066216783
 30
0.0
 10
-496.6430344568804
 20
587.9124952662157
 30
0.0
 10
-497.6595080291698
 20
587.9942089990228
 30
0.0
 10
-498.6469480855242
 20
588.068635083628
 30
0.0
 10
-499.578008382348
 20
588.1339891620298
 30
0.0
 10
-500.4235788186197
 20
588.1881045570842
 30
0.0
 10
-501.162953306081
 20
588.229985160773
 30
0.0
 10
-501.7702291203919
 20
588.2579432555543
 30
0.0
 10
-502.2377754384549
 20
588.2721818531941
 30
0.0
 10
-502.5317878490227
 20
588.2705374078988
 30
0.0
 10
-502.6682526765779
 20
588.2611221587075
 30
0.0
 10
-502.6465703427118
 20
588.2475996670822
 30
0.0
 10
-502.641325262427
 20
588.2443284991967
 30
0.0
  0
LINE
  5
9D
330
1F
100
AcDbEntity
  8
0
  6
Continuous
 62
     7
370
    15
100
AcDbLine
 10
-208.5737496662
 20
612.8834432367
 30
0.0
 11
-224.5737504261
 21
612.8834432367
 31
0.0
  0
LINE
  5
9E
330
1F
100
AcDbEntity
  8
0
  6
Continuous
 62
     7
370
    15
100
AcDbLine
 10
-208.5737496662
 20
613.38344425
 30
0.0
 11
-224.5737504261
 21
613.38344425
 31
0.0
  0
LINE
  5
9F
330
1F
100
AcDbEntity
  8
0
  6
Continuous
 62
     7
370
    15
100
AcDbLine
 10
-210.073749912
 20
624.8834452037
 30
0.0
 11
-223.0737501802
 21
624.8834452037
 31
0.0
  0
LINE
  5
A0
330
1F
100
AcDbEntity
  8
0
  6
Continuous
 62
     7
370
    15
100
AcDbLine
 10
-206.6769678193
 20
607.3834432665
 30
0.0
 11
-206.6769678193
 21
597.3834453527
 31
0.0
  0
LINE
  5
A1
330
1F
100
AcDbEntity
  8
0
  6
Continuous
 62
     7
370
    15
100
AcDbLine
 10
-207.5277654501
 20
607.3834432665
 30
0.0
 11
-206.6769678193
 21
607.3834432665
 31
0.0
  0
LINE
  5
A2
330
1F
100
AcDbEntity
  8
0
  6
Continuous
 62
     7
370
    15
100
AcDbLine
 10
-210.573749994
 20
554.8834439743
 30
0.0
 11
-49.4709959301
 21
554.8834439743
 31
0.0
  0
LINE
  5
A3
330
1F
100
AcDbEntity
  8
0
  6
Continuous
 62
     7
370
    15
100
AcDbLine
 10
-37.4709865125
 20
554.8834439743
 30
0.0
 11
57.5123975006
 21
554.8834439743
 31
0.0
  0
LINE
  5
A4
330
1F
100
AcDbEntity
  8
0
  6
Continuous
 62
     7
370
    15
100
AcDbLine
 10
-490.6598975929
 20
554.8834439743
 30
0.0
 11
-395.6765135797
 21
554.8834439743
 31
0.0
  0
LINE
  5
A5
330
1F
100
AcDbEntity
  8
0
  6
Continuous
 62
     7
370
    15
100
AcDbLine
 10
-383.6765041622
 20
554.8834439743
 30
0.0
 11
-222.5737500983
 21
554.8834439743
 31
0.0
  0
LINE
  5
A6
330
1F
100
AcDbEntity
  8
0
  6
Continuous
 62
     7
370
    15
100
AcDbLine
 10
-210.573749994
 20
546.8834435943
 30
0.0
 11
-49.4709959301
 21
546.8834435943
 31
0.0
  0
LINE
  5
A7
330
1F
100
AcDbEntity
  8
0
  6
Continuous
 62
     7
370
    15
100
AcDbLine
 10
-37.4709865125
 20
546.8834435943
 30
0.0
 11
52.426243755
 21
546.8834435943
 31
0.0
  0
LINE
  5
A8
330
1F
100
AcDbEntity
  8
0
  6
Continuous
 62
     7
370
    15
100
AcDbLine
 10
-485.5737438473
 20
546.8834435943
 30
0.0
 11
-395.6765135797
 21
546.8834435943
 31
0.0
  0
LINE
  5
A9
330
1F
100
AcDbEntity
  8
0
  6
Continuous
 62
     7
370
    15
100
AcDbLine
 10
-383.6765041622
 20
546.8834435943
 30
0.0
 11
-222.5737500983
 21
546.8834435943
 31
0.0
  0
SPLINE
  5
AA
330
1F
100
AcDbEntity
  8
0
  6
Continuous
 62
     7
370
    15
100
AcDbSpline
210
0.0
220
0.0
230
1.0
 70
     8
 71
     3
 72
    13
 73
     9
 74
     0
 42
0.00000001
 43
0.00000001
 12
1.0
 22
0.0
 32
0.0
 13
1.0
 23
0.0
 33
0.0
 40
0.0
 40
0.0
 40
0.0
 40
0.0
 40
0.162158875908517
 40
0.3261208457906686
 40
0.4918859268060867
 40
0.659454135555096
 40
0.8288254881024851
 40
1.0
 40
1.0
 40
1.0
 40
1.0
 10
-166.5704445012109
 20
519.3408285498605
 30
0.0
 10
-167.0442367857585
 20
519.5227006429202
 30
0.0
 10
-167.9970895956963
 20
519.8884671202841
 30
0.0
 10
-169.4358643967282
 20
520.4407629453291
 30
0.0
 10
-170.8916015510422
 20
520.9995687896654
 30
0.0
 10
-172.3644472003522
 20
521.5649405790499
 30
0.0
 10
-173.854265001035
 20
522.1368261118447
 30
0.0
 10
-174.8537634405462
 20
522.5204970605286
 30
0.0
 10
-175.356158786925
 20
522.7133482862432
 30
0.0
  0
LINE
  5
AB
330
1F
100
AcDbEntity
  8
0
  6
Continuous
 62
     7
370
    15
100
AcDbLine
 10
-166.5704449686
 20
519.340828285
 30
0.0
 11
-166.5704449686
 21
522.7133484933
 31
0.0
  0
LINE
  5
AC
330
1F
100
AcDbEntity
  8
0
  6
Continuous
 62
     7
370
    15
100
AcDbLine
 10
-163.1418740424
 20
522.7133484933
 30
0.0
 11
-166.5704449686
 21
522.7133484933
 31
0.0
  0
LINE
  5
AD
330
1F
100
AcDbEntity
  8
0
  6
Continuous
 62
     7
370
    15
100
AcDbLine
 10
-163.1418740424
 20
512.9601119462
 30
0.0
 11
-163.1418740424
 21
522.7133484933
 31
0.0
  0
SPLINE
  5
AE
330
1F
100
AcDbEntity
  8
0
  6
Continuous
 62
     7
370
    15
100
AcDbSpline
210
0.0
220
0.0
230
1.0
 70
     8
 71
     3
 72
    13
 73
     9
 74
     0
 42
0.00000001
 43
0.00000001
 12
1.0
 22
0.0
 32
0.0
 13
1.0
 23
0.0
 33
0.0
 40
0.0
 40
0.0
 40
0.0
 40
0.0
 40
0.1272208674295283
 40
0.2529850715542749
 40
0.3772926258497425
 40
0.5001435442763416
 40
0.7526203158911144
 40
1.0
 40
1.0
 40
1.0
 40
1.0
 10
-175.3561587869251
 20
507.9871525902193
 30
0.0
 10
-174.8365463940268
 20
508.1987089032144
 30
0.0
 10
-173.8032711063018
 20
508.6193992354073
 30
0.0
 10
-172.2638539868315
 20
509.2461613623495
 30
0.0
 10
-170.7434331286804
 20
509.8651903620716
 30
0.0
 10
-168.7082121580132
 20
510.6938170203605
 30
0.0
 10
-166.1746553367443
 20
511.7253348290309
 30
0.0
 10
-164.1459047012936
 20
512.5513270346626
 30
0.0
 10
-163.1418730726396
 20
512.9601117738928
 30
0.0
  0
SPLINE
  5
AF
330
1F
100
AcDbEntity
  8
0
  6
Continuous
 62
     7
370
    15
100
AcDbSpline
210
0.0
220
0.0
230
1.0
 70
     8
 71
     3
 72
     9
 73
     5
 74
     0
 42
0.00000001
 43
0.00000001
 12
1.0
 22
0.0
 32
0.0
 13
1.0
 23
0.0
 33
0.0
 40
0.0
 40
0.0
 40
0.0
 40
0.0
 40
0.4981173442238768
 40
1.0
 40
1.0
 40
1.0
 40
1.0
 10
-173.4704445012108
 20
512.5955766057492
 30
0.0
 10
-173.7834328366415
 20
512.4681456289521
 30
0.0
 10
-174.4117754130648
 20
512.21232041372
 30
0.0
 10
-175.0405751200381
 20
511.9563091277963
 30
0.0
 10
-175.3561587869251
 20
511.8278215037083
 30
0.0
  0
LINE
  5
B0
330
1F
100
AcDbEntity
  8
0
  6
Continuous
 62
     7
370
    15
100
AcDbLine
 10
-173.4704462858
 20
512.5955773894
 30
0.0
 11
-173.4704462858
 21
518.1792753193
 31
0.0
  0
SPLINE
  5
B1
330
1F
100
AcDbEntity
  8
0
  6
Continuous
 62
     7
370
    15
100
AcDbSpline
210
0.0
220
0.0
230
1.0
 70
     8
 71
     3
 72
     9
 73
     5
 74
     0
 42
0.00000001
 43
0.00000001
 12
1.0
 22
0.0
 32
0.0
 13
1.0
 23
0.0
 33
0.0
 40
0.0
 40
0.0
 40
0.0
 40
0.0
 40
0.5018807535391904
 40
0.9999999999999999
 40
0.9999999999999999
 40
0.9999999999999999
 40
0.9999999999999999
 10
-175.3561587869251
 20
518.9031325231629
 30
0.0
 10
-175.040574517254
 20
518.7819910831155
 30
0.0
 10
-174.4117712259429
 20
518.5406161365908
 30
0.0
 10
-173.7834322422766
 20
518.2994193767736
 30
0.0
 10
-173.4704445012108
 20
518.1792746285247
 30
0.0
  0
LINE
  5
B2
330
1F
100
AcDbEntity
  8
0
  6
Continuous
 62
     7
370
    15
100
AcDbLine
 10
-175.3561584326
 20
518.9031327519
 30
0.0
 11
-175.3561584326
 21
522.7133484933
 31
0.0
  0
LINE
  5
B3
330
1F
100
AcDbEntity
  8
0
  6
Continuous
 62
     7
370
    15
100
AcDbLine
 10
-170.2133020433
 20
513.9216987792
 30
0.0
 11
-170.2133020433
 21
517.2962250564
 31
0.0
  0
SPLINE
  5
B4
330
1F
100
AcDbEntity
  8
0
  6
Continuous
 62
     7
370
    15
100
AcDbSpline
210
0.0
220
0.0
230
1.0
 70
    24
 71
     3
 72
    10
 73
     6
 74
     0
 42
0.00000001
 43
0.00000001
 12
1.0
 22
0.0
 32
0.0
 13
1.0
 23
0.0
 33
0.0
 40
0.0
 40
0.0
 40
0.0
 40
0.0
 40
0.3332893609310757
 40
0.6666199180712016
 40
0.9999999999999999
 40
0.9999999999999999
 40
0.9999999999999999
 40
0.9999999999999999
 10
-165.9471880116349
 20
515.6586167479336
 30
0.0
 10
-166.4206515007994
 20
515.4658494702022
 30
0.0
 10
-167.3676370015512
 20
515.0802910877534
 30
0.0
 10
-168.7896987194417
 20
514.5013088168979
 30
0.0
 10
-169.7387438367798
 20
514.1149118762675
 30
0.0
 10
-170.213301644068
 20
513.9216990547286
 30
0.0
  0
SPLINE
  5
B5
330
1F
100
AcDbEntity
  8
0
  6
Continuous
 62
     7
370
    15
100
AcDbSpline
210
0.0
220
0.0
230
1.0
 70
    24
 71
     3
 72
    10
 73
     6
 74
     0
 42
0.00000001
 43
0.00000001
 12
1.0
 22
0.0
 32
0.0
 13
1.0
 23
0.0
 33
0.0
 40
0.0
 40
0.0
 40
0.0
 40
0.0
 40
0.3333756926930916
 40
0.6667062078339053
 40
1.0
 40
1.0
 40
1.0
 40
1.0
 10
-170.2133016440679
 20
517.2962243407991
 30
0.0
 10
-169.7387426140429
 20
517.1140581966712
 30
0.0
 10
-168.7896888640666
 20
516.7497505947398
 30
0.0
 10
-167.3676268005704
 20
516.2038721129753
 30
0.0
 10
-166.4206502189431
 20
515.8403618612678
 30
0.0
 10
-165.9471880116346
 20
515.6586167479337
 30
0.0
  0
LINE
  5
B6
330
1F
100
AcDbEntity
  8
0
  6
Continuous
 62
     7
370
    15
100
AcDbLine
 10
-175.3561584326
 20
507.9871511463
 30
0.0
 11
-175.3561584326
 21
511.8278211359
 31
0.0
  0
SPLINE
  5
B7
330
1F
100
AcDbEntity
  8
0
  6
Continuous
 62
     7
370
    15
100
AcDbSpline
210
0.0
220
0.0
230
1.0
 70
     8
 71
     3
 72
    14
 73
    10
 74
     0
 42
0.00000001
 43
0.00000001
 12
1.0
 22
0.0
 32
0.0
 13
1.0
 23
0.0
 33
0.0
 40
0.0
 40
0.0
 40
0.0
 40
0.0
 40
0.122870944116443
 40
0.2471344601423164
 40
0.3727905714858549
 40
0.4998393007797887
 40
0.6636953449200256
 40
0.8304155644946407
 40
1.0
 40
1.0
 40
1.0
 40
1.0
 10
-161.7704445012108
 20
512.0377392987637
 30
0.0
 10
-162.324714765243
 20
511.8120718914633
 30
0.0
 10
-163.4395371787888
 20
511.3581794494714
 30
0.0
 10
-165.1235603274449
 20
510.6725407449811
 30
0.0
 10
-166.8281571391095
 20
509.9785269855474
 30
0.0
 10
-168.713799898369
 20
509.2108022329883
 30
0.0
 10
-170.7877828046686
 20
508.3663931195921
 30
0.0
 10
-173.0572177893384
 20
507.4424090157681
 30
0.0
 10
-174.5855064471311
 20
506.8201779752712
 30
0.0
 10
-175.3561587869251
 20
506.5064127681513
 30
0.0
  0
LINE
  5
B8
330
1F
100
AcDbEntity
  8
0
  6
Continuous
 62
     7
370
    15
100
AcDbLine
 10
-161.7704456719
 20
512.0377375189
 30
0.0
 11
-161.7704456719
 21
522.7133484933
 31
0.0
  0
LINE
  5
B9
330
1F
100
AcDbEntity
  8
0
  6
Continuous
 62
     7
370
    15
100
AcDbLine
 10
-158.2133000764
 20
522.7133484933
 30
0.0
 11
-161.7704456719
 21
522.7133484933
 31
0.0
  0
LINE
  5
BA
330
1F
100
AcDbEntity
  8
0
  6
Continuous
 62
     7
370
    15
100
AcDbLine
 10
-158.2133000764
 20
509.5990619067
 30
0.0
 11
-158.2133000764
 21
522.7133484933
 31
0.0
  0
SPLINE
  5
BB
330
1F
100
AcDbEntity
  8
0
  6
Continuous
 62
     7
370
    15
100
AcDbSpline
210
0.0
220
0.0
230
1.0
 70
     8
 71
     3
 72
    13
 73
     9
 74
     0
 42
0.00000001
 43
0.00000001
 12
1.0
 22
0.0
 32
0.0
 13
1.0
 23
0.0
 33
0.0
 40
0.0
 40
0.0
 40
0.0
 40
0.0
 40
0.1269701689431031
 40
0.2526528948108237
 40
0.3770481940105626
 40
0.5001560834681759
 40
0.7523620997674086
 40
1.0
 40
1.0
 40
1.0
 40
1.0
 10
-170.2133016440681
 20
504.7133482862432
 30
0.0
 10
-169.7036491816273
 20
504.920849505824
 30
0.0
 10
-168.6895119944837
 20
505.3337479388992
 30
0.0
 10
-167.1777676681799
 20
505.9492433690853
 30
0.0
 10
-165.6827741538419
 20
506.5579197299632
 30
0.0
 10
-163.6828849376334
 20
507.3721611893558
 30
0.0
 10
-161.1929909432793
 20
508.3859022221735
 30
0.0
 10
-159.2004614449529
 20
509.1971471341126
 30
0.0
 10
-158.213301644068
 20
509.5990625719574
 30
0.0
  0
SPLINE
  5
BC
330
1F
100
AcDbEntity
  8
0
  6
Continuous
 62
     7
370
    15
100
AcDbSpline
210
0.0
220
0.0
230
1.0
 70
     8
 71
     3
 72
    13
 73
     9
 74
     0
 42
0.00000001
 43
0.00000001
 12
1.0
 22
0.0
 32
0.0
 13
1.0
 23
0.0
 33
0.0
 40
0.0
 40
0.0
 40
0.0
 40
0.0
 40
0.123244257639742
 40
0.2476332742073407
 40
0.373167071040286
 40
0.4998456688950877
 40
0.7473420869965034
 40
1.0
 40
1.0
 40
1.0
 40
1.0
 10
-158.2133016440679
 20
499.8276340005288
 30
0.0
 10
-158.7044359443987
 20
500.0275959672496
 30
0.0
 10
-159.6912664645023
 20
500.4293772549484
 30
0.0
 10
-161.1803523923614
 20
501.0356483621599
 30
0.0
 10
-162.6845706733418
 20
501.6480796859071
 30
0.0
 10
-164.6826079842317
 20
502.4615654946345
 30
0.0
 10
-167.1922823172733
 20
503.4833630424107
 30
0.0
 10
-169.1993908791665
 20
504.300542162055
 30
0.0
 10
-170.2133016440679
 20
504.7133482862432
 30
0.0
  0
LINE
  5
BD
330
1F
100
AcDbEntity
  8
0
  6
Continuous
 62
     7
370
    15
100
AcDbLine
 10
-158.2133000764
 20
486.7133481804
 30
0.0
 11
-158.2133000764
 21
499.8276329044
 31
0.0
  0
LINE
  5
BE
330
1F
100
AcDbEntity
  8
0
  6
Continuous
 62
     7
370
    15
100
AcDbLine
 10
-161.7704456719
 20
486.7133481804
 30
0.0
 11
-158.2133000764
 21
486.7133481804
 31
0.0
  0
LINE
  5
BF
330
1F
100
AcDbEntity
  8
0
  6
Continuous
 62
     7
370
    15
100
AcDbLine
 10
-161.7704456719
 20
486.7133481804
 30
0.0
 11
-161.7704456719
 21
497.3889572922
 31
0.0
  0
SPLINE
  5
C0
330
1F
100
AcDbEntity
  8
0
  6
Continuous
 62
     7
370
    15
100
AcDbSpline
210
0.0
220
0.0
230
1.0
 70
     8
 71
     3
 72
    15
 73
    11
 74
     0
 42
0.00000001
 43
0.00000001
 12
1.0
 22
0.0
 32
0.0
 13
1.0
 23
0.0
 33
0.0
 40
0.0
 40
0.0
 40
0.0
 40
0.0
 40
0.1020911363442698
 40
0.2031528368655373
 40
0.3031851101426533
 40
0.4021879650244979
 40
0.500161410641312
 40
0.6692457266279662
 40
0.8358585716392644
 40
1.0
 40
1.0
 40
1.0
 40
1.0
 10
-175.3561587869251
 20
502.9202838043349
 30
0.0
 10
-174.8921590619708
 20
502.7313697908641
 30
0.0
 10
-173.9688383526056
 20
502.3554466780988
 30
0.0
 10
-172.5921248447108
 20
501.7949284671831
 30
0.0
 10
-171.2303695574022
 20
501.2404995050223
 30
0.0
 10
-169.8836615579688
 20
500.6921961871137
 30
0.0
 10
-168.2251143544266
 20
500.0169295926872
 30
0.0
 10
-166.2623974808403
 20
499.2178250050635
 30
0.0
 10
-164.003165258982
 20
498.297994648563
 30
0.0
 10
-162.51096815706
 20
497.6904565444118
 30
0.0
 10
-161.7704445012108
 20
497.3889572737227
 30
0.0
  0
LINE
  5
C1
330
1F
100
AcDbEntity
  8
0
  6
Continuous
 62
     7
370
    15
100
AcDbLine
 10
-175.3561584326
 20
502.9202832285
 30
0.0
 11
-175.3561584326
 21
506.5064115826
 31
0.0
  0
SPLINE
  5
C2
330
1F
100
AcDbEntity
  8
0
  6
Continuous
 62
     7
370
    15
100
AcDbSpline
210
0.0
220
0.0
230
1.0
 70
     8
 71
     3
 72
    25
 73
    21
 74
     0
 42
0.00000001
 43
0.00000001
 12
1.0
 22
0.0
 32
0.0
 13
1.0
 23
0.0
 33
0.0
 40
0.0
 40
0.0
 40
0.0
 40
0.0
 40
0.0315335393275264
 40
0.0629908744157698
 40
0.1257103031784493
 40
0.18824046184104
 40
0.2506404710762178
 40
0.312956900149231
 40
0.3752257818767215
 40
0.4374747126402008
 40
0.4997250048678232
 40
0.5619938686630699
 40
0.6242966065744935
 40
0.6866488104376254
 40
0.7490685515734419
 40
0.8115785553392948
 40
0.8742083481488332
 40
0.9369963597694021
 40
0.9684999667220856
 40
1.0
 40
1.0
 40
1.0
 40
1.0
 10
-169.9240439104643
 20
491.6638833091666
 30
0.0
 10
-169.9116991968528
 20
491.6083650637643
 30
0.0
 10
-169.8870396019774
 20
491.4974627388588
 30
0.0
 10
-169.8287550198096
 20
491.2783872222809
 30
0.0
 10
-169.7435591192131
 20
491.0089179235295
 30
0.0
 10
-169.6209738528036
 20
490.693715136916
 30
0.0
 10
-169.4792808986166
 20
490.3877089432501
 30
0.0
 10
-169.3191843077647
 20
490.0917620654834
 30
0.0
 10
-169.1415034890342
 20
489.8066989298014
 30
0.0
 10
-168.947025298448
 20
489.5333542936482
 30
0.0
 10
-168.7365436631429
 20
489.2725605732419
 30
0.0
 10
-168.5108489885829
 20
489.0251517167659
 30
0.0
 10
-168.2707314101498
 20
488.7919617809191
 30
0.0
 10
-168.0169788833952
 20
488.5738279651617
 30
0.0
 10
-167.7503821439478
 20
488.371580962892
 30
0.0
 10
-167.4717173961542
 20
488.1860815853956
 30
0.0
 10
-167.1818115318152
 20
488.0180845533791
 30
0.0
 10
-166.9315274345888
 20
487.8937095059647
 30
0.0
 10
-166.7267848295289
 20
487.8033931985884
 30
0.0
 10
-166.6225559733035
 20
487.7624101011953
 30
0.0
 10
-166.5704445012108
 20
487.7419197148146
 30
0.0
  0
LINE
  5
C3
330
1F
100
AcDbEntity
  8
0
  6
Continuous
 62
     7
370
    15
100
AcDbLine
 10
-175.3561584326
 20
487.5704927746
 30
0.0
 11
-175.3561584326
 21
492.0245169107
 31
0.0
  0
SPLINE
  5
C4
330
1F
100
AcDbEntity
  8
0
  6
Continuous
 62
     7
370
    15
100
AcDbSpline
210
0.0
220
0.0
230
1.0
 70
     8
 71
     3
 72
    10
 73
     6
 74
     0
 42
0.00000001
 43
0.00000001
 12
1.0
 22
0.0
 32
0.0
 13
1.0
 23
0.0
 33
0.0
 40
0.0
 40
0.0
 40
0.0
 40
0.0
 40
0.3291390374280082
 40
0.6624723458521142
 40
1.0
 40
1.0
 40
1.0
 40
1.0
 10
-170.5535626242147
 20
495.6435323453888
 30
0.0
 10
-171.0800607706044
 20
495.2467872897262
 30
0.0
 10
-172.1397663128309
 20
494.4482413931839
 30
0.0
 10
-173.7406439468623
 20
493.24189357643
 30
0.0
 10
-174.8154139538654
 20
492.4319967705585
 30
0.0
 10
-175.3561587869251
 20
492.0245165559703
 30
0.0
  0
SPLINE
  5
C5
330
1F
100
AcDbEntity
  8
0
  6
Continuous
 62
     7
370
    15
100
AcDbSpline
210
0.0
220
0.0
230
1.0
 70
     8
 71
     3
 72
    10
 73
     6
 74
     0
 42
0.00000001
 43
0.00000001
 12
1.0
 22
0.0
 32
0.0
 13
1.0
 23
0.0
 33
0.0
 40
0.0
 40
0.0
 40
0.0
 40
0.0
 40
0.3374565901161385
 40
0.6707899105268944
 40
1.0
 40
1.0
 40
1.0
 40
1.0
 10
-175.3561587869251
 20
497.598875068778
 30
0.0
 10
-174.8153900948131
 20
497.3787050716398
 30
0.0
 10
-173.740460183168
 20
496.9410552612442
 30
0.0
 10
-172.1395788985583
 20
496.2892678824227
 30
0.0
 10
-171.0800367530391
 20
495.857882639147
 30
0.0
 10
-170.5535626242148
 20
495.6435323453888
 30
0.0
  0
SPLINE
  5
C6
330
1F
100
AcDbEntity
  8
0
  6
Continuous
 62
     7
370
    15
100
AcDbSpline
210
0.0
220
0.0
230
1.0
 70
     8
 71
     3
 72
    13
 73
     9
 74
     0
 42
0.00000001
 43
0.00000001
 12
1.0
 22
0.0
 32
0.0
 13
1.0
 23
0.0
 33
0.0
 40
0.0
 40
0.0
 40
0.0
 40
0.0
 40
0.1230491194853903
 40
0.2473751897814153
 40
0.3729782290223759
 40
0.4998582547914429
 40
0.7470099999937879
 40
1.0
 40
1.0
 40
1.0
 40
1.0
 10
-163.1418730726392
 20
496.4665847985934
 30
0.0
 10
-163.6411430208599
 20
496.6698591515969
 30
0.0
 10
-164.6448641259745
 20
497.0785173513649
 30
0.0
 10
-166.1600889641914
 20
497.6954307968499
 30
0.0
 10
-167.6922127588803
 20
498.319223593619
 30
0.0
 10
-169.7257142173633
 20
499.1471482657428
 30
0.0
 10
-172.2807883945624
 20
500.1874303052901
 30
0.0
 10
-174.3230885963157
 20
501.0189373073274
 30
0.0
 10
-175.3561587869249
 20
501.4395439822669
 30
0.0
  0
LINE
  5
C7
330
1F
100
AcDbEntity
  8
0
  6
Continuous
 62
     7
370
    15
100
AcDbLine
 10
-163.1418740424
 20
492.6259166006
 30
0.0
 11
-163.1418740424
 21
496.4665865902
 31
0.0
  0
SPLINE
  5
C8
330
1F
100
AcDbEntity
  8
0
  6
Continuous
 62
     7
370
    15
100
AcDbSpline
210
0.0
220
0.0
230
1.0
 70
     8
 71
     3
 72
    10
 73
     6
 74
     0
 42
0.00000001
 43
0.00000001
 12
1.0
 22
0.0
 32
0.0
 13
1.0
 23
0.0
 33
0.0
 40
0.0
 40
0.0
 40
0.0
 40
0.0
 40
0.3366043635949145
 40
0.6699376813214224
 40
1.0
 40
1.0
 40
1.0
 40
1.0
 10
-167.5961569567027
 20
494.4394457521875
 30
0.0
 10
-167.095821814389
 20
494.2357379678365
 30
0.0
 10
-166.1000136746922
 20
493.8303019857901
 30
0.0
 10
-164.6152394515825
 20
493.2257867698131
 30
0.0
 10
-163.631378160206
 20
492.8252144805826
 30
0.0
 10
-163.1418730726394
 20
492.6259158851045
 30
0.0
  0
SPLINE
  5
C9
330
1F
100
AcDbEntity
  8
0
  6
Continuous
 62
     7
370
    15
100
AcDbSpline
210
0.0
220
0.0
230
1.0
 70
     8
 71
     3
 72
    27
 73
    23
 74
     0
 42
0.00000001
 43
0.00000001
 12
1.0
 22
0.0
 32
0.0
 13
1.0
 23
0.0
 33
0.0
 40
0.0
 40
0.0
 40
0.0
 40
0.0
 40
0.0314368939027973
 40
0.0629358779189737
 40
0.0942526808005875
 40
0.1256441116676506
 40
0.1881730237582839
 40
0.2505834771307385
 40
0.3129094311603838
 40
0.375187264066822
 40
0.4374678658224647
 40
0.4998286589877841
 40
0.562223881863516
 40
0.6245838951624505
 40
0.6869526167331148
 40
0.7493554055555969
 40
0.8118135743568035
 40
0.8743588838479415
 40
0.937047917788342
 40
0.9621924764609916
 40
0.9810590280160874
 40
1.0
 40
1.0
 40
1.0
 40
1.0
 10
-163.1418730726394
 20
490.1419197148146
 30
0.0
 10
-163.2127818150166
 20
490.1429229576196
 30
0.0
 10
-163.3547393496077
 20
490.1449314247061
 30
0.0
 10
-163.5668918207517
 20
490.1610564053121
 30
0.0
 10
-163.7780204548994
 20
490.1866292613815
 30
0.0
 10
-164.0568281065464
 20
490.2342844842195
 30
0.0
 10
-164.4004533176224
 20
490.3184344464496
 30
0.0
 10
-164.8012169786474
 20
490.4576209474116
 30
0.0
 10
-165.1872688024835
 20
490.6337022582201
 30
0.0
 10
-165.5554388489752
 20
490.8454463873202
 30
0.0
 10
-165.9025520096883
 20
491.0916418277884
 30
0.0
 10
-166.2252197244304
 20
491.3707677091282
 30
0.0
 10
-166.5194448090868
 20
491.681107646203
 30
0.0
 10
-166.7825480121723
 20
492.0191904290524
 30
0.0
 10
-167.0125971866819
 20
492.3814109360724
 30
0.0
 10
-167.2077782301853
 20
492.7644983841701
 30
0.0
 10
-167.3663017685609
 20
493.1651819861077
 30
0.0
 10
-167.4863058529659
 20
493.5801609316147
 30
0.0
 10
-167.5500753364503
 20
493.9207208673872
 30
0.0
 10
-167.5783644303376
 20
494.1646019435061
 30
0.0
 10
-167.5903298086689
 20
494.3089850465657
 30
0.0
 10
-167.5942120267687
 20
494.3959018212442
 30
0.0
 10
-167.5961569567027
 20
494.4394457521875
 30
0.0
  0
LINE
  5
CA
330
1F
100
AcDbEntity
  8
0
  6
Continuous
 62
     7
370
    15
100
AcDbLine
 10
-163.1418740424
 20
486.7133481804
 30
0.0
 11
-163.1418740424
 21
490.1419191066
 31
0.0
  0
LINE
  5
CB
330
1F
100
AcDbEntity
  8
0
  6
Continuous
 62
     7
370
    15
100
AcDbLine
 10
-166.5704449686
 20
486.7133481804
 30
0.0
 11
-163.1418740424
 21
486.7133481804
 31
0.0
  0
LINE
  5
CC
330
1F
100
AcDbEntity
  8
0
  6
Continuous
 62
     7
370
    15
100
AcDbLine
 10
-166.5704449686
 20
486.7133481804
 30
0.0
 11
-166.5704449686
 21
487.7419194583
 31
0.0
  0
SPLINE
  5
CD
330
1F
100
AcDbEntity
  8
0
  6
Continuous
 62
     7
370
    15
100
AcDbSpline
210
0.0
220
0.0
230
1.0
 70
     8
 71
     3
 72
    11
 73
     7
 74
     0
 42
0.00000001
 43
0.00000001
 12
1.0
 22
0.0
 32
0.0
 13
1.0
 23
0.0
 33
0.0
 40
0.0
 40
0.0
 40
0.0
 40
0.0
 40
0.2539758899325015
 40
0.5053011594672582
 40
0.7539758489412822
 40
1.0
 40
1.0
 40
1.0
 40
1.0
 10
-175.3561587869251
 20
487.570491143386
 30
0.0
 10
-174.8958601780543
 20
487.9173508004108
 30
0.0
 10
-173.9800668685973
 20
488.6074501122535
 30
0.0
 10
-172.6145155141359
 20
489.636466166962
 30
0.0
 10
-171.2639987812915
 20
490.6541542107018
 30
0.0
 10
-170.36909727494
 20
491.3285113184642
 30
0.0
 10
-169.9240439104645
 20
491.6638833091665
 30
0.0
  0
LINE
  5
CE
330
1F
100
AcDbEntity
  8
0
  6
Continuous
 62
     7
370
    15
100
AcDbLine
 10
-175.3561584326
 20
497.5988736752
 30
0.0
 11
-175.3561584326
 21
501.4395436648
 31
0.0
  0
LINE
  5
CF
330
1F
100
AcDbEntity
  8
0
  6
Continuous
 62
     7
370
    15
100
AcDbLine
 10
-377.676506904
 20
597.3834453527
 30
0.0
 11
-401.6765108379
 21
597.3834453527
 31
0.0
  0
LINE
  5
D0
330
1F
100
AcDbEntity
  8
0
  6
Continuous
 62
     7
370
    15
100
AcDbLine
 10
-31.4709892544
 20
597.3834453527
 30
0.0
 11
-55.4709931883
 21
597.3834453527
 31
0.0
  0
LINE
  5
D1
330
1F
100
AcDbEntity
  8
0
  6
Continuous
 62
     7
370
    15
100
AcDbLine
 10
-386.0054215463
 20
607.3834432665
 30
0.0
 11
-386.0054215463
 21
597.3834453527
 31
0.0
  0
LINE
  5
D2
330
1F
100
AcDbEntity
  8
0
  6
Continuous
 62
     7
370
    15
100
AcDbLine
 10
-378.8887461694
 20
607.3834432665
 30
0.0
 11
-378.8887461694
 21
597.3834453527
 31
0.0
  0
LINE
  5
D3
330
1F
100
AcDbEntity
  8
0
  6
Continuous
 62
     7
370
    15
100
AcDbLine
 10
-386.0054215463
 20
607.3834432665
 30
0.0
 11
-378.8887461694
 21
607.3834432665
 31
0.0
  0
LINE
  5
D4
330
1F
100
AcDbEntity
  8
0
  6
Continuous
 62
     7
370
    15
100
AcDbLine
 10
-396.7931916984
 20
607.3834432665
 30
0.0
 11
-396.7931916984
 21
597.3834453527
 31
0.0
  0
LINE
  5
D5
330
1F
100
AcDbEntity
  8
0
  6
Continuous
 62
     7
370
    15
100
AcDbLine
 10
-396.7931916984
 20
607.3834432665
 30
0.0
 11
-386.0054215463
 21
607.3834432665
 31
0.0
  0
LINE
  5
D6
330
1F
100
AcDbEntity
  8
0
  6
Continuous
 62
     7
370
    15
100
AcDbLine
 10
-48.6965527805
 20
607.3834432665
 30
0.0
 11
-48.6965527805
 21
597.3834453527
 31
0.0
  0
LINE
  5
D7
330
1F
100
AcDbEntity
  8
0
  6
Continuous
 62
     7
370
    15
100
AcDbLine
 10
-37.7309223684
 20
607.3834432665
 30
0.0
 11
-37.7309223684
 21
597.3834453527
 31
0.0
  0
LINE
  5
D8
330
1F
100
AcDbEntity
  8
0
  6
Continuous
 62
     7
370
    15
100
AcDbLine
 10
-48.6965527805
 20
607.3834432665
 30
0.0
 11
-37.7309223684
 21
607.3834432665
 31
0.0
  0
LINE
  5
D9
330
1F
100
AcDbEntity
  8
0
  6
Continuous
 62
     7
370
    15
100
AcDbLine
 10
-54.436629084
 20
607.3834432665
 30
0.0
 11
-54.436629084
 21
597.3834453527
 31
0.0
  0
LINE
  5
DA
330
1F
100
AcDbEntity
  8
0
  6
Continuous
 62
     7
370
    15
100
AcDbLine
 10
-54.436629084
 20
607.3834432665
 30
0.0
 11
-48.6965527805
 21
607.3834432665
 31
0.0
  0
LINE
  5
DB
330
1F
100
AcDbEntity
  8
0
  6
Continuous
 62
     7
370
    15
100
AcDbLine
 10
-32.5053682598
 20
607.3834432665
 30
0.0
 11
-32.5053682598
 21
597.3834453527
 31
0.0
  0
LINE
  5
DC
330
1F
100
AcDbEntity
  8
0
  6
Continuous
 62
     7
370
    15
100
AcDbLine
 10
-37.7309223684
 20
607.3834432665
 30
0.0
 11
-32.5053682598
 21
607.3834432665
 31
0.0
  0
LINE
  5
DD
330
1F
100
AcDbEntity
  8
0
  6
Continuous
 62
     7
370
    15
100
AcDbLine
 10
-400.4642715725
 20
607.3834432665
 30
0.0
 11
-400.4642715725
 21
597.3834453527
 31
0.0
  0
LINE
  5
DE
330
1F
100
AcDbEntity
  8
0
  6
Continuous
 62
     7
370
    15
100
AcDbLine
 10
-400.4642715725
 20
607.3834432665
 30
0.0
 11
-396.7931916984
 21
607.3834432665
 31
0.0
  0
LINE
  5
DF
330
1F
100
AcDbEntity
  8
0
  6
Continuous
 62
     7
370
    15
100
AcDbLine
 10
-381.6765001091
 20
613.38344425
 30
0.0
 11
-397.6765027317
 21
613.38344425
 31
0.0
  0
LINE
  5
E0
330
1F
100
AcDbEntity
  8
0
  6
Continuous
 62
     7
370
    15
100
AcDbLine
 10
-381.6765001091
 20
612.8834432367
 30
0.0
 11
-397.6765027317
 21
612.8834432367
 31
0.0
  0
LINE
  5
E1
330
1F
100
AcDbEntity
  8
0
  6
Continuous
 62
     7
370
    15
100
AcDbLine
 10
-35.4709973606
 20
613.38344425
 30
0.0
 11
-51.4709999832
 21
613.38344425
 31
0.0
  0
LINE
  5
E2
330
1F
100
AcDbEntity
  8
0
  6
Continuous
 62
     7
370
    15
100
AcDbLine
 10
-35.4709973606
 20
612.8834432367
 30
0.0
 11
-51.4709999832
 21
612.8834432367
 31
0.0
  0
LINE
  5
E3
330
1F
100
AcDbEntity
  8
0
  6
Continuous
 62
     7
370
    15
100
AcDbLine
 10
-383.1765105995
 20
624.8834452037
 30
0.0
 11
-396.1765071424
 21
624.8834452037
 31
0.0
  0
LINE
  5
E4
330
1F
100
AcDbEntity
  8
0
  6
Continuous
 62
     7
370
    15
100
AcDbLine
 10
-36.9709929498
 20
624.8834452037
 30
0.0
 11
-49.9709894928
 21
624.8834452037
 31
0.0
  0
LINE
  5
E5
330
1F
100
AcDbEntity
  8
0
  6
Continuous
 62
     7
370
    15
100
AcDbLine
 10
-484.6598854336
 20
597.3834453527
 30
0.0
 11
-508.6599042686
 21
597.3834453527
 31
0.0
  0
LINE
  5
E6
330
1F
100
AcDbEntity
  8
0
  6
Continuous
 62
     7
370
    15
100
AcDbLine
 10
75.5124041764
 20
597.3834453527
 30
0.0
 11
51.5123853413
 21
597.3834453527
 31
0.0
  0
LINE
  5
E7
330
1F
100
AcDbEntity
  8
0
  6
Continuous
 62
     7
370
    15
100
AcDbLine
 10
64.9540374008
 20
607.3834432665
 30
0.0
 11
64.9540374008
 21
597.3834453527
 31
0.0
  0
LINE
  5
E8
330
1F
100
AcDbEntity
  8
0
  6
Continuous
 62
     7
370
    15
100
AcDbLine
 10
73.6508319107
 20
607.3834432665
 30
0.0
 11
73.6508319107
 21
597.3834453527
 31
0.0
  0
LINE
  5
E9
330
1F
100
AcDbEntity
  8
0
  6
Continuous
 62
     7
370
    15
100
AcDbLine
 10
64.9540374008
 20
607.3834432665
 30
0.0
 11
73.6508319107
 21
607.3834432665
 31
0.0
  0
LINE
  5
EA
330
1F
100
AcDbEntity
  8
0
  6
Continuous
 62
     7
370
    15
100
AcDbLine
 10
54.8156151501
 20
607.3834432665
 30
0.0
 11
54.8156151501
 21
597.3834453527
 31
0.0
  0
LINE
  5
EB
330
1F
100
AcDbEntity
  8
0
  6
Continuous
 62
     7
370
    15
100
AcDbLine
 10
54.8156151501
 20
607.3834432665
 30
0.0
 11
64.9540374008
 21
607.3834432665
 31
0.0
  0
LINE
  5
EC
330
1F
100
AcDbEntity
  8
0
  6
Continuous
 62
     7
370
    15
100
AcDbLine
 10
-499.7659375938
 20
607.3834432665
 30
0.0
 11
-499.7659375938
 21
597.3834453527
 31
0.0
  0
LINE
  5
ED
330
1F
100
AcDbEntity
  8
0
  6
Continuous
 62
     7
370
    15
100
AcDbLine
 10
-489.1017129692
 20
607.3834432665
 30
0.0
 11
-489.1017129692
 21
597.3834453527
 31
0.0
  0
LINE
  5
EE
330
1F
100
AcDbEntity
  8
0
  6
Continuous
 62
     7
370
    15
100
AcDbLine
 10
-499.7659375938
 20
607.3834432665
 30
0.0
 11
-489.1017129692
 21
607.3834432665
 31
0.0
  0
LINE
  5
EF
330
1F
100
AcDbEntity
  8
0
  6
Continuous
 62
     7
370
    15
100
AcDbLine
 10
-507.3241343769
 20
607.3834432665
 30
0.0
 11
-507.3241343769
 21
597.3834453527
 31
0.0
  0
LINE
  5
F0
330
1F
100
AcDbEntity
  8
0
  6
Continuous
 62
     7
370
    15
100
AcDbLine
 10
-507.3241343769
 20
607.3834432665
 30
0.0
 11
-499.7659375938
 21
607.3834432665
 31
0.0
  0
LINE
  5
F1
330
1F
100
AcDbEntity
  8
0
  6
Continuous
 62
     7
370
    15
100
AcDbLine
 10
-488.6598935398
 20
612.8834432367
 30
0.0
 11
-504.6598961624
 21
612.8834432367
 31
0.0
  0
LINE
  5
F2
330
1F
100
AcDbEntity
  8
0
  6
Continuous
 62
     7
370
    15
100
AcDbLine
 10
-488.6598935398
 20
613.38344425
 30
0.0
 11
-504.6598961624
 21
613.38344425
 31
0.0
  0
LINE
  5
F3
330
1F
100
AcDbEntity
  8
0
  6
Continuous
 62
     7
370
    15
100
AcDbLine
 10
71.5123960701
 20
613.38344425
 30
0.0
 11
55.5123934475
 21
613.38344425
 31
0.0
  0
LINE
  5
F4
330
1F
100
AcDbEntity
  8
0
  6
Continuous
 62
     7
370
    15
100
AcDbLine
 10
71.5123960701
 20
612.8834432367
 30
0.0
 11
55.5123934475
 21
612.8834432367
 31
0.0
  0
LINE
  5
F5
330
1F
100
AcDbEntity
  8
0
  6
Continuous
 62
     7
370
    15
100
AcDbLine
 10
-485.9956553253
 20
607.3834432665
 30
0.0
 11
-485.9956553253
 21
597.3834453527
 31
0.0
  0
LINE
  5
F6
330
1F
100
AcDbEntity
  8
0
  6
Continuous
 62
     7
370
    15
100
AcDbLine
 10
-489.1017129692
 20
607.3834432665
 30
0.0
 11
-485.9956553253
 21
607.3834432665
 31
0.0
  0
LINE
  5
F7
330
1F
100
AcDbEntity
  8
0
  6
Continuous
 62
     7
370
    15
100
AcDbLine
 10
53.3739576069
 20
607.3834432665
 30
0.0
 11
53.3739576069
 21
597.3834453527
 31
0.0
  0
LINE
  5
F8
330
1F
100
AcDbEntity
  8
0
  6
Continuous
 62
     7
370
    15
100
AcDbLine
 10
53.3739576069
 20
607.3834432665
 30
0.0
 11
54.8156151501
 21
607.3834432665
 31
0.0
  0
LINE
  5
F9
330
1F
100
AcDbEntity
  8
0
  6
Continuous
 62
     7
370
    15
100
AcDbLine
 10
-490.1599040302
 20
624.8834452037
 30
0.0
 11
-503.159885672
 21
624.8834452037
 31
0.0
  0
LINE
  5
FA
330
1F
100
AcDbEntity
  8
0
  6
Continuous
 62
     7
370
    15
100
AcDbLine
 10
70.0123855797
 20
624.8834452037
 30
0.0
 11
57.0124039379
 21
624.8834452037
 31
0.0
  0
LINE
  5
FB
330
1F
100
AcDbEntity
  8
0
  6
Continuous
 62
     7
370
    15
100
AcDbLine
 10
52.848155233
 20
607.3834432665
 30
0.0
 11
52.848155233
 21
597.3834453527
 31
0.0
  0
LINE
  5
FC
330
1F
100
AcDbEntity
  8
0
  6
Continuous
 62
     7
370
    15
100
AcDbLine
 10
52.848155233
 20
607.3834432665
 30
0.0
 11
53.3739576069
 21
607.3834432665
 31
0.0
  0
LINE
  5
FD
330
1F
100
AcDbEntity
  8
0
  6
Continuous
 62
     7
370
    15
100
AcDbLine
 10
74.1766342846
 20
607.3834432665
 30
0.0
 11
74.1766342846
 21
597.3834453527
 31
0.0
  0
LINE
  5
FE
330
1F
100
AcDbEntity
  8
0
  6
Continuous
 62
     7
370
    15
100
AcDbLine
 10
73.6508319107
 20
607.3834432665
 30
0.0
 11
74.1766342846
 21
607.3834432665
 31
0.0
  0
LINE
  5
FF
330
1F
100
AcDbEntity
  8
0
  6
Continuous
 62
     7
370
    15
100
AcDbLine
 10
-400.6421318325
 20
607.3834432665
 30
0.0
 11
-400.6421318325
 21
597.3834453527
 31
0.0
  0
LINE
  5
100
330
1F
100
AcDbEntity
  8
0
  6
Continuous
 62
     7
370
    15
100
AcDbLine
 10
-400.6421318325
 20
607.3834432665
 30
0.0
 11
-400.4642715725
 21
607.3834432665
 31
0.0
  0
LINE
  5
101
330
1F
100
AcDbEntity
  8
0
  6
Continuous
 62
     7
370
    15
100
AcDbLine
 10
-378.7108710083
 20
607.3834432665
 30
0.0
 11
-378.7108710083
 21
597.3834453527
 31
0.0
  0
LINE
  5
102
330
1F
100
AcDbEntity
  8
0
  6
Continuous
 62
     7
370
    15
100
AcDbLine
 10
-378.8887461694
 20
607.3834432665
 30
0.0
 11
-378.7108710083
 21
607.3834432665
 31
0.0
  0
LINE
  5
103
330
1F
100
AcDbEntity
  8
0
  6
Continuous
 62
     7
370
     0
100
AcDbLine
 10
-216.5737500461
 20
591.6324353222
 30
0.0
 11
90.9262547222
 21
591.6324353222
 31
0.0
  0
LINE
  5
104
330
1F
100
AcDbEntity
  8
0
  6
Continuous
 62
     7
370
     0
100
AcDbLine
 10
-524.0737548145
 20
591.6324353222
 30
0.0
 11
-216.5737500461
 21
591.6324353222
 31
0.0
  0
LINE
  5
105
330
1F
100
AcDbEntity
  8
0
  6
Continuous
 62
     7
370
     0
100
AcDbLine
 10
-216.5737500461
 20
588.6438547078
 30
0.0
 11
88.187719318
 21
588.6438547078
 31
0.0
  0
LINE
  5
106
330
1F
100
AcDbEntity
  8
0
  6
Continuous
 62
     7
370
     0
100
AcDbLine
 10
-521.3352194103
 20
588.6438547078
 30
0.0
 11
-216.5737500461
 21
588.6438547078
 31
0.0
  0
LINE
  5
107
330
1F
100
AcDbEntity
  8
0
  6
Continuous
 62
     7
370
     0
100
AcDbLine
 10
-505.0785591873
 20
587.2215798501
 30
0.0
 11
-502.6598921093
 21
587.2215798501
 31
0.0
  0
LINE
  5
108
330
1F
100
AcDbEntity
  8
0
  6
Continuous
 62
     7
370
     0
100
AcDbLine
 10
69.512392017
 20
587.2215798501
 30
0.0
 11
71.931059095
 21
587.2215798501
 31
0.0
  0
LINE
  5
109
330
1F
100
AcDbEntity
  8
0
  6
Continuous
 62
     7
370
     0
100
AcDbLine
 10
-37.4709865125
 20
587.2215798501
 30
0.0
 11
57.5123975006
 21
587.2215798501
 31
0.0
  0
LINE
  5
10A
330
1F
100
AcDbEntity
  8
0
  6
Continuous
 62
     7
370
     0
100
AcDbLine
 10
-210.573749994
 20
587.2215798501
 30
0.0
 11
-49.4709959301
 21
587.2215798501
 31
0.0
  0
LINE
  5
10B
330
1F
100
AcDbEntity
  8
0
  6
Continuous
 62
     7
370
     0
100
AcDbLine
 10
-383.6765041622
 20
587.2215798501
 30
0.0
 11
-222.5737500983
 21
587.2215798501
 31
0.0
  0
LINE
  5
10C
330
1F
100
AcDbEntity
  8
0
  6
Continuous
 62
     7
370
     0
100
AcDbLine
 10
-490.6598975929
 20
587.2215798501
 30
0.0
 11
-395.6765135797
 21
587.2215798501
 31
0.0
  0
LINE
  5
10D
330
1F
100
AcDbEntity
  8
0
  6
Continuous
 62
     7
370
     0
100
AcDbLine
 10
-210.573749994
 20
582.5022852424
 30
0.0
 11
-49.4709959301
 21
582.5022852424
 31
0.0
  0
LINE
  5
10E
330
1F
100
AcDbEntity
  8
0
  6
Continuous
 62
     7
370
     0
100
AcDbLine
 10
-37.4709865125
 20
582.5022852424
 30
0.0
 11
57.5123975006
 21
582.5022852424
 31
0.0
  0
LINE
  5
10F
330
1F
100
AcDbEntity
  8
0
  6
Continuous
 62
     7
370
     0
100
AcDbLine
 10
-490.6598975929
 20
582.5022852424
 30
0.0
 11
-395.6765135797
 21
582.5022852424
 31
0.0
  0
LINE
  5
110
330
1F
100
AcDbEntity
  8
0
  6
Continuous
 62
     7
370
     0
100
AcDbLine
 10
-383.6765041622
 20
582.5022852424
 30
0.0
 11
-222.5737500983
 21
582.5022852424
 31
0.0
  0
LINE
  5
111
330
1F
100
AcDbEntity
  8
0
  6
Continuous
 62
     7
370
     0
100
AcDbLine
 10
-210.573749994
 20
557.2526038069
 30
0.0
 11
-49.4709959301
 21
557.2526038069
 31
0.0
  0
LINE
  5
112
330
1F
100
AcDbEntity
  8
0
  6
Continuous
 62
     7
370
     0
100
AcDbLine
 10
-37.4709865125
 20
557.2526038069
 30
0.0
 11
57.5123975006
 21
557.2526038069
 31
0.0
  0
LINE
  5
113
330
1F
100
AcDbEntity
  8
0
  6
Continuous
 62
     7
370
     0
100
AcDbLine
 10
-490.6598975929
 20
557.2526038069
 30
0.0
 11
-395.6765135797
 21
557.2526038069
 31
0.0
  0
LINE
  5
114
330
1F
100
AcDbEntity
  8
0
  6
Continuous
 62
     7
370
     0
100
AcDbLine
 10
-383.6765041622
 20
557.2526038069
 30
0.0
 11
-222.5737500983
 21
557.2526038069
 31
0.0
  0
LINE
  5
115
330
1F
100
AcDbEntity
  8
0
  6
Continuous
 62
     7
370
     0
100
AcDbLine
 10
-190.5584199401
 20
553.4191529643
 30
0.0
 11
-49.4709959301
 21
553.4191529643
 31
0.0
  0
LINE
  5
116
330
1F
100
AcDbEntity
  8
0
  6
Continuous
 62
     7
370
     0
100
AcDbLine
 10
-37.4709865125
 20
553.4191529643
 30
0.0
 11
46.4883992401
 21
553.4191529643
 31
0.0
  0
LINE
  5
117
330
1F
100
AcDbEntity
  8
0
  6
Continuous
 62
     7
370
     0
100
AcDbLine
 10
-479.6358993324
 20
553.4191529643
 30
0.0
 11
-395.6765135797
 21
553.4191529643
 31
0.0
  0
LINE
  5
118
330
1F
100
AcDbEntity
  8
0
  6
Continuous
 62
     7
370
     0
100
AcDbLine
 10
-383.6765041622
 20
553.4191529643
 30
0.0
 11
-222.5737500983
 21
553.4191529643
 31
0.0
  0
LINE
  5
119
330
1F
100
AcDbEntity
  8
0
  6
Continuous
 62
     7
370
     0
100
AcDbLine
 10
-210.573749994
 20
553.4191529643
 30
0.0
 11
-190.5584199401
 21
553.4191529643
 31
0.0
  0
LINE
  5
11A
330
1F
100
AcDbEntity
  8
0
  6
CENTERX2
 62
     7
370
     0
100
AcDbLine
 10
-216.5737500461
 20
425.0082125996
 30
0.0
 11
-216.5737500461
 21
638.3413860725
 31
0.0
  0
CIRCLE
  5
11B
330
1F
100
AcDbEntity
  8
0
  6
Continuous
 62
     7
370
    15
100
AcDbCircle
 10
-389.6765068463
 20
-23.7610759628
 30
0.0
 40
6.499999999999988
  0
CIRCLE
  5
11C
330
1F
100
AcDbEntity
  8
0
  6
Continuous
 62
     7
370
    15
100
AcDbCircle
 10
-496.6598940951
 20
-171.0110759628
 30
0.0
 40
6.500000000000105
  0
CIRCLE
  5
11D
330
1F
100
AcDbEntity
  8
0
  6
Continuous
 62
     7
370
    15
100
AcDbCircle
 10
-216.5737500461
 20
32.4834191938
 30
0.0
 40
6.50000000000002
  0
CIRCLE
  5
11E
330
1F
100
AcDbEntity
  8
0
  6
Continuous
 62
     7
370
    15
100
AcDbCircle
 10
-496.6598940951
 20
-353.0220856497
 30
0.0
 40
6.500000000000036
  0
CIRCLE
  5
11F
330
1F
100
AcDbEntity
  8
0
  6
Continuous
 62
     7
370
    15
100
AcDbCircle
 10
-43.470993246
 20
-23.7610759628
 30
0.0
 40
6.5
  0
CIRCLE
  5
120
330
1F
100
AcDbEntity
  8
0
  6
Continuous
 62
     7
370
    15
100
AcDbCircle
 10
-389.6765068463
 20
-500.2720856497
 30
0.0
 40
6.499999999999914
  0
CIRCLE
  5
121
330
1F
100
AcDbEntity
  8
0
  6
Continuous
 62
     7
370
    15
100
AcDbCircle
 10
63.5123940028
 20
-171.0110759628
 30
0.0
 40
6.500000000000015
  0
CIRCLE
  5
122
330
1F
100
AcDbEntity
  8
0
  6
Continuous
 62
     7
370
    15
100
AcDbCircle
 10
-216.5737500461
 20
-556.5165808062
 30
0.0
 40
6.500000000000022
  0
CIRCLE
  5
123
330
1F
100
AcDbEntity
  8
0
  6
Continuous
 62
     7
370
    15
100
AcDbCircle
 10
63.5123940028
 20
-353.0220856497
 30
0.0
 40
6.499999999999977
  0
CIRCLE
  5
124
330
1F
100
AcDbEntity
  8
0
  6
Continuous
 62
     7
370
    15
100
AcDbCircle
 10
-43.470993246
 20
-500.2720856497
 30
0.0
 40
6.500000000000022
  0
CIRCLE
  5
125
330
1F
100
AcDbEntity
  8
0
  6
Continuous
 62
     7
370
    15
100
AcDbCircle
 10
-389.6765068463
 20
-23.7610759628
 30
0.0
 40
8.000000000000014
  0
CIRCLE
  5
126
330
1F
100
AcDbEntity
  8
0
  6
Continuous
 62
     7
370
    15
100
AcDbCircle
 10
-496.6598940951
 20
-171.0110759628
 30
0.0
 40
8.000000000000014
  0
CIRCLE
  5
127
330
1F
100
AcDbEntity
  8
0
  6
Continuous
 62
     7
370
    15
100
AcDbCircle
 10
-216.5737500461
 20
32.4834191938
 30
0.0
 40
8.0
  0
CIRCLE
  5
128
330
1F
100
AcDbEntity
  8
0
  6
Continuous
 62
     7
370
    15
100
AcDbCircle
 10
-496.6598940951
 20
-353.0220856497
 30
0.0
 40
8.000000000000039
  0
CIRCLE
  5
129
330
1F
100
AcDbEntity
  8
0
  6
Continuous
 62
     7
370
    15
100
AcDbCircle
 10
-43.470993246
 20
-23.7610759628
 30
0.0
 40
8.000000000000002
  0
CIRCLE
  5
12A
330
1F
100
AcDbEntity
  8
0
  6
Continuous
 62
     7
370
    15
100
AcDbCircle
 10
-389.6765068463
 20
-500.2720856497
 30
0.0
 40
7.999999999999909
  0
CIRCLE
  5
12B
330
1F
100
AcDbEntity
  8
0
  6
Continuous
 62
     7
370
    15
100
AcDbCircle
 10
63.5123940028
 20
-171.0110759628
 30
0.0
 40
8.000000000000005
  0
CIRCLE
  5
12C
330
1F
100
AcDbEntity
  8
0
  6
Continuous
 62
     7
370
    15
100
AcDbCircle
 10
-216.5737500461
 20
-556.5165808062
 30
0.0
 40
7.999999999999948
  0
CIRCLE
  5
12D
330
1F
100
AcDbEntity
  8
0
  6
Continuous
 62
     7
370
    15
100
AcDbCircle
 10
63.5123940028
 20
-353.0220856497
 30
0.0
 40
8.000000000000016
  0
CIRCLE
  5
12E
330
1F
100
AcDbEntity
  8
0
  6
Continuous
 62
     7
370
    15
100
AcDbCircle
 10
-43.470993246
 20
-500.2720856497
 30
0.0
 40
8.000000000000025
  0
LINE
  5
12F
330
1F
100
AcDbEntity
  8
0
  6
Continuous
 62
     7
370
    15
100
AcDbLine
 10
-384.4509473118
 20
-14.1160352092
 30
0.0
 11
-395.4165777239
 21
-14.4130898576
 31
0.0
  0
LINE
  5
130
330
1F
100
AcDbEntity
  8
0
  6
Continuous
 62
     7
370
    15
100
AcDbLine
 10
-378.7108710083
 20
-23.4640253644
 30
0.0
 11
-384.4509473118
 21
-14.1160352092
 31
0.0
  0
LINE
  5
131
330
1F
100
AcDbEntity
  8
0
  6
Continuous
 62
     7
370
    15
100
AcDbLine
 10
-383.9364400181
 20
-33.109070168
 30
0.0
 11
-378.7108710083
 21
-23.4640253644
 31
0.0
  0
LINE
  5
132
330
1F
100
AcDbEntity
  8
0
  6
Continuous
 62
     7
370
    15
100
AcDbLine
 10
-394.9020704302
 20
-33.4061248164
 30
0.0
 11
-383.9364400181
 21
-33.109070168
 31
0.0
  0
LINE
  5
133
330
1F
100
AcDbEntity
  8
0
  6
Continuous
 62
     7
370
    15
100
AcDbLine
 10
-400.6421318325
 20
-24.05811976
 30
0.0
 11
-394.9020704302
 21
-33.4061248164
 31
0.0
  0
LINE
  5
134
330
1F
100
AcDbEntity
  8
0
  6
Continuous
 62
     7
370
    15
100
AcDbLine
 10
-395.4165777239
 20
-14.4130898576
 30
0.0
 11
-400.6421318325
 21
-24.05811976
 31
0.0
  0
LINE
  5
135
330
1F
100
AcDbEntity
  8
0
  6
Continuous
 62
     7
370
    15
100
AcDbLine
 10
-498.1015374931
 20
-160.1365668635
 30
0.0
 11
-506.798332003
 21
-166.8223230104
 31
0.0
  0
LINE
  5
136
330
1F
100
AcDbEntity
  8
0
  6
Continuous
 62
     7
370
    15
100
AcDbLine
 10
-487.9631152424
 20
-164.325320528
 30
0.0
 11
-498.1015374931
 21
-160.1365668635
 31
0.0
  0
LINE
  5
137
330
1F
100
AcDbEntity
  8
0
  6
Continuous
 62
     7
370
    15
100
AcDbLine
 10
-486.5214576992
 20
-175.1998303394
 30
0.0
 11
-487.9631152424
 21
-164.325320528
 31
0.0
  0
LINE
  5
138
330
1F
100
AcDbEntity
  8
0
  6
Continuous
 62
     7
370
    15
100
AcDbLine
 10
-495.2182522091
 20
-181.8855864863
 30
0.0
 11
-486.5214576992
 21
-175.1998303394
 31
0.0
  0
LINE
  5
139
330
1F
100
AcDbEntity
  8
0
  6
Continuous
 62
     7
370
    15
100
AcDbLine
 10
-505.3566744598
 20
-177.6968328218
 30
0.0
 11
-495.2182522091
 21
-181.8855864863
 31
0.0
  0
LINE
  5
13A
330
1F
100
AcDbEntity
  8
0
  6
Continuous
 62
     7
370
    15
100
AcDbLine
 10
-506.798332003
 20
-166.8223230104
 30
0.0
 11
-505.3566744598
 21
-177.6968328218
 31
0.0
  0
LINE
  5
13B
330
1F
100
AcDbEntity
  8
0
  6
Continuous
 62
     7
370
    15
100
AcDbLine
 10
-206.6769678193
 20
37.2149186273
 30
0.0
 11
-215.7229526481
 21
43.4200303693
 31
0.0
  0
LINE
  5
13C
330
1F
100
AcDbEntity
  8
0
  6
Continuous
 62
     7
370
    15
100
AcDbLine
 10
-207.5277654501
 20
26.278300776
 30
0.0
 11
-206.6769678193
 21
37.2149186273
 31
0.0
  0
LINE
  5
13D
330
1F
100
AcDbEntity
  8
0
  6
Continuous
 62
     7
370
    15
100
AcDbLine
 10
-217.4245474441
 20
21.5467946668
 30
0.0
 11
-207.5277654501
 21
26.278300776
 31
0.0
  0
LINE
  5
13E
330
1F
100
AcDbEntity
  8
0
  6
Continuous
 62
     7
370
    15
100
AcDbLine
 10
-226.470532273
 20
27.7519362111
 30
0.0
 11
-217.4245474441
 21
21.5467946668
 31
0.0
  0
LINE
  5
13F
330
1F
100
AcDbEntity
  8
0
  6
Continuous
 62
     7
370
    15
100
AcDbLine
 10
-225.6197346421
 20
38.6885242601
 30
0.0
 11
-226.470532273
 21
27.7519362111
 31
0.0
  0
LINE
  5
140
330
1F
100
AcDbEntity
  8
0
  6
Continuous
 62
     7
370
    15
100
AcDbLine
 10
-215.7229526481
 20
43.4200303693
 30
0.0
 11
-225.6197346421
 21
38.6885242601
 31
0.0
  0
LINE
  5
141
330
1F
100
AcDbEntity
  8
0
  6
Continuous
 62
     7
370
    15
100
AcDbLine
 10
-504.218076733
 20
-345.0718013506
 30
0.0
 11
-507.3241343769
 21
-355.5925277929
 31
0.0
  0
LINE
  5
142
330
1F
100
AcDbEntity
  8
0
  6
Continuous
 62
     7
370
    15
100
AcDbLine
 10
-493.5538521084
 20
-342.5013584952
 30
0.0
 11
-504.218076733
 21
-345.0718013506
 31
0.0
  0
LINE
  5
143
330
1F
100
AcDbEntity
  8
0
  6
Continuous
 62
     7
370
    15
100
AcDbLine
 10
-485.9956553253
 20
-350.4516420822
 30
0.0
 11
-493.5538521084
 21
-342.5013584952
 31
0.0
  0
LINE
  5
144
330
1F
100
AcDbEntity
  8
0
  6
Continuous
 62
     7
370
    15
100
AcDbLine
 10
-489.1017129692
 20
-360.9723759751
 30
0.0
 11
-485.9956553253
 21
-350.4516420822
 31
0.0
  0
LINE
  5
145
330
1F
100
AcDbEntity
  8
0
  6
Continuous
 62
     7
370
    15
100
AcDbLine
 10
-499.7659375938
 20
-363.5428188305
 30
0.0
 11
-489.1017129692
 21
-360.9723759751
 31
0.0
  0
LINE
  5
146
330
1F
100
AcDbEntity
  8
0
  6
Continuous
 62
     7
370
    15
100
AcDbLine
 10
-507.3241343769
 20
-355.5925277929
 30
0.0
 11
-499.7659375938
 21
-363.5428188305
 31
0.0
  0
LINE
  5
147
330
1F
100
AcDbEntity
  8
0
  6
Continuous
 62
     7
370
    15
100
AcDbLine
 10
-32.6832285198
 20
-25.7503999333
 30
0.0
 11
-36.3543083938
 21
-15.4132557969
 31
0.0
  0
LINE
  5
148
330
1F
100
AcDbEntity
  8
0
  6
Continuous
 62
     7
370
    15
100
AcDbLine
 10
-39.7999187979
 20
-34.0982241492
 30
0.0
 11
-32.6832285198
 21
-25.7503999333
 31
0.0
  0
LINE
  5
149
330
1F
100
AcDbEntity
  8
0
  6
Continuous
 62
     7
370
    15
100
AcDbLine
 10
-50.5876889499
 20
-32.1088893275
 30
0.0
 11
-39.7999187979
 21
-34.0982241492
 31
0.0
  0
LINE
  5
14A
330
1F
100
AcDbEntity
  8
0
  6
Continuous
 62
     7
370
    15
100
AcDbLine
 10
-54.2587539228
 20
-21.7717451911
 30
0.0
 11
-50.5876889499
 21
-32.1088893275
 31
0.0
  0
LINE
  5
14B
330
1F
100
AcDbEntity
  8
0
  6
Continuous
 62
     7
370
    15
100
AcDbLine
 10
-36.3543083938
 20
-15.4132557969
 30
0.0
 11
-47.1420785459
 21
-13.4239358764
 31
0.0
  0
LINE
  5
14C
330
1F
100
AcDbEntity
  8
0
  6
Continuous
 62
     7
370
    15
100
AcDbLine
 10
-47.1420785459
 20
-13.4239358764
 30
0.0
 11
-54.2587539228
 21
-21.7717451911
 31
0.0
  0
LINE
  5
14D
330
1F
100
AcDbEntity
  8
0
  6
Continuous
 62
     7
370
    15
100
AcDbLine
 10
-400.4642715725
 20
-498.2827616792
 30
0.0
 11
-396.7931916984
 21
-508.6199058156
 31
0.0
  0
LINE
  5
14E
330
1F
100
AcDbEntity
  8
0
  6
Continuous
 62
     7
370
    15
100
AcDbLine
 10
-393.3475812944
 20
-489.9349374633
 30
0.0
 11
-400.4642715725
 21
-498.2827616792
 31
0.0
  0
LINE
  5
14F
330
1F
100
AcDbEntity
  8
0
  6
Continuous
 62
     7
370
    15
100
AcDbLine
 10
-382.5598111423
 20
-491.924272285
 30
0.0
 11
-393.3475812944
 21
-489.9349374633
 31
0.0
  0
LINE
  5
150
330
1F
100
AcDbEntity
  8
0
  6
Continuous
 62
     7
370
    15
100
AcDbLine
 10
-378.8887461694
 20
-502.2614164214
 30
0.0
 11
-382.5598111423
 21
-491.924272285
 31
0.0
  0
LINE
  5
151
330
1F
100
AcDbEntity
  8
0
  6
Continuous
 62
     7
370
    15
100
AcDbLine
 10
-386.0054215463
 20
-510.6092257361
 30
0.0
 11
-378.8887461694
 21
-502.2614164214
 31
0.0
  0
LINE
  5
152
330
1F
100
AcDbEntity
  8
0
  6
Continuous
 62
     7
370
    15
100
AcDbLine
 10
-396.7931916984
 20
-508.6199058156
 30
0.0
 11
-386.0054215463
 21
-510.6092257361
 31
0.0
  0
LINE
  5
153
330
1F
100
AcDbEntity
  8
0
  6
Continuous
 62
     7
370
    15
100
AcDbLine
 10
71.0705766407
 20
-178.9613602619
 30
0.0
 11
74.1766342846
 21
-168.4406338196
 31
0.0
  0
LINE
  5
154
330
1F
100
AcDbEntity
  8
0
  6
Continuous
 62
     7
370
    15
100
AcDbLine
 10
60.4063520161
 20
-181.5318031173
 30
0.0
 11
71.0705766407
 21
-178.9613602619
 31
0.0
  0
LINE
  5
155
330
1F
100
AcDbEntity
  8
0
  6
Continuous
 62
     7
370
    15
100
AcDbLine
 10
52.848155233
 20
-173.5815195303
 30
0.0
 11
60.4063520161
 21
-181.5318031173
 31
0.0
  0
LINE
  5
156
330
1F
100
AcDbEntity
  8
0
  6
Continuous
 62
     7
370
    15
100
AcDbLine
 10
55.9542128769
 20
-163.0607856374
 30
0.0
 11
52.848155233
 21
-173.5815195303
 31
0.0
  0
LINE
  5
157
330
1F
100
AcDbEntity
  8
0
  6
Continuous
 62
     7
370
    15
100
AcDbLine
 10
66.6184375016
 20
-160.490342782
 30
0.0
 11
55.9542128769
 21
-163.0607856374
 31
0.0
  0
LINE
  5
158
330
1F
100
AcDbEntity
  8
0
  6
Continuous
 62
     7
370
    15
100
AcDbLine
 10
74.1766342846
 20
-168.4406338196
 30
0.0
 11
66.6184375016
 21
-160.490342782
 31
0.0
  0
LINE
  5
159
330
1F
100
AcDbEntity
  8
0
  6
Continuous
 62
     7
370
    15
100
AcDbLine
 10
-226.470532273
 20
-561.2480802398
 30
0.0
 11
-217.4245474441
 21
-567.4531919818
 31
0.0
  0
LINE
  5
15A
330
1F
100
AcDbEntity
  8
0
  6
Continuous
 62
     7
370
    15
100
AcDbLine
 10
-225.6197346421
 20
-550.3114623885
 30
0.0
 11
-226.470532273
 21
-561.2480802398
 31
0.0
  0
LINE
  5
15B
330
1F
100
AcDbEntity
  8
0
  6
Continuous
 62
     7
370
    15
100
AcDbLine
 10
-215.7229526481
 20
-545.5799562793
 30
0.0
 11
-225.6197346421
 21
-550.3114623885
 31
0.0
  0
LINE
  5
15C
330
1F
100
AcDbEntity
  8
0
  6
Continuous
 62
     7
370
    15
100
AcDbLine
 10
-206.6769678193
 20
-551.7850978236
 30
0.0
 11
-215.7229526481
 21
-545.5799562793
 31
0.0
  0
LINE
  5
15D
330
1F
100
AcDbEntity
  8
0
  6
Continuous
 62
     7
370
    15
100
AcDbLine
 10
-207.5277654501
 20
-562.7216858725
 30
0.0
 11
-206.6769678193
 21
-551.7850978236
 31
0.0
  0
LINE
  5
15E
330
1F
100
AcDbEntity
  8
0
  6
Continuous
 62
     7
370
    15
100
AcDbLine
 10
-217.4245474441
 20
-567.4531919818
 30
0.0
 11
-207.5277654501
 21
-562.7216858725
 31
0.0
  0
LINE
  5
15F
330
1F
100
AcDbEntity
  8
0
  6
Continuous
 62
     7
370
    15
100
AcDbLine
 10
64.9540374008
 20
-363.896594749
 30
0.0
 11
73.6508319107
 21
-357.2108386021
 31
0.0
  0
LINE
  5
160
330
1F
100
AcDbEntity
  8
0
  6
Continuous
 62
     7
370
    15
100
AcDbLine
 10
54.8156151501
 20
-359.7078410845
 30
0.0
 11
64.9540374008
 21
-363.896594749
 31
0.0
  0
LINE
  5
161
330
1F
100
AcDbEntity
  8
0
  6
Continuous
 62
     7
370
    15
100
AcDbLine
 10
53.3739576069
 20
-348.8333312731
 30
0.0
 11
54.8156151501
 21
-359.7078410845
 31
0.0
  0
LINE
  5
162
330
1F
100
AcDbEntity
  8
0
  6
Continuous
 62
     7
370
    15
100
AcDbLine
 10
62.0707521168
 20
-342.1475751262
 30
0.0
 11
53.3739576069
 21
-348.8333312731
 31
0.0
  0
LINE
  5
163
330
1F
100
AcDbEntity
  8
0
  6
Continuous
 62
     7
370
    15
100
AcDbLine
 10
72.2091743675
 20
-346.3363287907
 30
0.0
 11
62.0707521168
 21
-342.1475751262
 31
0.0
  0
LINE
  5
164
330
1F
100
AcDbEntity
  8
0
  6
Continuous
 62
     7
370
    15
100
AcDbLine
 10
73.6508319107
 20
-357.2108386021
 30
0.0
 11
72.2091743675
 21
-346.3363287907
 31
0.0
  0
LINE
  5
165
330
1F
100
AcDbEntity
  8
0
  6
Continuous
 62
     7
370
    15
100
AcDbLine
 10
-48.6965527805
 20
-509.9171264033
 30
0.0
 11
-37.7309223684
 21
-509.6200717549
 31
0.0
  0
LINE
  5
166
330
1F
100
AcDbEntity
  8
0
  6
Continuous
 62
     7
370
    15
100
AcDbLine
 10
-54.436629084
 20
-500.5691362481
 30
0.0
 11
-48.6965527805
 21
-509.9171264033
 31
0.0
  0
LINE
  5
167
330
1F
100
AcDbEntity
  8
0
  6
Continuous
 62
     7
370
    15
100
AcDbLine
 10
-38.2454296621
 20
-490.6270367961
 30
0.0
 11
-49.2110600742
 21
-490.9240914445
 31
0.0
  0
LINE
  5
168
330
1F
100
AcDbEntity
  8
0
  6
Continuous
 62
     7
370
    15
100
AcDbLine
 10
-32.5053682598
 20
-499.9750418525
 30
0.0
 11
-38.2454296621
 21
-490.6270367961
 31
0.0
  0
LINE
  5
169
330
1F
100
AcDbEntity
  8
0
  6
Continuous
 62
     7
370
    15
100
AcDbLine
 10
-37.7309223684
 20
-509.6200717549
 30
0.0
 11
-32.5053682598
 21
-499.9750418525
 31
0.0
  0
LINE
  5
16A
330
1F
100
AcDbEntity
  8
0
  6
Continuous
 62
     7
370
    15
100
AcDbLine
 10
-49.2110600742
 20
-490.9240914445
 30
0.0
 11
-54.436629084
 21
-500.5691362481
 31
0.0
  0
CIRCLE
  5
16B
330
1F
100
AcDbEntity
  8
0
  6
Continuous
 62
     7
370
    15
100
AcDbCircle
 10
-389.6765068463
 20
-23.7610759628
 30
0.0
 40
11.99999999999999
  0
CIRCLE
  5
16C
330
1F
100
AcDbEntity
  8
0
  6
Continuous
 62
     7
370
    15
100
AcDbCircle
 10
-496.6598940951
 20
-171.0110759628
 30
0.0
 40
12.00000000000003
  0
CIRCLE
  5
16D
330
1F
100
AcDbEntity
  8
0
  6
Continuous
 62
     7
370
    15
100
AcDbCircle
 10
-216.5737500461
 20
32.4834191938
 30
0.0
 40
12.00000000000001
  0
CIRCLE
  5
16E
330
1F
100
AcDbEntity
  8
0
  6
Continuous
 62
     7
370
    15
100
AcDbCircle
 10
-496.6598940951
 20
-353.0220856497
 30
0.0
 40
12.00000000000007
  0
CIRCLE
  5
16F
330
1F
100
AcDbEntity
  8
0
  6
Continuous
 62
     7
370
    15
100
AcDbCircle
 10
-43.470993246
 20
-23.7610759628
 30
0.0
 40
12.00000000000001
  0
CIRCLE
  5
170
330
1F
100
AcDbEntity
  8
0
  6
Continuous
 62
     7
370
    15
100
AcDbCircle
 10
-389.6765068463
 20
-500.2720856497
 30
0.0
 40
11.99999999999991
  0
CIRCLE
  5
171
330
1F
100
AcDbEntity
  8
0
  6
Continuous
 62
     7
370
    15
100
AcDbCircle
 10
63.5123940028
 20
-171.0110759628
 30
0.0
 40
12.00000000000001
  0
CIRCLE
  5
172
330
1F
100
AcDbEntity
  8
0
  6
Continuous
 62
     7
370
    15
100
AcDbCircle
 10
-216.5737500461
 20
-556.5165808062
 30
0.0
 40
11.99999999999998
  0
CIRCLE
  5
173
330
1F
100
AcDbEntity
  8
0
  6
Continuous
 62
     7
370
    15
100
AcDbCircle
 10
63.5123940028
 20
-353.0220856497
 30
0.0
 40
11.99999999999998
  0
CIRCLE
  5
174
330
1F
100
AcDbEntity
  8
0
  6
Continuous
 62
     7
370
    15
100
AcDbCircle
 10
-43.470993246
 20
-500.2720856497
 30
0.0
 40
11.99999999999998
  0
CIRCLE
  5
175
330
1F
100
AcDbEntity
  8
0
  6
Continuous
 62
     7
370
    15
100
AcDbCircle
 10
-216.5737500461
 20
-262.0165808062
 30
0.0
 40
307.4999999999999
  0
CIRCLE
  5
176
330
1F
100
AcDbEntity
  8
0
  6
Continuous
 62
     7
370
    15
100
AcDbCircle
 10
-216.5737500461
 20
-262.0165808062
 30
0.0
 40
250.0000000000001
  0
CIRCLE
  5
177
330
1F
100
AcDbEntity
  8
0
  6
Continuous
 62
     7
370
    15
100
AcDbCircle
 10
104.4249606473
 20
-211.1753796682
 30
0.0
 40
17.00000000000003
  0
CIRCLE
  5
178
330
1F
100
AcDbEntity
  8
0
  6
Continuous
 62
     7
370
    15
100
AcDbCircle
 10
73.0033703151
 20
-114.4696683909
 30
0.0
 40
17.00000000000001
  0
CIRCLE
  5
179
330
1F
100
AcDbEntity
  8
0
  6
Continuous
 62
     7
370
    15
100
AcDbCircle
 10
13.2359538395
 20
-32.2068769206
 30
0.0
 40
17.00000000000002
  0
CIRCLE
  5
17A
330
1F
100
AcDbEntity
  8
0
  6
Continuous
 62
     7
370
    15
100
AcDbCircle
 10
-69.0268376308
 20
27.560539555
 30
0.0
 40
17.00000000000001
  0
CIRCLE
  5
17B
330
1F
100
AcDbEntity
  8
0
  6
Continuous
 62
     7
370
    15
100
AcDbCircle
 10
-165.7325489081
 20
58.9821298872
 30
0.0
 40
16.99999999999998
  0
CIRCLE
  5
17C
330
1F
100
AcDbEntity
  8
0
  6
Continuous
 62
     7
370
    15
100
AcDbCircle
 10
-267.4149511842
 20
58.9821298872
 30
0.0
 40
17.0
  0
CIRCLE
  5
17D
330
1F
100
AcDbEntity
  8
0
  6
Continuous
 62
     7
370
    15
100
AcDbCircle
 10
-364.1206624615
 20
27.560539555
 30
0.0
 40
16.99999999999995
  0
CIRCLE
  5
17E
330
1F
100
AcDbEntity
  8
0
  6
Continuous
 62
     7
370
    15
100
AcDbCircle
 10
-446.3834539318
 20
-32.2068769206
 30
0.0
 40
17.00000000000001
  0
CIRCLE
  5
17F
330
1F
100
AcDbEntity
  8
0
  6
Continuous
 62
     7
370
    15
100
AcDbCircle
 10
-506.1508704074
 20
-114.4696683909
 30
0.0
 40
17.00000000000001
  0
CIRCLE
  5
180
330
1F
100
AcDbEntity
  8
0
  6
Continuous
 62
     7
370
    15
100
AcDbCircle
 10
-537.5724607396
 20
-211.1753796682
 30
0.0
 40
16.99999999999996
  0
CIRCLE
  5
181
330
1F
100
AcDbEntity
  8
0
  6
Continuous
 62
     7
370
    15
100
AcDbCircle
 10
-537.5724607396
 20
-312.8577819443
 30
0.0
 40
17.00000000000006
  0
CIRCLE
  5
182
330
1F
100
AcDbEntity
  8
0
  6
Continuous
 62
     7
370
    15
100
AcDbCircle
 10
-506.1508704074
 20
-409.5634932216
 30
0.0
 40
17.00000000000004
  0
CIRCLE
  5
183
330
1F
100
AcDbEntity
  8
0
  6
Continuous
 62
     7
370
    15
100
AcDbCircle
 10
-446.3834539318
 20
-491.8262846919
 30
0.0
 40
17.00000000000002
  0
CIRCLE
  5
184
330
1F
100
AcDbEntity
  8
0
  6
Continuous
 62
     7
370
    15
100
AcDbCircle
 10
-364.1206624615
 20
-551.5937011675
 30
0.0
 40
17.00000000000011
  0
CIRCLE
  5
185
330
1F
100
AcDbEntity
  8
0
  6
Continuous
 62
     7
370
    15
100
AcDbCircle
 10
-267.4149511842
 20
-583.0152914997
 30
0.0
 40
17.00000000000008
  0
CIRCLE
  5
186
330
1F
100
AcDbEntity
  8
0
  6
Continuous
 62
     7
370
    15
100
AcDbCircle
 10
-165.7325489081
 20
-583.0152914997
 30
0.0
 40
17.00000000000003
  0
CIRCLE
  5
187
330
1F
100
AcDbEntity
  8
0
  6
Continuous
 62
     7
370
    15
100
AcDbCircle
 10
-69.0268376308
 20
-551.5937011675
 30
0.0
 40
17.00000000000004
  0
CIRCLE
  5
188
330
1F
100
AcDbEntity
  8
0
  6
Continuous
 62
     7
370
    15
100
AcDbCircle
 10
13.2359538395
 20
-491.8262846919
 30
0.0
 40
17.00000000000004
  0
CIRCLE
  5
189
330
1F
100
AcDbEntity
  8
0
  6
Continuous
 62
     7
370
    15
100
AcDbCircle
 10
73.0033703151
 20
-409.5634932216
 30
0.0
 40
17.00000000000001
  0
CIRCLE
  5
18A
330
1F
100
AcDbEntity
  8
0
  6
Continuous
 62
     7
370
    15
100
AcDbCircle
 10
104.4249606473
 20
-312.8577819443
 30
0.0
 40
17.00000000000001
  0
CIRCLE
  5
18B
330
1F
100
AcDbEntity
  8
0
  6
Continuous
 62
     7
370
    15
100
AcDbCircle
 10
-216.5737500461
 20
-262.0165808062
 30
0.0
 40
357.4999999999999
  0
CIRCLE
  5
18C
330
1F
100
AcDbEntity
  8
0
  6
Continuous
 62
     7
370
     0
100
AcDbCircle
 10
-216.5737500461
 20
-262.0165808062
 30
0.0
 40
281.3867513459481
  0
CIRCLE
  5
18D
330
1F
100
AcDbEntity
  8
0
  6
Continuous
 62
     7
370
     0
100
AcDbCircle
 10
-216.5737500461
 20
-262.0165808062
 30
0.0
 40
277.0566243270259
  0
CIRCLE
  5
18E
330
1F
100
AcDbEntity
  8
0
  6
Continuous
 62
     7
370
     0
100
AcDbCircle
 10
-216.5737500461
 20
-262.0165808062
 30
0.0
 40
263.6602540378444
  0
CIRCLE
  5
18F
330
1F
100
AcDbEntity
  8
0
  6
Continuous
 62
     7
370
     0
100
AcDbCircle
 10
-216.5737500461
 20
-262.0165808062
 30
0.0
 40
261.1602540378444
  0
CIRCLE
  5
190
330
1F
100
AcDbEntity
  8
0
  6
Continuous
 62
     7
370
     0
100
AcDbCircle
 10
-216.5737500461
 20
-262.0165808062
 30
0.0
 40
270.1698729810778
  0
CIRCLE
  5
191
330
1F
100
AcDbEntity
  8
0
  6
Continuous
 62
     7
370
     0
100
AcDbCircle
 10
-216.5737500461
 20
-262.0165808062
 30
0.0
 40
276.9999999999999
  0
INSERT
  5
19D
330
1F
100
AcDbEntity
  8
0
  6
Continuous
 62
     7
370
     0
100
AcDbBlockReference
  2
SW_CENTERMARKSYMBOL_0
 10
-216.5737500461
 20
-262.0165808062
 30
0.0
  0
LINE
  5
19E
330
1F
100
AcDbEntity
  8
0
  6
Continuous
 62
     7
370
    15
100
AcDbLine
 10
549.8364369599
 20
471.8834406141
 30
0.0
 11
549.8364369599
 21
446.8834421042
 31
0.0
  0
LINE
  5
19F
330
1F
100
AcDbEntity
  8
0
  6
Continuous
 62
     7
370
    15
100
AcDbLine
 10
1264.8364107339
 20
446.8834421042
 30
0.0
 11
1264.8364107339
 21
471.8834406141
 31
0.0
  0
ARC
  5
1A0
330
1F
100
AcDbEntity
  8
0
  6
Continuous
 62
     7
370
    15
100
AcDbCircle
 10
602.8364238469
 20
591.6324371164
 30
0.0
 40
3.0
100
AcDbArc
 50
180.0
 51
265.0
  0
ARC
  5
1A1
330
1F
100
AcDbEntity
  8
0
  6
Continuous
 62
     7
370
    15
100
AcDbCircle
 10
1211.8364238469
 20
591.6324371164
 30
0.0
 40
2.999999999999974
100
AcDbArc
 50
275.0
 51
0.0
  0
LINE
  5
1A2
330
1F
100
AcDbEntity
  8
0
  6
Continuous
 62
     7
370
    15
100
AcDbLine
 10
599.8364190785
 20
594.8834440116
 30
0.0
 11
599.8364190785
 21
591.6324353222
 31
0.0
  0
LINE
  5
1A3
330
1F
100
AcDbEntity
  8
0
  6
Continuous
 62
     7
370
    15
100
AcDbLine
 10
1214.8364286153
 20
591.6324353222
 30
0.0
 11
1214.8364286153
 21
594.8834440116
 31
0.0
  0
LINE
  5
1A4
330
1F
100
AcDbEntity
  8
0
  6
Continuous
 62
     7
370
    15
100
AcDbLine
 10
602.5749544827
 20
588.6438547078
 30
0.0
 11
606.8568627564
 21
588.2692320648
 31
0.0
  0
LINE
  5
1A5
330
1F
100
AcDbEntity
  8
0
  6
Continuous
 62
     7
370
    15
100
AcDbLine
 10
1207.8159849374
 20
588.2692320648
 30
0.0
 11
1212.0978932111
 21
588.6438547078
 31
0.0
  0
LINE
  5
1A6
330
1F
100
AcDbEntity
  8
0
  6
Continuous
 62
     7
370
    15
100
AcDbLine
 10
828.3309216825
 20
594.8834440116
 30
0.0
 11
828.3309216825
 21
597.3834453527
 31
0.0
  0
LINE
  5
1A7
330
1F
100
AcDbEntity
  8
0
  6
Continuous
 62
     7
370
    15
100
AcDbLine
 10
804.3309177486
 20
597.3834453527
 30
0.0
 11
804.3309177486
 21
594.8834440116
 31
0.0
  0
LINE
  5
1A8
330
1F
100
AcDbEntity
  8
0
  6
Continuous
 62
     7
370
    15
100
AcDbLine
 10
1010.3419299452
 20
594.8834440116
 30
0.0
 11
1010.3419299452
 21
597.3834453527
 31
0.0
  0
LINE
  5
1A9
330
1F
100
AcDbEntity
  8
0
  6
Continuous
 62
     7
370
    15
100
AcDbLine
 10
986.3419260113
 20
597.3834453527
 30
0.0
 11
986.3419260113
 21
594.8834440116
 31
0.0
  0
ARC
  5
1AA
330
1F
100
AcDbEntity
  8
0
  6
Continuous
 62
     7
370
    15
100
AcDbCircle
 10
618.3958339658
 20
582.2406064195
 30
0.0
 40
4.999999999999979
100
AcDbArc
 50
3.0
 51
84.9999426623
  0
ARC
  5
1AB
330
1F
100
AcDbEntity
  8
0
  6
Continuous
 62
     7
370
    15
100
AcDbCircle
 10
1196.277013728
 20
582.2406064195
 30
0.0
 40
5.000000000000048
100
AcDbArc
 50
95.0010060214
 51
177.0
  0
LINE
  5
1AC
330
1F
100
AcDbEntity
  8
0
  6
Continuous
 62
     7
370
    15
100
AcDbLine
 10
824.3309210269
 20
612.8834432367
 30
0.0
 11
824.3309210269
 21
613.38344425
 31
0.0
  0
LINE
  5
1AD
330
1F
100
AcDbEntity
  8
0
  6
Continuous
 62
     7
370
    15
100
AcDbLine
 10
808.3309184043
 20
613.38344425
 30
0.0
 11
808.3309184043
 21
612.8834432367
 31
0.0
  0
LINE
  5
1AE
330
1F
100
AcDbEntity
  8
0
  6
Continuous
 62
     7
370
    15
100
AcDbLine
 10
1006.3419292895
 20
612.8834432367
 30
0.0
 11
1006.3419292895
 21
613.38344425
 31
0.0
  0
LINE
  5
1AF
330
1F
100
AcDbEntity
  8
0
  6
Continuous
 62
     7
370
    15
100
AcDbLine
 10
990.3419266669
 20
613.38344425
 30
0.0
 11
990.3419266669
 21
612.8834432367
 31
0.0
  0
LINE
  5
1B0
330
1F
100
AcDbEntity
  8
0
  6
Continuous
 62
     7
370
    15
100
AcDbLine
 10
822.830917987
 20
613.38344425
 30
0.0
 11
822.830917987
 21
624.8834452037
 31
0.0
  0
LINE
  5
1B1
330
1F
100
AcDbEntity
  8
0
  6
Continuous
 62
     7
370
    15
100
AcDbLine
 10
809.8309214441
 20
624.8834452037
 30
0.0
 11
809.8309214441
 21
613.38344425
 31
0.0
  0
LINE
  5
1B2
330
1F
100
AcDbEntity
  8
0
  6
Continuous
 62
     7
370
    15
100
AcDbLine
 10
1004.8419262497
 20
613.38344425
 30
0.0
 11
1004.8419262497
 21
624.8834452037
 31
0.0
  0
LINE
  5
1B3
330
1F
100
AcDbEntity
  8
0
  6
Continuous
 62
     7
370
    15
100
AcDbLine
 10
991.8419297067
 20
624.8834452037
 30
0.0
 11
991.8419297067
 21
613.38344425
 31
0.0
  0
LINE
  5
1B4
330
1F
100
AcDbEntity
  8
0
  6
Continuous
 62
     7
370
    15
100
AcDbLine
 10
1004.3419252364
 20
471.8834406141
 30
0.0
 11
1004.3419252364
 21
587.913038433
 31
0.0
  0
LINE
  5
1B5
330
1F
100
AcDbEntity
  8
0
  6
Continuous
 62
     7
370
    15
100
AcDbLine
 10
992.34193072
 20
587.5892138485
 30
0.0
 11
992.34193072
 21
471.8834406141
 31
0.0
  0
LINE
  5
1B6
330
1F
100
AcDbEntity
  8
0
  6
Continuous
 62
     7
370
    15
100
AcDbLine
 10
822.3309169738
 20
471.8834406141
 30
0.0
 11
822.3309169738
 21
587.5892138485
 31
0.0
  0
LINE
  5
1B7
330
1F
100
AcDbEntity
  8
0
  6
Continuous
 62
     7
370
    15
100
AcDbLine
 10
810.3309224574
 20
587.913038433
 30
0.0
 11
810.3309224574
 21
471.8834406141
 31
0.0
  0
LINE
  5
1B8
330
1F
100
AcDbEntity
  8
0
  6
Continuous
 62
     7
370
    15
100
AcDbLine
 10
822.3309169738
 20
607.3834432665
 30
0.0
 11
822.3309169738
 21
612.8834432367
 31
0.0
  0
LINE
  5
1B9
330
1F
100
AcDbEntity
  8
0
  6
Continuous
 62
     7
370
    15
100
AcDbLine
 10
810.3309224574
 20
612.8834432367
 30
0.0
 11
810.3309224574
 21
607.3834432665
 31
0.0
  0
LINE
  5
1BA
330
1F
100
AcDbEntity
  8
0
  6
Continuous
 62
     7
370
    15
100
AcDbLine
 10
1004.3419252364
 20
607.3834432665
 30
0.0
 11
1004.3419252364
 21
612.8834432367
 31
0.0
  0
LINE
  5
1BB
330
1F
100
AcDbEntity
  8
0
  6
Continuous
 62
     7
370
    15
100
AcDbLine
 10
992.34193072
 20
612.8834432367
 30
0.0
 11
992.34193072
 21
607.3834432665
 31
0.0
  0
LINE
  5
1BC
330
1F
100
AcDbEntity
  8
0
  6
Continuous
 62
     7
370
    15
100
AcDbLine
 10
623.3889858453
 20
582.5022852424
 30
0.0
 11
624.7122685639
 21
557.2526038069
 31
0.0
  0
LINE
  5
1BD
330
1F
100
AcDbEntity
  8
0
  6
Continuous
 62
     7
370
    15
100
AcDbLine
 10
1189.9605791299
 20
557.2526038069
 30
0.0
 11
1191.2838618485
 21
582.5022852424
 31
0.0
  0
ARC
  5
1BE
330
1F
100
AcDbEntity
  8
0
  6
Continuous
 62
     7
370
    15
100
AcDbCircle
 10
627.2088352637
 20
557.3834435943
 30
0.0
 40
2.499999999999901
100
AcDbArc
 50
183.0
 51
270.0
  0
ARC
  5
1BF
330
1F
100
AcDbEntity
  8
0
  6
Continuous
 62
     7
370
    15
100
AcDbCircle
 10
1187.4640124301
 20
557.3834435943
 30
0.0
 40
2.499999999999886
100
AcDbArc
 50
270.0
 51
357.0
  0
ARC
  5
1C0
330
1F
100
AcDbEntity
  8
0
  6
Continuous
 62
     7
370
    15
100
AcDbCircle
 10
632.8364238469
 20
556.9042408837
 30
0.0
 40
2.500000000000114
100
AcDbArc
 50
233.9320086196
 51
270.0
  0
ARC
  5
1C1
330
1F
100
AcDbEntity
  8
0
  6
Continuous
 62
     7
370
    15
100
AcDbCircle
 10
1181.8364238469
 20
556.9042408837
 30
0.0
 40
2.500000000000114
100
AcDbArc
 50
270.0
 51
306.0679913804
  0
LINE
  5
1C2
330
1F
100
AcDbEntity
  8
0
  6
Continuous
 62
     7
370
    15
100
AcDbLine
 10
632.8364114491
 20
554.4042407911
 30
0.0
 11
663.0809257953
 21
554.4042407911
 31
0.0
  0
LINE
  5
1C3
330
1F
100
AcDbEntity
  8
0
  6
Continuous
 62
     7
370
    15
100
AcDbLine
 10
675.0809203116
 20
554.4042407911
 30
0.0
 11
810.3309224574
 21
554.4042407911
 31
0.0
  0
LINE
  5
1C4
330
1F
100
AcDbEntity
  8
0
  6
Continuous
 62
     7
370
    15
100
AcDbLine
 10
822.3309169738
 20
554.4042407911
 30
0.0
 11
992.34193072
 21
554.4042407911
 31
0.0
  0
LINE
  5
1C5
330
1F
100
AcDbEntity
  8
0
  6
Continuous
 62
     7
370
    15
100
AcDbLine
 10
1004.3419252364
 20
554.4042407911
 30
0.0
 11
1139.5919273822
 21
554.4042407911
 31
0.0
  0
LINE
  5
1C6
330
1F
100
AcDbEntity
  8
0
  6
Continuous
 62
     7
370
    15
100
AcDbLine
 10
1151.5919218985
 20
554.4042407911
 30
0.0
 11
1181.8364362447
 21
554.4042407911
 31
0.0
  0
LINE
  5
1C7
330
1F
100
AcDbEntity
  8
0
  6
Continuous
 62
     7
370
    15
100
AcDbLine
 10
638.3364300458
 20
546.8834435943
 30
0.0
 11
638.3364300458
 21
471.8834406141
 31
0.0
  0
LINE
  5
1C8
330
1F
100
AcDbEntity
  8
0
  6
Continuous
 62
     7
370
    15
100
AcDbLine
 10
1176.336417648
 20
471.8834406141
 30
0.0
 11
1176.336417648
 21
546.8834435943
 31
0.0
  0
ARC
  5
1C9
330
1F
100
AcDbEntity
  8
0
  6
Continuous
 62
     7
370
    15
100
AcDbCircle
 10
638.8364238469
 20
550.8834435943
 30
0.0
 40
6.000000000000129
100
AcDbArc
 50
25.0
 51
35.9302218348
  0
ARC
  5
1CA
330
1F
100
AcDbEntity
  8
0
  6
Continuous
 62
     7
370
    15
100
AcDbCircle
 10
1175.8364238469
 20
550.8834435943
 30
0.0
 40
6.000000000000335
100
AcDbArc
 50
144.0697781652
 51
155.0
  0
LINE
  5
1CB
330
1F
100
AcDbEntity
  8
0
  6
Continuous
 62
     7
370
    15
100
AcDbLine
 10
644.2742745606
 20
553.4191529643
 30
0.0
 11
647.3219196526
 21
546.8834435943
 31
0.0
  0
LINE
  5
1CC
330
1F
100
AcDbEntity
  8
0
  6
Continuous
 62
     7
370
    15
100
AcDbLine
 10
1167.3509280412
 20
546.8834435943
 30
0.0
 11
1170.3985731332
 21
553.4191529643
 31
0.0
  0
LINE
  5
1CD
330
1F
100
AcDbEntity
  8
0
  6
Continuous
 62
     7
370
    15
100
AcDbLine
 10
681.0809175698
 20
594.8834440116
 30
0.0
 11
681.0809175698
 21
597.3834453527
 31
0.0
  0
LINE
  5
1CE
330
1F
100
AcDbEntity
  8
0
  6
Continuous
 62
     7
370
    15
100
AcDbLine
 10
657.0809285371
 20
597.3834453527
 30
0.0
 11
657.0809285371
 21
594.8834440116
 31
0.0
  0
LINE
  5
1CF
330
1F
100
AcDbEntity
  8
0
  6
Continuous
 62
     7
370
    15
100
AcDbLine
 10
1157.5919191567
 20
594.8834440116
 30
0.0
 11
1157.5919191567
 21
597.3834453527
 31
0.0
  0
LINE
  5
1D0
330
1F
100
AcDbEntity
  8
0
  6
Continuous
 62
     7
370
    15
100
AcDbLine
 10
1133.591930124
 20
597.3834453527
 30
0.0
 11
1133.591930124
 21
594.8834440116
 31
0.0
  0
LINE
  5
1D1
330
1F
100
AcDbEntity
  8
0
  6
Continuous
 62
     7
370
    15
100
AcDbLine
 10
677.0809243647
 20
612.8834432367
 30
0.0
 11
677.0809243647
 21
613.38344425
 31
0.0
  0
LINE
  5
1D2
330
1F
100
AcDbEntity
  8
0
  6
Continuous
 62
     7
370
    15
100
AcDbLine
 10
661.0809217421
 20
613.38344425
 30
0.0
 11
661.0809217421
 21
612.8834432367
 31
0.0
  0
LINE
  5
1D3
330
1F
100
AcDbEntity
  8
0
  6
Continuous
 62
     7
370
    15
100
AcDbLine
 10
1153.5919259517
 20
612.8834432367
 30
0.0
 11
1153.5919259517
 21
613.38344425
 31
0.0
  0
LINE
  5
1D4
330
1F
100
AcDbEntity
  8
0
  6
Continuous
 62
     7
370
    15
100
AcDbLine
 10
1137.5919233291
 20
613.38344425
 30
0.0
 11
1137.5919233291
 21
612.8834432367
 31
0.0
  0
LINE
  5
1D5
330
1F
100
AcDbEntity
  8
0
  6
Continuous
 62
     7
370
    15
100
AcDbLine
 10
675.5809138743
 20
613.38344425
 30
0.0
 11
675.5809138743
 21
624.8834452037
 31
0.0
  0
LINE
  5
1D6
330
1F
100
AcDbEntity
  8
0
  6
Continuous
 62
     7
370
    15
100
AcDbLine
 10
662.5809173314
 20
624.8834452037
 30
0.0
 11
662.5809173314
 21
613.38344425
 31
0.0
  0
LINE
  5
1D7
330
1F
100
AcDbEntity
  8
0
  6
Continuous
 62
     7
370
    15
100
AcDbLine
 10
1152.0919303624
 20
613.38344425
 30
0.0
 11
1152.0919303624
 21
624.8834452037
 31
0.0
  0
LINE
  5
1D8
330
1F
100
AcDbEntity
  8
0
  6
Continuous
 62
     7
370
    15
100
AcDbLine
 10
1139.0919338195
 20
624.8834452037
 30
0.0
 11
1139.0919338195
 21
613.38344425
 31
0.0
  0
LINE
  5
1D9
330
1F
100
AcDbEntity
  8
0
  6
Continuous
 62
     7
370
    15
100
AcDbLine
 10
675.0809203116
 20
471.8834406141
 30
0.0
 11
675.0809203116
 21
587.324740589
 31
0.0
  0
LINE
  5
1DA
330
1F
100
AcDbEntity
  8
0
  6
Continuous
 62
     7
370
    15
100
AcDbLine
 10
663.0809257953
 20
588.171398491
 30
0.0
 11
663.0809257953
 21
471.8834406141
 31
0.0
  0
LINE
  5
1DB
330
1F
100
AcDbEntity
  8
0
  6
Continuous
 62
     7
370
    15
100
AcDbLine
 10
675.0809203116
 20
607.3834432665
 30
0.0
 11
675.0809203116
 21
612.8834432367
 31
0.0
  0
LINE
  5
1DC
330
1F
100
AcDbEntity
  8
0
  6
Continuous
 62
     7
370
    15
100
AcDbLine
 10
663.0809257953
 20
612.8834432367
 30
0.0
 11
663.0809257953
 21
607.3834432665
 31
0.0
  0
LINE
  5
1DD
330
1F
100
AcDbEntity
  8
0
  6
Continuous
 62
     7
370
    15
100
AcDbLine
 10
1151.5919218985
 20
471.8834406141
 30
0.0
 11
1151.5919218985
 21
588.1717002395
 31
0.0
  0
LINE
  5
1DE
330
1F
100
AcDbEntity
  8
0
  6
Continuous
 62
     7
370
    15
100
AcDbLine
 10
1139.5919273822
 20
587.324803919
 30
0.0
 11
1139.5919273822
 21
471.8834406141
 31
0.0
  0
LINE
  5
1DF
330
1F
100
AcDbEntity
  8
0
  6
Continuous
 62
     7
370
    15
100
AcDbLine
 10
1151.5919218985
 20
607.3834432665
 30
0.0
 11
1151.5919218985
 21
612.8834432367
 31
0.0
  0
LINE
  5
1E0
330
1F
100
AcDbEntity
  8
0
  6
Continuous
 62
     7
370
    15
100
AcDbLine
 10
1139.5919273822
 20
612.8834432367
 30
0.0
 11
1139.5919273822
 21
607.3834432665
 31
0.0
  0
LINE
  5
1E1
330
1F
100
AcDbEntity
  8
0
  6
Continuous
 62
     7
370
    15
100
AcDbLine
 10
624.836425039
 20
594.8834440116
 30
0.0
 11
624.836425039
 21
597.3834453527
 31
0.0
  0
LINE
  5
1E2
330
1F
100
AcDbEntity
  8
0
  6
Continuous
 62
     7
370
    15
100
AcDbLine
 10
600.8364360062
 20
597.3834453527
 30
0.0
 11
600.8364360062
 21
594.8834440116
 31
0.0
  0
LINE
  5
1E3
330
1F
100
AcDbEntity
  8
0
  6
Continuous
 62
     7
370
    15
100
AcDbLine
 10
1213.8364116876
 20
594.8834440116
 30
0.0
 11
1213.8364116876
 21
597.3834453527
 31
0.0
  0
LINE
  5
1E4
330
1F
100
AcDbEntity
  8
0
  6
Continuous
 62
     7
370
    15
100
AcDbLine
 10
1189.8364226548
 20
597.3834453527
 30
0.0
 11
1189.8364226548
 21
594.8834440116
 31
0.0
  0
LINE
  5
1E5
330
1F
100
AcDbEntity
  8
0
  6
Continuous
 62
     7
370
    15
100
AcDbLine
 10
620.8364169328
 20
612.8834432367
 30
0.0
 11
620.8364169328
 21
613.38344425
 31
0.0
  0
LINE
  5
1E6
330
1F
100
AcDbEntity
  8
0
  6
Continuous
 62
     7
370
    15
100
AcDbLine
 10
604.8364143102
 20
613.38344425
 30
0.0
 11
604.8364143102
 21
612.8834432367
 31
0.0
  0
LINE
  5
1E7
330
1F
100
AcDbEntity
  8
0
  6
Continuous
 62
     7
370
    15
100
AcDbLine
 10
1209.8364333836
 20
612.8834432367
 30
0.0
 11
1209.8364333836
 21
613.38344425
 31
0.0
  0
LINE
  5
1E8
330
1F
100
AcDbEntity
  8
0
  6
Continuous
 62
     7
370
    15
100
AcDbLine
 10
1193.836430761
 20
613.38344425
 30
0.0
 11
1193.836430761
 21
612.8834432367
 31
0.0
  0
LINE
  5
1E9
330
1F
100
AcDbEntity
  8
0
  6
Continuous
 62
     7
370
    15
100
AcDbLine
 10
619.3364362447
 20
613.38344425
 30
0.0
 11
619.3364362447
 21
624.8834452037
 31
0.0
  0
LINE
  5
1EA
330
1F
100
AcDbEntity
  8
0
  6
Continuous
 62
     7
370
    15
100
AcDbLine
 10
606.3364248006
 20
624.8834452037
 30
0.0
 11
606.3364248006
 21
613.38344425
 31
0.0
  0
LINE
  5
1EB
330
1F
100
AcDbEntity
  8
0
  6
Continuous
 62
     7
370
    15
100
AcDbLine
 10
1208.3364228932
 20
613.38344425
 30
0.0
 11
1208.3364228932
 21
624.8834452037
 31
0.0
  0
LINE
  5
1EC
330
1F
100
AcDbEntity
  8
0
  6
Continuous
 62
     7
370
    15
100
AcDbLine
 10
1195.3364114491
 20
624.8834452037
 30
0.0
 11
1195.3364114491
 21
613.38344425
 31
0.0
  0
LINE
  5
1ED
330
1F
100
AcDbEntity
  8
0
  6
Continuous
 62
     7
370
    15
100
AcDbLine
 10
618.8364128796
 20
471.8834406141
 30
0.0
 11
618.8364128796
 21
587.221155167
 31
0.0
  0
LINE
  5
1EE
330
1F
100
AcDbEntity
  8
0
  6
Continuous
 62
     7
370
    15
100
AcDbLine
 10
606.8364183633
 20
588.2710239295
 30
0.0
 11
606.8364183633
 21
471.8834406141
 31
0.0
  0
LINE
  5
1EF
330
1F
100
AcDbEntity
  8
0
  6
Continuous
 62
     7
370
    15
100
AcDbLine
 10
618.8364128796
 20
607.3834432665
 30
0.0
 11
618.8364128796
 21
612.8834432367
 31
0.0
  0
LINE
  5
1F0
330
1F
100
AcDbEntity
  8
0
  6
Continuous
 62
     7
370
    15
100
AcDbLine
 10
606.8364183633
 20
612.8834432367
 30
0.0
 11
606.8364183633
 21
607.3834432665
 31
0.0
  0
LINE
  5
1F1
330
1F
100
AcDbEntity
  8
0
  6
Continuous
 62
     7
370
    15
100
AcDbLine
 10
1207.8364293305
 20
471.8834406141
 30
0.0
 11
1207.8364293305
 21
588.2710239295
 31
0.0
  0
LINE
  5
1F2
330
1F
100
AcDbEntity
  8
0
  6
Continuous
 62
     7
370
    15
100
AcDbLine
 10
1195.8364348142
 20
587.221155167
 30
0.0
 11
1195.8364348142
 21
471.8834406141
 31
0.0
  0
LINE
  5
1F3
330
1F
100
AcDbEntity
  8
0
  6
Continuous
 62
     7
370
    15
100
AcDbLine
 10
1207.8364293305
 20
607.3834432665
 30
0.0
 11
1207.8364293305
 21
612.8834432367
 31
0.0
  0
LINE
  5
1F4
330
1F
100
AcDbEntity
  8
0
  6
Continuous
 62
     7
370
    15
100
AcDbLine
 10
1195.8364348142
 20
612.8834432367
 30
0.0
 11
1195.8364348142
 21
607.3834432665
 31
0.0
  0
LINE
  5
1F5
330
1F
100
AcDbEntity
  8
0
  6
Continuous
 62
     7
370
    15
100
AcDbLine
 10
549.8364369599
 20
446.8834421042
 30
0.0
 11
1264.8364107339
 21
446.8834421042
 31
0.0
  0
LINE
  5
1F6
330
1F
100
AcDbEntity
  8
0
  6
Continuous
 62
     7
370
    15
100
AcDbLine
 10
549.8364369599
 20
471.8834406141
 30
0.0
 11
1264.8364107339
 21
471.8834406141
 31
0.0
  0
LINE
  5
1F7
330
1F
100
AcDbEntity
  8
0
  6
Continuous
 62
     7
370
    15
100
AcDbLine
 10
599.8364190785
 20
594.8834440116
 30
0.0
 11
1214.8364286153
 21
594.8834440116
 31
0.0
  0
SPLINE
  5
1F8
330
1F
100
AcDbEntity
  8
0
  6
Continuous
 62
     7
370
    15
100
AcDbSpline
210
0.0
220
0.0
230
1.0
 70
     8
 71
     3
 72
    26
 73
    22
 74
     0
 42
0.00000001
 43
0.00000001
 12
1.0
 22
0.0
 32
0.0
 13
1.0
 23
0.0
 33
0.0
 40
0.0
 40
0.0
 40
0.0
 40
0.0
 40
0.0531158512377183
 40
0.1070551496181817
 40
0.1609939429849867
 40
0.2147706997157931
 40
0.2685453077470916
 40
0.3221268212883889
 40
0.3757072190885423
 40
0.4291439208101932
 40
0.4825807637806371
 40
0.5359843121974686
 40
0.5893884051672474
 40
0.6428818018973975
 40
0.6963768278579251
 40
0.7500461074528797
 40
0.8037177374171078
 40
0.8575780960397853
 40
0.9114379070557926
 40
0.9654213692732043
 40
1.0
 40
1.0
 40
1.0
 40
1.0
 10
810.3328968612524
 20
587.9130384329545
 30
0.0
 10
810.3480506330137
 20
587.9401642286113
 30
0.0
 10
810.3785931032065
 20
587.9948363471009
 30
0.0
 10
810.6424196261353
 20
588.0685755471903
 30
0.0
 10
811.0542747272939
 20
588.1340042636741
 30
0.0
 10
811.6231322739457
 20
588.1881034820921
 30
0.0
 10
812.3215727653746
 20
588.2299743881559
 30
0.0
 10
813.1360213570937
 20
588.2579872313222
 30
0.0
 10
814.0376489239084
 20
588.2720168477915
 30
0.0
 10
815.0047447382944
 20
588.2711516659806
 30
0.0
 10
816.0073036162031
 20
588.2560681755242
 30
0.0
 10
817.0186403272254
 20
588.2265923815688
 30
0.0
 10
818.0108841782254
 20
588.1840895269971
 30
0.0
 10
818.9548351115382
 20
588.1291534623155
 30
0.0
 10
819.8271890800905
 20
588.0636746699009
 30
0.0
 10
820.5993941938782
 20
587.9890099338911
 30
0.0
 10
821.2539639740135
 20
587.9074453723603
 30
0.0
 10
821.7683644209275
 20
587.8209757185282
 30
0.0
 10
822.1249996030737
 20
587.7323029035665
 30
0.0
 10
822.3137168357214
 20
587.6538410586694
 30
0.0
 10
822.3117050911519
 20
587.6073615446163
 30
0.0
 10
822.3109196154447
 20
587.5892138484704
 30
0.0
  0
SPLINE
  5
1F9
330
1F
100
AcDbEntity
  8
0
  6
Continuous
 62
     7
370
    15
100
AcDbSpline
210
0.0
220
0.0
230
1.0
 70
     8
 71
     3
 72
    27
 73
    23
 74
     0
 42
0.00000001
 43
0.00000001
 12
1.0
 22
0.0
 32
0.0
 13
1.0
 23
0.0
 33
0.0
 40
0.0
 40
0.0
 40
0.0
 40
0.0
 40
0.0146537177398428
 40
0.0684296529588747
 40
0.1220114159797071
 40
0.1755923004116278
 40
0.2290296141708493
 40
0.2824679488927871
 40
0.3358720117403201
 40
0.3892768897013767
 40
0.4427708071148669
 40
0.4962663638807353
 40
0.5499370150655851
 40
0.6036088157019321
 40
0.657469694580612
 40
0.7113308079218337
 40
0.7653142489838197
 40
0.8192978199231868
 40
0.8732794216666224
 40
0.9272599715084592
 40
0.9811115750032986
 40
1.0
 40
1.0
 40
1.0
 40
1.0
 10
663.0983452526899
 20
588.1713984910238
 30
0.0
 10
663.0934104522586
 20
588.1763958067302
 30
0.0
 10
663.0703660148716
 20
588.1997321767622
 30
0.0
 10
663.1987520301345
 20
588.2294103184773
 30
0.0
 10
663.4899016001626
 20
588.2581381514331
 30
0.0
 10
663.9488162195951
 20
588.2719765762123
 30
0.0
 10
664.5520053732188
 20
588.2711623240692
 30
0.0
 10
665.2805496776331
 20
588.2560655577329
 30
0.0
 10
666.1177888476365
 20
588.226593020145
 30
0.0
 10
667.0367125632797
 20
588.184089414174
 30
0.0
 10
668.0143797449635
 20
588.1291537634156
 30
0.0
 10
669.0225045528463
 20
588.0636732994489
 30
0.0
 10
670.0328343629787
 20
587.9890131211728
 30
0.0
 10
671.0184971435708
 20
587.907437498626
 30
0.0
 10
671.948872982528
 20
587.8210030476719
 30
0.0
 10
672.8008066278544
 20
587.732198975092
 30
0.0
 10
673.5453735204709
 20
587.6435446666811
 30
0.0
 10
674.1647755300963
 20
587.557610758876
 30
0.0
 10
674.6391492464462
 20
587.4768116636614
 30
0.0
 10
674.9459525439821
 20
587.4043836040323
 30
0.0
 10
675.086091772152
 20
587.3530348982047
 30
0.0
 10
675.0661349496952
 20
587.3305732197872
 30
0.0
 10
675.0609527556272
 20
587.3247405890214
 30
0.0
  0
LWPOLYLINE
  5
1FA
330
1F
100
AcDbEntity
  8
0
  6
Continuous
 62
     7
370
    15
100
AcDbPolyline
 90
       21
 70
   128
 43
0.0
 10
606.8568925588
 20
588.2692693177
 10
606.8606476514
 20
588.2689452175
 10
607.0388357369
 20
588.2536640767
 10
607.3729197709
 20
588.2249830667
 10
607.8723768918
 20
588.182049096
 10
608.4964077203
 20
588.1283043329
 10
609.2618803708
 20
588.0622325841
 10
610.1077000825
 20
587.9890231792
 10
611.055562946
 20
587.9067426924
 10
612.0298306672
 20
587.8218954805
 10
613.0551199643
 20
587.7323022488
 10
614.0478651254
 20
587.6452533904
 10
615.0342921941
 20
587.5584653023
 10
615.9314315049
 20
587.4792768065
 10
616.7651216714
 20
587.4054713551
 10
617.4632708756
 20
587.3434974257
 10
618.0479626386
 20
587.2914774719
 10
618.4682349889
 20
587.254019678
 10
618.7385122506
 20
587.2299021486
 10
618.8317041127
 20
587.2215798501
 10
618.8317041127
 20
587.2215798501
  0
SPLINE
  5
1FB
330
1F
100
AcDbEntity
  8
0
  6
Continuous
 62
     7
370
    15
100
AcDbSpline
210
0.0
220
0.0
230
1.0
 70
     8
 71
     3
 72
    26
 73
    22
 74
     0
 42
0.00000001
 43
0.00000001
 12
1.0
 22
0.0
 32
0.0
 13
1.0
 23
0.0
 33
0.0
 40
0.0
 40
0.0
 40
0.0
 40
0.0
 40
0.0516699945730401
 40
0.1047431703113666
 40
0.1580925235076624
 40
0.2129836099288607
 40
0.26643796712436
 40
0.321430965743585
 40
0.3750882974220282
 40
0.4302900458969687
 40
0.4841221549975944
 40
0.5395103357880849
 40
0.593413388602274
 40
0.6488821731019289
 40
0.7027215925896407
 40
0.7581330914953166
 40
0.8118087364611826
 40
0.8670526927637282
 40
0.9205354595602567
 40
0.9755773661155688
 40
1.0
 40
1.0
 40
1.0
 40
1.0
 10
1195.84114358109
 20
587.2215798500764
 30
0.0
 10
1195.868804061583
 20
587.2240493334888
 30
0.0
 10
1195.924876187061
 20
587.2290553630768
 30
0.0
 10
1196.208883720469
 20
587.254409722898
 30
0.0
 10
1196.641868946782
 20
587.2929995312377
 30
0.0
 10
1197.224682266671
 20
587.3448624576633
 30
0.0
 10
1197.942493713257
 20
587.4085839019285
 30
0.0
 10
1198.76439836909
 20
587.4813497118648
 30
0.0
 10
1199.681584404824
 20
587.5623036483104
 30
0.0
 10
1200.653185614753
 20
587.6477822917573
 30
0.0
 10
1201.668297097671
 20
587.7367780542099
 30
0.0
 10
1202.680617680466
 20
587.8252225857011
 30
0.0
 10
1203.678619166854
 20
587.9121216345795
 30
0.0
 10
1204.615641476645
 20
587.9934382465909
 30
0.0
 10
1205.481417239081
 20
588.0683542818813
 30
0.0
 10
1206.235165820127
 20
588.1333879463732
 30
0.0
 10
1206.868572291629
 20
588.1879199829015
 30
0.0
 10
1207.355067335269
 20
588.2297298152916
 30
0.0
 10
1207.678522561076
 20
588.2574831653633
 30
0.0
 10
1207.834944070888
 20
588.2708951497461
 30
0.0
 10
1207.820419207063
 20
588.26965153143
 30
0.0
 10
1207.815955135045
 20
588.2692693177449
 30
0.0
  0
SPLINE
  5
1FC
330
1F
100
AcDbEntity
  8
0
  6
Continuous
 62
     7
370
    15
100
AcDbSpline
210
0.0
220
0.0
230
1.0
 70
     8
 71
     3
 72
    27
 73
    23
 74
     0
 42
0.00000001
 43
0.00000001
 12
1.0
 22
0.0
 32
0.0
 13
1.0
 23
0.0
 33
0.0
 40
0.0
 40
0.0
 40
0.0
 40
0.0
 40
0.0231670848628538
 40
0.0767101751350234
 40
0.1302531807363224
 40
0.1839995277613447
 40
0.2377457547203293
 40
0.2916702183749924
 40
0.3455943875018507
 40
0.3995936842688698
 40
0.4535920358499618
 40
0.5075323758788298
 40
0.561472136681545
 40
0.6152487898671554
 40
0.6690245674585297
 40
0.7226058964148903
 40
0.7761864731245605
 40
0.8296232266393939
 40
0.8830610318677539
 40
0.9364644214333697
 40
0.9898690603552133
 40
1.0
 40
1.0
 40
1.0
 40
1.0
 10
1139.612967821774
 20
587.3248039189565
 30
0.0
 10
1139.608008938108
 20
587.3320626587503
 30
0.0
 10
1139.591589227264
 20
587.3560975860679
 30
0.0
 10
1139.745231920064
 20
587.409426050206
 30
0.0
 10
1140.05936879744
 20
587.4819303657738
 30
0.0
 10
1140.543378721951
 20
587.5627724023192
 30
0.0
 10
1141.166029781652
 20
587.6485901309851
 30
0.0
 10
1141.918424076126
 20
587.737211537707
 30
0.0
 10
1142.774446542303
 20
587.8260640748164
 30
0.0
 10
1143.713285140762
 20
587.9124961319612
 30
0.0
 10
1144.705215307706
 20
587.9942098178498
 30
0.0
 10
1145.723230700914
 20
588.0686352489142
 30
0.0
 10
1146.736811130104
 20
588.1339875731827
 30
0.0
 10
1147.716604220048
 20
588.1881083648268
 30
0.0
 10
1148.63553727789
 20
588.2299734735241
 30
0.0
 10
1149.465319020179
 20
588.2579843798226
 30
0.0
 10
1150.186398265158
 20
588.2720292429175
 30
0.0
 10
1150.773119883268
 20
588.271105064366
 30
0.0
 10
1151.220025363413
 20
588.2562419852188
 30
0.0
 10
1151.489689284999
 20
588.2259450667053
 30
0.0
 10
1151.608807248288
 20
588.1971746065761
 30
0.0
 10
1151.582934383087
 20
588.175203585172
 30
0.0
 10
1151.578808876691
 20
588.1717002395379
 30
0.0
  0
SPLINE
  5
1FD
330
1F
100
AcDbEntity
  8
0
  6
Continuous
 62
     7
370
    15
100
AcDbSpline
210
0.0
220
0.0
230
1.0
 70
     8
 71
     3
 72
    26
 73
    22
 74
     0
 42
0.00000001
 43
0.00000001
 12
1.0
 22
0.0
 32
0.0
 13
1.0
 23
0.0
 33
0.0
 40
0.0
 40
0.0
 40
0.0
 40
0.0
 40
0.0531158512377183
 40
0.1070551496181817
 40
0.1609939429849867
 40
0.2147706997157931
 40
0.2685453077470916
 40
0.3221268212883889
 40
0.3757072190885423
 40
0.4291439208101932
 40
0.4825807637806371
 40
0.5359843121974686
 40
0.5893884051672474
 40
0.6428818018973975
 40
0.6963768278579251
 40
0.7500461074528797
 40
0.8037177374171078
 40
0.8575780960397853
 40
0.9114379070557926
 40
0.9654213692732043
 40
1.0
 40
1.0
 40
1.0
 40
1.0
 10
1004.339950832543
 20
587.9130384329545
 30
0.0
 10
1004.324797060782
 20
587.9401642286113
 30
0.0
 10
1004.294254590589
 20
587.9948363471009
 30
0.0
 10
1004.03042806766
 20
588.0685755471903
 30
0.0
 10
1003.618572966501
 20
588.1340042636741
 30
0.0
 10
1003.04971541985
 20
588.1881034820921
 30
0.0
 10
1002.351274928421
 20
588.2299743881559
 30
0.0
 10
1001.536826336702
 20
588.2579872313222
 30
0.0
 10
1000.635198769887
 20
588.2720168477915
 30
0.0
 10
999.668102955501
 20
588.2711516659806
 30
0.0
 10
998.6655440775924
 20
588.2560681755242
 30
0.0
 10
997.6542073665701
 20
588.2265923815688
 30
0.0
 10
996.66196351557
 20
588.1840895269971
 30
0.0
 10
995.7180125822572
 20
588.1291534623155
 30
0.0
 10
994.8456586137049
 20
588.0636746699009
 30
0.0
 10
994.0734534999173
 20
587.9890099338911
 30
0.0
 10
993.4188837197819
 20
587.9074453723603
 30
0.0
 10
992.904483272868
 20
587.8209757185282
 30
0.0
 10
992.5478480907218
 20
587.7323029035665
 30
0.0
 10
992.3591308580741
 20
587.6538410586694
 30
0.0
 10
992.3611426026436
 20
587.6073615446163
 30
0.0
 10
992.3619280783506
 20
587.5892138484704
 30
0.0
  0
LINE
  5
1FE
330
1F
100
AcDbEntity
  8
0
  6
Continuous
 62
     7
370
    15
100
AcDbLine
 10
828.3309216825
 20
597.3834453527
 30
0.0
 11
804.3309177486
 21
597.3834453527
 31
0.0
  0
LINE
  5
1FF
330
1F
100
AcDbEntity
  8
0
  6
Continuous
 62
     7
370
    15
100
AcDbLine
 10
1010.3419299452
 20
597.3834453527
 30
0.0
 11
986.3419260113
 21
597.3834453527
 31
0.0
  0
LINE
  5
200
330
1F
100
AcDbEntity
  8
0
  6
Continuous
 62
     7
370
    15
100
AcDbLine
 10
1000.9123708336
 20
607.3834432665
 30
0.0
 11
1000.9123708336
 21
597.3834453527
 31
0.0
  0
LINE
  5
201
330
1F
100
AcDbEntity
  8
0
  6
Continuous
 62
     7
370
    15
100
AcDbLine
 10
1000.9123708336
 20
607.3834432665
 30
0.0
 11
1008.8626618711
 21
607.3834432665
 31
0.0
  0
LINE
  5
202
330
1F
100
AcDbEntity
  8
0
  6
Continuous
 62
     7
370
    15
100
AcDbLine
 10
1008.8626618711
 20
607.3834432665
 30
0.0
 11
1008.8626618711
 21
597.3834453527
 31
0.0
  0
LINE
  5
203
330
1F
100
AcDbEntity
  8
0
  6
Continuous
 62
     7
370
    15
100
AcDbLine
 10
990.3916443912
 20
607.3834432665
 30
0.0
 11
990.3916443912
 21
597.3834453527
 31
0.0
  0
LINE
  5
204
330
1F
100
AcDbEntity
  8
0
  6
Continuous
 62
     7
370
    15
100
AcDbLine
 10
990.3916443912
 20
607.3834432665
 30
0.0
 11
1000.9123708336
 21
607.3834432665
 31
0.0
  0
LINE
  5
205
330
1F
100
AcDbEntity
  8
0
  6
Continuous
 62
     7
370
    15
100
AcDbLine
 10
805.4564099042
 20
607.3834432665
 30
0.0
 11
805.4564099042
 21
597.3834453527
 31
0.0
  0
LINE
  5
206
330
1F
100
AcDbEntity
  8
0
  6
Continuous
 62
     7
370
    15
100
AcDbLine
 10
805.4564099042
 20
607.3834432665
 30
0.0
 11
812.1421660511
 21
607.3834432665
 31
0.0
  0
LINE
  5
207
330
1F
100
AcDbEntity
  8
0
  6
Continuous
 62
     7
370
    15
100
AcDbLine
 10
812.1421660511
 20
607.3834432665
 30
0.0
 11
812.1421660511
 21
597.3834453527
 31
0.0
  0
LINE
  5
208
330
1F
100
AcDbEntity
  8
0
  6
Continuous
 62
     7
370
    15
100
AcDbLine
 10
812.1421660511
 20
607.3834432665
 30
0.0
 11
823.0166758625
 21
607.3834432665
 31
0.0
  0
LINE
  5
209
330
1F
100
AcDbEntity
  8
0
  6
Continuous
 62
     7
370
    15
100
AcDbLine
 10
823.0166758625
 20
607.3834432665
 30
0.0
 11
823.0166758625
 21
597.3834453527
 31
0.0
  0
LINE
  5
20A
330
1F
100
AcDbEntity
  8
0
  6
Continuous
 62
     7
370
    15
100
AcDbLine
 10
827.205429527
 20
607.3834432665
 30
0.0
 11
827.205429527
 21
597.3834453527
 31
0.0
  0
LINE
  5
20B
330
1F
100
AcDbEntity
  8
0
  6
Continuous
 62
     7
370
    15
100
AcDbLine
 10
823.0166758625
 20
607.3834432665
 30
0.0
 11
827.205429527
 21
607.3834432665
 31
0.0
  0
LINE
  5
20C
330
1F
100
AcDbEntity
  8
0
  6
Continuous
 62
     7
370
    15
100
AcDbLine
 10
824.3309210269
 20
613.38344425
 30
0.0
 11
808.3309184043
 21
613.38344425
 31
0.0
  0
LINE
  5
20D
330
1F
100
AcDbEntity
  8
0
  6
Continuous
 62
     7
370
    15
100
AcDbLine
 10
824.3309210269
 20
612.8834432367
 30
0.0
 11
808.3309184043
 21
612.8834432367
 31
0.0
  0
LINE
  5
20E
330
1F
100
AcDbEntity
  8
0
  6
Continuous
 62
     7
370
    15
100
AcDbLine
 10
1006.3419292895
 20
613.38344425
 30
0.0
 11
990.3419266669
 21
613.38344425
 31
0.0
  0
LINE
  5
20F
330
1F
100
AcDbEntity
  8
0
  6
Continuous
 62
     7
370
    15
100
AcDbLine
 10
1006.3419292895
 20
612.8834432367
 30
0.0
 11
990.3419266669
 21
612.8834432367
 31
0.0
  0
LINE
  5
210
330
1F
100
AcDbEntity
  8
0
  6
Continuous
 62
     7
370
    15
100
AcDbLine
 10
987.8212015359
 20
607.3834432665
 30
0.0
 11
987.8212015359
 21
597.3834453527
 31
0.0
  0
LINE
  5
211
330
1F
100
AcDbEntity
  8
0
  6
Continuous
 62
     7
370
    15
100
AcDbLine
 10
987.8212015359
 20
607.3834432665
 30
0.0
 11
990.3916443912
 21
607.3834432665
 31
0.0
  0
LINE
  5
212
330
1F
100
AcDbEntity
  8
0
  6
Continuous
 62
     7
370
    15
100
AcDbLine
 10
822.830917987
 20
624.8834452037
 30
0.0
 11
809.8309214441
 21
624.8834452037
 31
0.0
  0
LINE
  5
213
330
1F
100
AcDbEntity
  8
0
  6
Continuous
 62
     7
370
    15
100
AcDbLine
 10
1004.8419262497
 20
624.8834452037
 30
0.0
 11
991.8419297067
 21
624.8834452037
 31
0.0
  0
LINE
  5
214
330
1F
100
AcDbEntity
  8
0
  6
Continuous
 62
     7
370
    15
100
AcDbLine
 10
663.0809257953
 20
554.8834439743
 30
0.0
 11
627.2088389127
 21
554.8834439743
 31
0.0
  0
LINE
  5
215
330
1F
100
AcDbEntity
  8
0
  6
Continuous
 62
     7
370
    15
100
AcDbLine
 10
675.0809203116
 20
554.8834439743
 30
0.0
 11
810.3309224574
 21
554.8834439743
 31
0.0
  0
LINE
  5
216
330
1F
100
AcDbEntity
  8
0
  6
Continuous
 62
     7
370
    15
100
AcDbLine
 10
822.3309169738
 20
554.8834439743
 30
0.0
 11
992.34193072
 21
554.8834439743
 31
0.0
  0
LINE
  5
217
330
1F
100
AcDbEntity
  8
0
  6
Continuous
 62
     7
370
    15
100
AcDbLine
 10
1004.3419252364
 20
554.8834439743
 30
0.0
 11
1139.5919273822
 21
554.8834439743
 31
0.0
  0
LINE
  5
218
330
1F
100
AcDbEntity
  8
0
  6
Continuous
 62
     7
370
    15
100
AcDbLine
 10
1151.5919218985
 20
554.8834439743
 30
0.0
 11
1187.4640087811
 21
554.8834439743
 31
0.0
  0
LINE
  5
219
330
1F
100
AcDbEntity
  8
0
  6
Continuous
 62
     7
370
    15
100
AcDbLine
 10
638.3364300458
 20
546.8834435943
 30
0.0
 11
663.0809257953
 21
546.8834435943
 31
0.0
  0
LINE
  5
21A
330
1F
100
AcDbEntity
  8
0
  6
Continuous
 62
     7
370
    15
100
AcDbLine
 10
675.0809203116
 20
546.8834435943
 30
0.0
 11
810.3309224574
 21
546.8834435943
 31
0.0
  0
LINE
  5
21B
330
1F
100
AcDbEntity
  8
0
  6
Continuous
 62
     7
370
    15
100
AcDbLine
 10
822.3309169738
 20
546.8834435943
 30
0.0
 11
992.34193072
 21
546.8834435943
 31
0.0
  0
LINE
  5
21C
330
1F
100
AcDbEntity
  8
0
  6
Continuous
 62
     7
370
    15
100
AcDbLine
 10
1004.3419252364
 20
546.8834435943
 30
0.0
 11
1139.5919273822
 21
546.8834435943
 31
0.0
  0
LINE
  5
21D
330
1F
100
AcDbEntity
  8
0
  6
Continuous
 62
     7
370
    15
100
AcDbLine
 10
1151.5919218985
 20
546.8834435943
 30
0.0
 11
1176.336417648
 21
546.8834435943
 31
0.0
  0
LINE
  5
21E
330
1F
100
AcDbEntity
  8
0
  6
Continuous
 62
     7
370
    15
100
AcDbLine
 10
681.0809175698
 20
597.3834453527
 30
0.0
 11
657.0809285371
 21
597.3834453527
 31
0.0
  0
LINE
  5
21F
330
1F
100
AcDbEntity
  8
0
  6
Continuous
 62
     7
370
    15
100
AcDbLine
 10
1133.591930124
 20
597.3834453527
 30
0.0
 11
1157.5919191567
 21
597.3834453527
 31
0.0
  0
LINE
  5
220
330
1F
100
AcDbEntity
  8
0
  6
Continuous
 62
     7
370
    15
100
AcDbLine
 10
659.7329328982
 20
607.3834432665
 30
0.0
 11
659.7329328982
 21
597.3834453527
 31
0.0
  0
LINE
  5
221
330
1F
100
AcDbEntity
  8
0
  6
Continuous
 62
     7
370
    15
100
AcDbLine
 10
659.7329328982
 20
607.3834432665
 30
0.0
 11
669.3779628007
 21
607.3834432665
 31
0.0
  0
LINE
  5
222
330
1F
100
AcDbEntity
  8
0
  6
Continuous
 62
     7
370
    15
100
AcDbLine
 10
669.3779628007
 20
607.3834432665
 30
0.0
 11
669.3779628007
 21
597.3834453527
 31
0.0
  0
LINE
  5
223
330
1F
100
AcDbEntity
  8
0
  6
Continuous
 62
     7
370
    15
100
AcDbLine
 10
669.3779628007
 20
607.3834432665
 30
0.0
 11
678.7259678571
 21
607.3834432665
 31
0.0
  0
LINE
  5
224
330
1F
100
AcDbEntity
  8
0
  6
Continuous
 62
     7
370
    15
100
AcDbLine
 10
678.7259678571
 20
607.3834432665
 30
0.0
 11
678.7259678571
 21
597.3834453527
 31
0.0
  0
LINE
  5
225
330
1F
100
AcDbEntity
  8
0
  6
Continuous
 62
     7
370
    15
100
AcDbLine
 10
1135.2547805039
 20
607.3834432665
 30
0.0
 11
1135.2547805039
 21
597.3834453527
 31
0.0
  0
LINE
  5
226
330
1F
100
AcDbEntity
  8
0
  6
Continuous
 62
     7
370
    15
100
AcDbLine
 10
1135.2547805039
 20
607.3834432665
 30
0.0
 11
1143.6026047198
 21
607.3834432665
 31
0.0
  0
LINE
  5
227
330
1F
100
AcDbEntity
  8
0
  6
Continuous
 62
     7
370
    15
100
AcDbLine
 10
1143.6026047198
 20
607.3834432665
 30
0.0
 11
1143.6026047198
 21
597.3834453527
 31
0.0
  0
LINE
  5
228
330
1F
100
AcDbEntity
  8
0
  6
Continuous
 62
     7
370
    15
100
AcDbLine
 10
1143.6026047198
 20
607.3834432665
 30
0.0
 11
1153.9397488562
 21
607.3834432665
 31
0.0
  0
LINE
  5
229
330
1F
100
AcDbEntity
  8
0
  6
Continuous
 62
     7
370
    15
100
AcDbLine
 10
1153.9397488562
 20
607.3834432665
 30
0.0
 11
1153.9397488562
 21
597.3834453527
 31
0.0
  0
LINE
  5
22A
330
1F
100
AcDbEntity
  8
0
  6
Continuous
 62
     7
370
    15
100
AcDbLine
 10
677.0809243647
 20
613.38344425
 30
0.0
 11
661.0809217421
 21
613.38344425
 31
0.0
  0
LINE
  5
22B
330
1F
100
AcDbEntity
  8
0
  6
Continuous
 62
     7
370
    15
100
AcDbLine
 10
677.0809243647
 20
612.8834432367
 30
0.0
 11
661.0809217421
 21
612.8834432367
 31
0.0
  0
LINE
  5
22C
330
1F
100
AcDbEntity
  8
0
  6
Continuous
 62
     7
370
    15
100
AcDbLine
 10
1153.5919259517
 20
612.8834432367
 30
0.0
 11
1137.5919233291
 21
612.8834432367
 31
0.0
  0
LINE
  5
22D
330
1F
100
AcDbEntity
  8
0
  6
Continuous
 62
     7
370
    15
100
AcDbLine
 10
1153.5919259517
 20
613.38344425
 30
0.0
 11
1137.5919233291
 21
613.38344425
 31
0.0
  0
LINE
  5
22E
330
1F
100
AcDbEntity
  8
0
  6
Continuous
 62
     7
370
    15
100
AcDbLine
 10
1155.9290687768
 20
607.3834432665
 30
0.0
 11
1155.9290687768
 21
597.3834453527
 31
0.0
  0
LINE
  5
22F
330
1F
100
AcDbEntity
  8
0
  6
Continuous
 62
     7
370
    15
100
AcDbLine
 10
1153.9397488562
 20
607.3834432665
 30
0.0
 11
1155.9290687768
 21
607.3834432665
 31
0.0
  0
LINE
  5
230
330
1F
100
AcDbEntity
  8
0
  6
Continuous
 62
     7
370
    15
100
AcDbLine
 10
675.5809138743
 20
624.8834452037
 30
0.0
 11
662.5809173314
 21
624.8834452037
 31
0.0
  0
LINE
  5
231
330
1F
100
AcDbEntity
  8
0
  6
Continuous
 62
     7
370
    15
100
AcDbLine
 10
1152.0919303624
 20
624.8834452037
 30
0.0
 11
1139.0919338195
 21
624.8834452037
 31
0.0
  0
LINE
  5
232
330
1F
100
AcDbEntity
  8
0
  6
Continuous
 62
     7
370
    15
100
AcDbLine
 10
659.4358782498
 20
607.3834432665
 30
0.0
 11
659.4358782498
 21
597.3834453527
 31
0.0
  0
LINE
  5
233
330
1F
100
AcDbEntity
  8
0
  6
Continuous
 62
     7
370
    15
100
AcDbLine
 10
659.4358782498
 20
607.3834432665
 30
0.0
 11
659.7329328982
 21
607.3834432665
 31
0.0
  0
LINE
  5
234
330
1F
100
AcDbEntity
  8
0
  6
Continuous
 62
     7
370
    15
100
AcDbLine
 10
624.8002748219
 20
597.3834453527
 30
0.0
 11
600.8364360062
 21
597.3834453527
 31
0.0
  0
LINE
  5
235
330
1F
100
AcDbEntity
  8
0
  6
Continuous
 62
     7
370
    15
100
AcDbLine
 10
624.836425039
 20
597.3834453527
 30
0.0
 11
624.8002748219
 21
597.3834453527
 31
0.0
  0
LINE
  5
236
330
1F
100
AcDbEntity
  8
0
  6
Continuous
 62
     7
370
    15
100
AcDbLine
 10
1213.8364116876
 20
597.3834453527
 30
0.0
 11
1189.8364226548
 21
597.3834453527
 31
0.0
  0
LINE
  5
237
330
1F
100
AcDbEntity
  8
0
  6
Continuous
 62
     7
370
    15
100
AcDbLine
 10
617.5679068295
 20
607.3834432665
 30
0.0
 11
617.5679068295
 21
597.3834453527
 31
0.0
  0
LINE
  5
238
330
1F
100
AcDbEntity
  8
0
  6
Continuous
 62
     7
370
    15
100
AcDbLine
 10
617.5679068295
 20
607.3834432665
 30
0.0
 11
623.7730483739
 21
607.3834432665
 31
0.0
  0
LINE
  5
239
330
1F
100
AcDbEntity
  8
0
  6
Continuous
 62
     7
370
    15
100
AcDbLine
 10
623.7730483739
 20
607.3834432665
 30
0.0
 11
623.7730483739
 21
597.3834453527
 31
0.0
  0
LINE
  5
23A
330
1F
100
AcDbEntity
  8
0
  6
Continuous
 62
     7
370
    15
100
AcDbLine
 10
606.6313187806
 20
607.3834432665
 30
0.0
 11
606.6313187806
 21
597.3834453527
 31
0.0
  0
LINE
  5
23B
330
1F
100
AcDbEntity
  8
0
  6
Continuous
 62
     7
370
    15
100
AcDbLine
 10
606.6313187806
 20
607.3834432665
 30
0.0
 11
617.5679068295
 21
607.3834432665
 31
0.0
  0
LINE
  5
23C
330
1F
100
AcDbEntity
  8
0
  6
Continuous
 62
     7
370
    15
100
AcDbLine
 10
1195.6313054292
 20
607.3834432665
 30
0.0
 11
1195.6313054292
 21
597.3834453527
 31
0.0
  0
LINE
  5
23D
330
1F
100
AcDbEntity
  8
0
  6
Continuous
 62
     7
370
    15
100
AcDbLine
 10
1195.6313054292
 20
607.3834432665
 30
0.0
 11
1206.5679232804
 21
607.3834432665
 31
0.0
  0
LINE
  5
23E
330
1F
100
AcDbEntity
  8
0
  6
Continuous
 62
     7
370
    15
100
AcDbLine
 10
1206.5679232804
 20
607.3834432665
 30
0.0
 11
1206.5679232804
 21
597.3834453527
 31
0.0
  0
LINE
  5
23F
330
1F
100
AcDbEntity
  8
0
  6
Continuous
 62
     7
370
    15
100
AcDbLine
 10
1206.5679232804
 20
607.3834432665
 30
0.0
 11
1212.7730350224
 21
607.3834432665
 31
0.0
  0
LINE
  5
240
330
1F
100
AcDbEntity
  8
0
  6
Continuous
 62
     7
370
    15
100
AcDbLine
 10
1212.7730350224
 20
607.3834432665
 30
0.0
 11
1212.7730350224
 21
597.3834453527
 31
0.0
  0
LINE
  5
241
330
1F
100
AcDbEntity
  8
0
  6
Continuous
 62
     7
370
    15
100
AcDbLine
 10
601.8998126714
 20
607.3834432665
 30
0.0
 11
601.8998126714
 21
597.3834453527
 31
0.0
  0
LINE
  5
242
330
1F
100
AcDbEntity
  8
0
  6
Continuous
 62
     7
370
    15
100
AcDbLine
 10
601.8998126714
 20
607.3834432665
 30
0.0
 11
606.6313187806
 21
607.3834432665
 31
0.0
  0
LINE
  5
243
330
1F
100
AcDbEntity
  8
0
  6
Continuous
 62
     7
370
    15
100
AcDbLine
 10
1190.8997993199
 20
607.3834432665
 30
0.0
 11
1190.8997993199
 21
597.3834453527
 31
0.0
  0
LINE
  5
244
330
1F
100
AcDbEntity
  8
0
  6
Continuous
 62
     7
370
    15
100
AcDbLine
 10
1190.8997993199
 20
607.3834432665
 30
0.0
 11
1195.6313054292
 21
607.3834432665
 31
0.0
  0
LINE
  5
245
330
1F
100
AcDbEntity
  8
0
  6
Continuous
 62
     7
370
    15
100
AcDbLine
 10
620.8364169328
 20
613.38344425
 30
0.0
 11
604.8364143102
 21
613.38344425
 31
0.0
  0
LINE
  5
246
330
1F
100
AcDbEntity
  8
0
  6
Continuous
 62
     7
370
    15
100
AcDbLine
 10
620.8364169328
 20
612.8834432367
 30
0.0
 11
604.8364143102
 21
612.8834432367
 31
0.0
  0
LINE
  5
247
330
1F
100
AcDbEntity
  8
0
  6
Continuous
 62
     7
370
    15
100
AcDbLine
 10
1209.8364333836
 20
613.38344425
 30
0.0
 11
1193.836430761
 21
613.38344425
 31
0.0
  0
LINE
  5
248
330
1F
100
AcDbEntity
  8
0
  6
Continuous
 62
     7
370
    15
100
AcDbLine
 10
1209.8364333836
 20
612.8834432367
 30
0.0
 11
1193.836430761
 21
612.8834432367
 31
0.0
  0
LINE
  5
249
330
1F
100
AcDbEntity
  8
0
  6
Continuous
 62
     7
370
    15
100
AcDbLine
 10
619.3364362447
 20
624.8834452037
 30
0.0
 11
606.3364248006
 21
624.8834452037
 31
0.0
  0
LINE
  5
24A
330
1F
100
AcDbEntity
  8
0
  6
Continuous
 62
     7
370
    15
100
AcDbLine
 10
1208.3364228932
 20
624.8834452037
 30
0.0
 11
1195.3364114491
 21
624.8834452037
 31
0.0
  0
LINE
  5
24B
330
1F
100
AcDbEntity
  8
0
  6
Continuous
 62
     7
370
    15
100
AcDbLine
 10
658.743778917
 20
607.3834432665
 30
0.0
 11
658.743778917
 21
597.3834453527
 31
0.0
  0
LINE
  5
24C
330
1F
100
AcDbEntity
  8
0
  6
Continuous
 62
     7
370
    15
100
AcDbLine
 10
658.743778917
 20
607.3834432665
 30
0.0
 11
659.4358782498
 21
607.3834432665
 31
0.0
  0
LINE
  5
24D
330
1F
100
AcDbEntity
  8
0
  6
Continuous
 62
     7
370
    15
100
AcDbLine
 10
679.4180671899
 20
607.3834432665
 30
0.0
 11
679.4180671899
 21
597.3834453527
 31
0.0
  0
LINE
  5
24E
330
1F
100
AcDbEntity
  8
0
  6
Continuous
 62
     7
370
    15
100
AcDbLine
 10
678.7259678571
 20
607.3834432665
 30
0.0
 11
679.4180671899
 21
607.3834432665
 31
0.0
  0
LINE
  5
24F
330
1F
100
AcDbEntity
  8
0
  6
Continuous
 62
     7
370
    15
100
AcDbLine
 10
987.4674181668
 20
607.3834432665
 30
0.0
 11
987.4674181668
 21
597.3834453527
 31
0.0
  0
LINE
  5
250
330
1F
100
AcDbEntity
  8
0
  6
Continuous
 62
     7
370
    15
100
AcDbLine
 10
987.4674181668
 20
607.3834432665
 30
0.0
 11
987.8212015359
 21
607.3834432665
 31
0.0
  0
LINE
  5
251
330
1F
100
AcDbEntity
  8
0
  6
Continuous
 62
     7
370
    15
100
AcDbLine
 10
1009.2164377896
 20
607.3834432665
 30
0.0
 11
1009.2164377896
 21
597.3834453527
 31
0.0
  0
LINE
  5
252
330
1F
100
AcDbEntity
  8
0
  6
Continuous
 62
     7
370
    15
100
AcDbLine
 10
1008.8626618711
 20
607.3834432665
 30
0.0
 11
1009.2164377896
 21
607.3834432665
 31
0.0
  0
LINE
  5
253
330
1F
100
AcDbEntity
  8
0
  6
Continuous
 62
     7
370
     0
100
AcDbLine
 10
602.5749544827
 20
588.6438547078
 30
0.0
 11
1212.0978932111
 21
588.6438547078
 31
0.0
  0
LINE
  5
254
330
1F
100
AcDbEntity
  8
0
  6
Continuous
 62
     7
370
     0
100
AcDbLine
 10
599.8364190785
 20
591.6324353222
 30
0.0
 11
1214.8364286153
 21
591.6324353222
 31
0.0
  0
LINE
  5
255
330
1F
100
AcDbEntity
  8
0
  6
Continuous
 62
     7
370
     0
100
AcDbLine
 10
822.3309169738
 20
587.2215798501
 30
0.0
 11
992.34193072
 21
587.2215798501
 31
0.0
  0
LINE
  5
256
330
1F
100
AcDbEntity
  8
0
  6
Continuous
 62
     7
370
     0
100
AcDbLine
 10
675.0809203116
 20
587.2215798501
 30
0.0
 11
810.3309224574
 21
587.2215798501
 31
0.0
  0
LINE
  5
257
330
1F
100
AcDbEntity
  8
0
  6
Continuous
 62
     7
370
     0
100
AcDbLine
 10
618.8317041127
 20
587.2215798501
 30
0.0
 11
663.0809257953
 21
587.2215798501
 31
0.0
  0
LINE
  5
258
330
1F
100
AcDbEntity
  8
0
  6
Continuous
 62
     7
370
     0
100
AcDbLine
 10
1151.5919218985
 20
587.2215798501
 30
0.0
 11
1195.8411435811
 21
587.2215798501
 31
0.0
  0
LINE
  5
259
330
1F
100
AcDbEntity
  8
0
  6
Continuous
 62
     7
370
     0
100
AcDbLine
 10
1004.3419252364
 20
587.2215798501
 30
0.0
 11
1139.5919273822
 21
587.2215798501
 31
0.0
  0
LINE
  5
25A
330
1F
100
AcDbEntity
  8
0
  6
Continuous
 62
     7
370
     0
100
AcDbLine
 10
623.3889858453
 20
582.5022852424
 30
0.0
 11
663.0809257953
 21
582.5022852424
 31
0.0
  0
LINE
  5
25B
330
1F
100
AcDbEntity
  8
0
  6
Continuous
 62
     7
370
     0
100
AcDbLine
 10
675.0809203116
 20
582.5022852424
 30
0.0
 11
810.3309224574
 21
582.5022852424
 31
0.0
  0
LINE
  5
25C
330
1F
100
AcDbEntity
  8
0
  6
Continuous
 62
     7
370
     0
100
AcDbLine
 10
822.3309169738
 20
582.5022852424
 30
0.0
 11
992.34193072
 21
582.5022852424
 31
0.0
  0
LINE
  5
25D
330
1F
100
AcDbEntity
  8
0
  6
Continuous
 62
     7
370
     0
100
AcDbLine
 10
1004.3419252364
 20
582.5022852424
 30
0.0
 11
1139.5919273822
 21
582.5022852424
 31
0.0
  0
LINE
  5
25E
330
1F
100
AcDbEntity
  8
0
  6
Continuous
 62
     7
370
     0
100
AcDbLine
 10
1151.5919218985
 20
582.5022852424
 30
0.0
 11
1191.2838618485
 21
582.5022852424
 31
0.0
  0
LINE
  5
25F
330
1F
100
AcDbEntity
  8
0
  6
Continuous
 62
     7
370
     0
100
AcDbLine
 10
624.7122685639
 20
557.2526038069
 30
0.0
 11
663.0809257953
 21
557.2526038069
 31
0.0
  0
LINE
  5
260
330
1F
100
AcDbEntity
  8
0
  6
Continuous
 62
     7
370
     0
100
AcDbLine
 10
675.0809203116
 20
557.2526038069
 30
0.0
 11
810.3309224574
 21
557.2526038069
 31
0.0
  0
LINE
  5
261
330
1F
100
AcDbEntity
  8
0
  6
Continuous
 62
     7
370
     0
100
AcDbLine
 10
822.3309169738
 20
557.2526038069
 30
0.0
 11
992.34193072
 21
557.2526038069
 31
0.0
  0
LINE
  5
262
330
1F
100
AcDbEntity
  8
0
  6
Continuous
 62
     7
370
     0
100
AcDbLine
 10
1004.3419252364
 20
557.2526038069
 30
0.0
 11
1139.5919273822
 21
557.2526038069
 31
0.0
  0
LINE
  5
263
330
1F
100
AcDbEntity
  8
0
  6
Continuous
 62
     7
370
     0
100
AcDbLine
 10
1151.5919218985
 20
557.2526038069
 30
0.0
 11
1189.9605791299
 21
557.2526038069
 31
0.0
  0
LINE
  5
264
330
1F
100
AcDbEntity
  8
0
  6
Continuous
 62
     7
370
     0
100
AcDbLine
 10
644.2742745606
 20
553.4191529643
 30
0.0
 11
663.0809257953
 21
553.4191529643
 31
0.0
  0
LINE
  5
265
330
1F
100
AcDbEntity
  8
0
  6
Continuous
 62
     7
370
     0
100
AcDbLine
 10
675.0809203116
 20
553.4191529643
 30
0.0
 11
810.3309224574
 21
553.4191529643
 31
0.0
  0
LINE
  5
266
330
1F
100
AcDbEntity
  8
0
  6
Continuous
 62
     7
370
     0
100
AcDbLine
 10
822.3309169738
 20
553.4191529643
 30
0.0
 11
992.34193072
 21
553.4191529643
 31
0.0
  0
LINE
  5
267
330
1F
100
AcDbEntity
  8
0
  6
Continuous
 62
     7
370
     0
100
AcDbLine
 10
1004.3419252364
 20
553.4191529643
 30
0.0
 11
1139.5919273822
 21
553.4191529643
 31
0.0
  0
LINE
  5
268
330
1F
100
AcDbEntity
  8
0
  6
Continuous
 62
     7
370
     0
100
AcDbLine
 10
1151.5919218985
 20
553.4191529643
 30
0.0
 11
1170.3985731332
 21
553.4191529643
 31
0.0
  0
LINE
  5
269
330
1F
100
AcDbEntity
  8
0
  6
CENTERX2
 62
     7
370
     0
100
AcDbLine
 10
907.3364238469
 20
619.1683374545
 30
0.0
 11
907.3364238469
 21
427.8845161967
 31
0.0
  0
ENDSEC
  0
SECTION
  2
OBJECTS
  0
DICTIONARY
  5
C
330
0
100
AcDbDictionary
281
     1
  3
ACAD_GROUP
350
D
  3
ACAD_LAYOUT
350
1A
  3
ACAD_MLINESTYLE
350
17
  3
ACAD_PLOTSETTINGS
350
19
  3
ACAD_PLOTSTYLENAME
350
E
  0
DICTIONARY
  5
D
102
{ACAD_REACTORS
330
C
102
}
330
C
100
AcDbDictionary
281
     1
  0
DICTIONARY
  5
1A
102
{ACAD_REACTORS
330
C
102
}
330
C
100
AcDbDictionary
281
     1
  3
Layout1
350
1E
  3
Layout2
350
26
  3
Model
350
22
  0
DICTIONARY
  5
17
102
{ACAD_REACTORS
330
C
102
}
330
C
100
AcDbDictionary
281
     1
  3
Standard
350
18
  0
DICTIONARY
  5
19
102
{ACAD_REACTORS
330
C
102
}
330
C
100
AcDbDictionary
281
     1
  0
ACDBDICTIONARYWDFLT
  5
E
102
{ACAD_REACTORS
330
C
102
}
330
C
100
AcDbDictionary
281
     1
  3
Normal
350
F
100
AcDbDictionaryWithDefault
340
F
  0
LAYOUT
  5
1E
102
{ACAD_REACTORS
330
1A
102
}
330
1A
100
AcDbPlotSettings
  1

  2
none_device
  4

  6

 40
0.0
 41
0.0
 42
0.0
 43
0.0
 44
0.0
 45
0.0
 46
0.0
 47
0.0
 48
0.0
 49
0.0
140
0.0
141
0.0
142
1.0
143
1.0
 70
   688
 72
     0
 73
     0
 74
     5
  7

 75
    16
147
1.0
148
0.0
149
0.0
100
AcDbLayout
  1
Layout1
 70
     1
 71
     1
 10
0.0
 20
0.0
 11
420.0
 21
297.0
 12
0.0
 22
0.0
 32
0.0
 14
1.0000000000E+20
 24
1.0000000000E+20
 34
1.0000000000E+20
 15
-1.0000000000E+20
 25
-1.0000000000E+20
 35
-1.0000000000E+20
146
0.0
 13
0.0
 23
0.0
 33
0.0
 16
1.0
 26
0.0
 36
0.0
 17
0.0
 27
1.0
 37
0.0
 76
     0
330
1B
  0
LAYOUT
  5
26
102
{ACAD_REACTORS
330
1A
102
}
330
1A
100
AcDbPlotSettings
  1

  2
none_device
  4

  6

 40
0.0
 41
0.0
 42
0.0
 43
0.0
 44
0.0
 45
0.0
 46
0.0
 47
0.0
 48
0.0
 49
0.0
140
0.0
141
0.0
142
1.0
143
1.0
 70
   688
 72
     0
 73
     0
 74
     5
  7

 75
    16
147
1.0
148
0.0
149
0.0
100
AcDbLayout
  1
Layout2
 70
     1
 71
     2
 10
0.0
 20
0.0
 11
0.0
 21
0.0
 12
0.0
 22
0.0
 32
0.0
 14
0.0
 24
0.0
 34
0.0
 15
0.0
 25
0.0
 35
0.0
146
0.0
 13
0.0
 23
0.0
 33
0.0
 16
1.0
 26
0.0
 36
0.0
 17
0.0
 27
1.0
 37
0.0
 76
     0
330
23
  0
LAYOUT
  5
22
102
{ACAD_REACTORS
330
1A
102
}
330
1A
100
AcDbPlotSettings
  1

  2
none_device
  4

  6

 40
0.0
 41
0.0
 42
0.0
 43
0.0
 44
0.0
 45
0.0
 46
0.0
 47
0.0
 48
0.0
 49
0.0
140
0.0
141
0.0
142
1.0
143
1.0
 70
  1712
 72
     0
 73
     0
 74
     0
  7

 75
     0
147
1.0
148
0.0
149
0.0
100
AcDbLayout
  1
Model
 70
     1
 71
     0
 10
0.0
 20
0.0
 11
431.8
 21
279.4
 12
0.0
 22
0.0
 32
0.0
 14
0.0
 24
0.0
 34
0.0
 15
431.8
 25
279.4
 35
0.0
146
0.0
 13
0.0
 23
0.0
 33
0.0
 16
1.0
 26
0.0
 36
0.0
 17
0.0
 27
1.0
 37
0.0
 76
     0
330
1F
331
29
  0
MLINESTYLE
  5
18
102
{ACAD_REACTORS
330
17
102
}
330
17
100
AcDbMlineStyle
  2
Standard
 70
     0
  3

 62
   256
 51
90.0
 52
90.0
 71
     2
 49
0.5
 62
   256
  6
BYLAYER
 49
-0.5
 62
   256
  6
BYLAYER
  0
ACDBPLACEHOLDER
  5
F
102
{ACAD_REACTORS
330
E
102
}
330
E
  0
ENDSEC
  0
EOF
