  0
SECTION
  2
HEADER
  9
$ACADVER
  1
AC1015
  9
$ACADMAINTVER
 70
     6
  9
$DWGCODEPAGE
  3
ANSI_1252
  9
$INSBASE
 10
0.0
 20
0.0
 30
0.0
  9
$EXTMIN
 10
0.0
 20
0.0
 30
0.0
  9
$EXTMAX
 10
841.0
 20
594.0
 30
0.0
  9
$LIMMIN
 10
0.0
 20
0.0
  9
$LIMMAX
 10
841.0
 20
594.0
  9
$ORTHOMODE
 70
     0
  9
$REGENMODE
 70
     1
  9
$FILLMODE
 70
     1
  9
$QTEXTMODE
 70
     0
  9
$MIRRTEXT
 70
     1
  9
$LTSCALE
 40
1.0
  9
$ATTMODE
 70
     1
  9
$TEXTSIZE
 40
2.5
  9
$TRACEWID
 40
1.0
  9
$TEXTSTYLE
  7
Standard
  9
$CLAYER
  8
0
  9
$CELTYPE
  6
ByLayer
  9
$CECOLOR
 62
   256
  9
$CELTSCALE
 40
1.0
  9
$DISPSILH
 70
     0
  9
$DIMSCALE
 40
1.0
  9
$DIMASZ
 40
2.5
  9
$DIMEXO
 40
1.0
  9
$DIMDLI
 40
3.75
  9
$DIMRND
 40
0.0
  9
$DIMDLE
 40
0.0
  9
$DIMEXE
 40
1.0
  9
$DIMTP
 40
0.0
  9
$DIMTM
 40
0.0
  9
$DIMTXT
 40
2.5
  9
$DIMCEN
 40
2.5
  9
$DIMTSZ
 40
0.0
  9
$DIMTOL
 70
     0
  9
$DIMLIM
 70
     0
  9
$DIMTIH
 70
     1
  9
$DIMTOH
 70
     1
  9
$DIMSE1
 70
     0
  9
$DIMSE2
 70
     0
  9
$DIMTAD
 70
     1
  9
$DIMZIN
 70
     0
  9
$DIMBLK
  1

  9
$DIMASO
 70
     1
  9
$DIMSHO
 70
     1
  9
$DIMPOST
  1

  9
$DIMAPOST
  1

  9
$DIMALT
 70
     0
  9
$DIMALTD
 70
     3
  9
$DIMALTF
 40
0.0393700787
  9
$DIMLFAC
 40
1.0
  9
$DIMTOFL
 70
     1
  9
$DIMTVP
 40
0.0
  9
$DIMTIX
 70
     0
  9
$DIMSOXD
 70
     0
  9
$DIMSAH
 70
     0
  9
$DIMBLK1
  1

  9
$DIMBLK2
  1

  9
$DIMSTYLE
  2
ISO-25
  9
$DIMCLRD
 70
     0
  9
$DIMCLRE
 70
     0
  9
$DIMCLRT
 70
     0
  9
$DIMTFAC
 40
1.0
  9
$DIMGAP
 40
1.524
  9
$DIMJUST
 70
     0
  9
$DIMSD1
 70
     0
  9
$DIMSD2
 70
     0
  9
$DIMTOLJ
 70
     0
  9
$DIMTZIN
 70
     0
  9
$DIMALTZ
 70
     0
  9
$DIMALTTZ
 70
     0
  9
$DIMUPT
 70
     0
  9
$DIMDEC
 70
     2
  9
$DIMTDEC
 70
     2
  9
$DIMALTU
 70
     2
  9
$DIMALTTD
 70
     3
  9
$DIMTXSTY
  7
Standard
  9
$DIMAUNIT
 70
     0
  9
$DIMADEC
 70
     2
  9
$DIMALTRND
 40
0.0
  9
$DIMAZIN
 70
     0
  9
$DIMDSEP
 70
    44
  9
$DIMATFIT
 70
     3
  9
$DIMFRAC
 70
     0
  9
$DIMLDRBLK
  1

  9
$DIMLUNIT
 70
     2
  9
$DIMLWD
 70
    -2
  9
$DIMLWE
 70
    -2
  9
$DIMTMOVE
 70
     0
  9
$LUNITS
 70
     2
  9
$LUPREC
 70
     2
  9
$SKETCHINC
 40
1.0
  9
$FILLETRAD
 40
10.0
  9
$AUNITS
 70
     0
  9
$AUPREC
 70
     2
  9
$MENU
  1
.
  9
$ELEVATION
 40
0.0
  9
$PELEVATION
 40
0.0
  9
$THICKNESS
 40
0.0
  9
$LIMCHECK
 70
     0
  9
$CHAMFERA
 40
10.0
  9
$CHAMFERB
 40
10.0
  9
$CHAMFERC
 40
20.0
  9
$CHAMFERD
 40
0.0
  9
$SKPOLY
 70
     0
  9
$TDCREATE
 40
2457189.576432708
  9
$TDUCREATE
 40
2457189.243099375
  9
$TDUPDATE
 40
2457189.576433611
  9
$TDUUPDATE
 40
2457189.243100278
  9
$TDINDWG
 40
0.0000000116
  9
$TDUSRTIMER
 40
0.0000000116
  9
$USRTIMER
 70
     1
  9
$ANGBASE
 50
0.0
  9
$ANGDIR
 70
     0
  9
$PDMODE
 70
     0
  9
$PDSIZE
 40
-1.0
  9
$PLINEWID
 40
0.0
  9
$SPLFRAME
 70
     0
  9
$SPLINETYPE
 70
     6
  9
$SPLINESEGS
 70
     8
  9
$HANDSEED
  5
36A
  9
$SURFTAB1
 70
     6
  9
$SURFTAB2
 70
     6
  9
$SURFTYPE
 70
     6
  9
$SURFU
 70
     6
  9
$SURFV
 70
     6
  9
$UCSBASE
  2

  9
$UCSNAME
  2

  9
$UCSORG
 10
0.0
 20
0.0
 30
0.0
  9
$UCSXDIR
 10
1.0
 20
0.0
 30
0.0
  9
$UCSYDIR
 10
0.0
 20
1.0
 30
0.0
  9
$UCSORTHOREF
  2

  9
$UCSORTHOVIEW
 70
     0
  9
$UCSORGTOP
 10
0.0
 20
0.0
 30
0.0
  9
$UCSORGBOTTOM
 10
0.0
 20
0.0
 30
0.0
  9
$UCSORGLEFT
 10
0.0
 20
0.0
 30
0.0
  9
$UCSORGRIGHT
 10
0.0
 20
0.0
 30
0.0
  9
$UCSORGFRONT
 10
0.0
 20
0.0
 30
0.0
  9
$UCSORGBACK
 10
0.0
 20
0.0
 30
0.0
  9
$PUCSBASE
  2

  9
$PUCSNAME
  2

  9
$PUCSORG
 10
0.0
 20
0.0
 30
0.0
  9
$PUCSXDIR
 10
1.0
 20
0.0
 30
0.0
  9
$PUCSYDIR
 10
0.0
 20
1.0
 30
0.0
  9
$PUCSORTHOREF
  2

  9
$PUCSORTHOVIEW
 70
     0
  9
$PUCSORGTOP
 10
0.0
 20
0.0
 30
0.0
  9
$PUCSORGBOTTOM
 10
0.0
 20
0.0
 30
0.0
  9
$PUCSORGLEFT
 10
0.0
 20
0.0
 30
0.0
  9
$PUCSORGRIGHT
 10
0.0
 20
0.0
 30
0.0
  9
$PUCSORGFRONT
 10
0.0
 20
0.0
 30
0.0
  9
$PUCSORGBACK
 10
0.0
 20
0.0
 30
0.0
  9
$USERI1
 70
     0
  9
$USERI2
 70
     0
  9
$USERI3
 70
     0
  9
$USERI4
 70
     0
  9
$USERI5
 70
     0
  9
$USERR1
 40
0.0
  9
$USERR2
 40
0.0
  9
$USERR3
 40
0.0
  9
$USERR4
 40
0.0
  9
$USERR5
 40
0.0
  9
$WORLDVIEW
 70
     1
  9
$SHADEDGE
 70
     3
  9
$SHADEDIF
 70
    70
  9
$TILEMODE
 70
     1
  9
$MAXACTVP
 70
    64
  9
$PINSBASE
 10
0.0
 20
0.0
 30
0.0
  9
$PLIMCHECK
 70
     0
  9
$PEXTMIN
 10
1.0000000000E+20
 20
1.0000000000E+20
 30
1.0000000000E+20
  9
$PEXTMAX
 10
-1.0000000000E+20
 20
-1.0000000000E+20
 30
-1.0000000000E+20
  9
$PLIMMIN
 10
0.0
 20
0.0
  9
$PLIMMAX
 10
420.0
 20
297.0
  9
$UNITMODE
 70
     0
  9
$VISRETAIN
 70
     1
  9
$PLINEGEN
 70
     0
  9
$PSLTSCALE
 70
     1
  9
$TREEDEPTH
 70
  3020
  9
$CMLSTYLE
  2
Standard
  9
$CMLJUST
 70
     0
  9
$CMLSCALE
 40
20.0
  9
$PROXYGRAPHICS
 70
     1
  9
$MEASUREMENT
 70
     1
  9
$CELWEIGHT
370
    -1
  9
$ENDCAPS
280
     0
  9
$JOINSTYLE
280
     0
  9
$LWDISPLAY
290
     1
  9
$INSUNITS
 70
     4
  9
$HYPERLINKBASE
  1

  9
$STYLESHEET
  1

  9
$XEDIT
290
     1
  9
$CEPSNTYPE
380
     0
  9
$PSTYLEMODE
290
     1
  9
$FINGERPRINTGUID
  2
{99FB4F41-98C0-41AE-8C36-CFC2AEB21186}
  9
$VERSIONGUID
  2
{FAEB1C32-E019-11D5-929B-00C0DF256EC4}
  9
$EXTNAMES
290
     1
  9
$PSVPSCALE
 40
0.0
  9
$OLESTARTUP
290
     0
  0
ENDSEC
  0
SECTION
  2
CLASSES
  0
CLASS
  1
ACDBDICTIONARYWDFLT
  2
AcDbDictionaryWithDefault
  3
ObjectDBX Classes
 90
        0
280
     0
281
     0
  0
CLASS
  1
VISUALSTYLE
  2
AcDbVisualStyle
  3
ObjectDBX Classes
 90
     4095
280
     0
281
     0
  0
CLASS
  1
MATERIAL
  2
AcDbMaterial
  3
ObjectDBX Classes
 90
     1153
280
     0
281
     0
  0
CLASS
  1
ACDBPLACEHOLDER
  2
AcDbPlaceHolder
  3
ObjectDBX Classes
 90
        0
280
     0
281
     0
  0
CLASS
  1
LAYOUT
  2
AcDbLayout
  3
ObjectDBX Classes
 90
        0
280
     0
281
     0
  0
ENDSEC
  0
SECTION
  2
TABLES
  0
TABLE
  2
VPORT
  5
8
330
0
100
AcDbSymbolTable
 70
     1
  0
VPORT
  5
29
330
8
100
AcDbSymbolTableRecord
100
AcDbViewportTableRecord
  2
*Active
 70
     0
 10
0.0
 20
0.0
 11
1.0
 21
1.0
 12
420.5
 22
297.0
 13
0.0
 23
0.0
 14
10.0
 24
10.0
 15
10.0
 25
10.0
 16
0.0
 26
0.0
 36
1.0
 17
0.0
 27
0.0
 37
0.0
 40
594.0
 41
1.4158249158
 42
50.0
 43
0.0
 44
0.0
 50
0.0
 51
0.0
 71
     0
 72
  2000
 73
     1
 74
     3
 75
     0
 76
     0
 77
     0
 78
     0
281
     0
 65
     1
110
0.0
120
0.0
130
0.0
111
1.0
121
0.0
131
0.0
112
0.0
122
1.0
132
0.0
 79
     0
146
0.0
  0
ENDTAB
  0
TABLE
  2
LTYPE
  5
5
330
0
100
AcDbSymbolTable
 70
     6
  0
LTYPE
  5
14
330
5
100
AcDbSymbolTableRecord
100
AcDbLinetypeTableRecord
  2
ByBlock
 70
     0
  3

 72
    65
 73
     0
 40
0.0
  0
LTYPE
  5
15
330
5
100
AcDbSymbolTableRecord
100
AcDbLinetypeTableRecord
  2
ByLayer
 70
     0
  3

 72
    65
 73
     0
 40
0.0
  0
LTYPE
  5
16
330
5
100
AcDbSymbolTableRecord
100
AcDbLinetypeTableRecord
  2
Continuous
 70
     0
  3
Solid line
 72
    65
 73
     0
 40
0.0
  0
LTYPE
  5
3F
330
5
100
AcDbSymbolTableRecord
100
AcDbLinetypeTableRecord
  2
HIDDEN
 70
     0
  3
Hidden __ __ __ __ __ __ __ __ __ __ __ __ __ __
 72
    65
 73
     2
 40
1.905
 49
1.27
 74
     0
 49
-0.635
 74
     0
  0
LTYPE
  5
40
330
5
100
AcDbSymbolTableRecord
100
AcDbLinetypeTableRecord
  2
PHANTOM
 70
     0
  3
Phantom ______  __  __  ______  __  __  ______
 72
    65
 73
     6
 40
12.7
 49
6.35
 74
     0
 49
-1.27
 74
     0
 49
1.27
 74
     0
 49
-1.27
 74
     0
 49
1.27
 74
     0
 49
-1.27
 74
     0
  0
LTYPE
  5
41
330
5
100
AcDbSymbolTableRecord
100
AcDbLinetypeTableRecord
  2
CENTER
 70
     0
  3
Center ____ _ ____ _ ____ _ ____ _ ____ _ ____
 72
    65
 73
     4
 40
10.16
 49
6.35
 74
     0
 49
-1.27
 74
     0
 49
1.27
 74
     0
 49
-1.27
 74
     0
  0
LTYPE
  5
42
330
5
100
AcDbSymbolTableRecord
100
AcDbLinetypeTableRecord
  2
CENTERX2
 70
     0
  3
Center (2x) ________  __  ________  __  _____
 72
    65
 73
     4
 40
20.32
 49
12.7
 74
     0
 49
-2.54
 74
     0
 49
2.54
 74
     0
 49
-2.54
 74
     0
  0
LTYPE
  5
43
330
5
100
AcDbSymbolTableRecord
100
AcDbLinetypeTableRecord
  2
DOT2
 70
     0
  3
Dot (.5x) ........................................
 72
    65
 73
     2
 40
0.635
 49
0.0
 74
     0
 49
-0.635
 74
     0
  0
ENDTAB
  0
TABLE
  2
LAYER
  5
2
330
0
100
AcDbSymbolTable
 70
     3
  0
LAYER
  5
10
330
2
100
AcDbSymbolTableRecord
100
AcDbLayerTableRecord
  2
0
 70
     0
 62
     7
  6
Continuous
370
    -3
390
F
  0
LAYER
  5
44
330
2
100
AcDbSymbolTableRecord
100
AcDbLayerTableRecord
  2
FORMAT
 70
     0
 62
     7
  6
Continuous
370
    -3
390
F
  0
LAYER
  5
45
330
2
100
AcDbSymbolTableRecord
100
AcDbLayerTableRecord
  2
PROTOTYPE
 70
     0
 62
     7
  6
Continuous
370
    -3
390
F
  0
ENDTAB
  0
TABLE
  2
STYLE
  5
3
330
0
100
AcDbSymbolTable
 70
     1
  0
STYLE
  5
11
330
3
100
AcDbSymbolTableRecord
100
AcDbTextStyleTableRecord
  2
Standard
 70
     0
 40
0.0
 41
1.0
 50
0.0
 71
     0
 42
2.5
  3
txt
  4

  0
ENDTAB
  0
TABLE
  2
VIEW
  5
6
330
0
100
AcDbSymbolTable
 70
     0
  0
ENDTAB
  0
TABLE
  2
UCS
  5
7
330
0
100
AcDbSymbolTable
 70
     0
  0
ENDTAB
  0
TABLE
  2
APPID
  5
9
330
0
100
AcDbSymbolTable
 70
     1
  0
APPID
  5
12
330
9
100
AcDbSymbolTableRecord
100
AcDbRegAppTableRecord
  2
ACAD
 70
     0
  0
ENDTAB
  0
TABLE
  2
DIMSTYLE
  5
A
330
0
100
AcDbSymbolTable
 70
     1
100
AcDbDimStyleTable
  0
DIMSTYLE
105
27
330
A
100
AcDbSymbolTableRecord
100
AcDbDimStyleTableRecord
  2
ISO-25
 70
     0
 41
2.5
 42
0.625
 43
3.75
 44
1.25
 73
     0
 74
     0
 77
     1
 78
     8
140
2.5
141
2.5
143
0.0393700787
147
0.625
171
     3
172
     1
178
     0
271
     2
272
     2
274
     3
278
    44
283
     0
284
     8
340
11
  0
ENDTAB
  0
TABLE
  2
BLOCK_RECORD
  5
1
330
0
100
AcDbSymbolTable
 70
     2
  0
BLOCK_RECORD
  5
1F
330
1
100
AcDbSymbolTableRecord
100
AcDbBlockTableRecord
  2
*Model_Space
340
22
  0
BLOCK_RECORD
  5
1B
330
1
100
AcDbSymbolTableRecord
100
AcDbBlockTableRecord
  2
*Paper_Space
340
1E
  0
BLOCK_RECORD
  5
23
330
1
100
AcDbSymbolTableRecord
100
AcDbBlockTableRecord
  2
*Paper_Space0
340
26
  0
BLOCK_RECORD
  5
9C
330
1
100
AcDbSymbolTableRecord
100
AcDbBlockTableRecord
  2
SW_CENTERMARKSYMBOL_0
340
0
102
{BLKREFS
331
16B
102
}
  0
ENDTAB
  0
ENDSEC
  0
SECTION
  2
BLOCKS
  0
BLOCK
  5
20
330
1F
100
AcDbEntity
  8
0
100
AcDbBlockBegin
  2
*Model_Space
 70
     0
 10
0.0
 20
0.0
 30
0.0
  3
*Model_Space
  1

  0
ENDBLK
  5
21
330
1F
100
AcDbEntity
  8
0
100
AcDbBlockEnd
  0
BLOCK
  5
1C
330
1B
100
AcDbEntity
 67
     1
  8
0
100
AcDbBlockBegin
  2
*Paper_Space
 70
     0
 10
0.0
 20
0.0
 30
0.0
  3
*Paper_Space
  1

  0
ENDBLK
  5
1D
330
1B
100
AcDbEntity
 67
     1
  8
0
100
AcDbBlockEnd
  0
BLOCK
  5
24
330
23
100
AcDbEntity
  8
0
100
AcDbBlockBegin
  2
*Paper_Space0
 70
     0
 10
0.0
 20
0.0
 30
0.0
  3
*Paper_Space0
  1

  0
ENDBLK
  5
25
330
23
100
AcDbEntity
  8
0
100
AcDbBlockEnd
  0
BLOCK
  5
9D
330
9C
100
AcDbEntity
  8
0
100
AcDbBlockBegin
  2
SW_CENTERMARKSYMBOL_0
 70
     0
 10
0.0
 20
0.0
 30
0.0
  3
SW_CENTERMARKSYMBOL_0
  1

  0
ARC
  5
9F
330
9C
100
AcDbEntity
  8
FORMAT
 62
     0
100
AcDbCircle
 10
-58.8138689961
 20
-521.6952451515
 30
0.0
 40
525.0000000000031
100
AcDbArc
 50
83.5678571429
 51
83.8406941882
  0
ARC
  5
A0
330
9C
100
AcDbEntity
  8
FORMAT
 62
     0
100
AcDbCircle
 10
-58.8138689961
 20
-521.6952451515
 30
0.0
 40
525.0000000000031
100
AcDbArc
 50
83.2950200976
 51
83.5678571429
  0
ARC
  5
A1
330
9C
100
AcDbEntity
  8
FORMAT
 62
     0
100
AcDbCircle
 10
-58.8138689961
 20
-521.6952451515
 30
0.0
 40
525.0000000000031
100
AcDbArc
 50
70.7107142857
 51
70.983551331
  0
ARC
  5
A2
330
9C
100
AcDbEntity
  8
FORMAT
 62
     0
100
AcDbCircle
 10
-58.8138689961
 20
-521.6952451515
 30
0.0
 40
525.0000000000031
100
AcDbArc
 50
70.4378772404
 51
70.7107142857
  0
ARC
  5
A3
330
9C
100
AcDbEntity
  8
FORMAT
 62
     0
100
AcDbCircle
 10
-58.8138689961
 20
-521.6952451515
 30
0.0
 40
525.0000000000031
100
AcDbArc
 50
57.8535714286
 51
58.1264084739
  0
ARC
  5
A4
330
9C
100
AcDbEntity
  8
FORMAT
 62
     0
100
AcDbCircle
 10
-58.8138689961
 20
-521.6952451515
 30
0.0
 40
525.0000000000031
100
AcDbArc
 50
57.5807343833
 51
57.8535714286
  0
ARC
  5
A5
330
9C
100
AcDbEntity
  8
FORMAT
 62
     0
100
AcDbCircle
 10
-58.8138689961
 20
-521.6952451515
 30
0.0
 40
525.000000000003
100
AcDbArc
 50
44.9964285714
 51
45.2692656167
  0
ARC
  5
A6
330
9C
100
AcDbEntity
  8
FORMAT
 62
     0
100
AcDbCircle
 10
-58.8138689961
 20
-521.6952451515
 30
0.0
 40
525.000000000003
100
AcDbArc
 50
44.7235915261
 51
44.9964285714
  0
ARC
  5
A7
330
9C
100
AcDbEntity
  8
FORMAT
 62
     0
100
AcDbCircle
 10
-58.8138689961
 20
-521.6952451515
 30
0.0
 40
525.0000000000027
100
AcDbArc
 50
32.1392857143
 51
32.4121227596
  0
ARC
  5
A8
330
9C
100
AcDbEntity
  8
FORMAT
 62
     0
100
AcDbCircle
 10
-58.8138689961
 20
-521.6952451515
 30
0.0
 40
525.0000000000027
100
AcDbArc
 50
31.866448669
 51
32.1392857143
  0
ARC
  5
A9
330
9C
100
AcDbEntity
  8
FORMAT
 62
     0
100
AcDbCircle
 10
-58.8138689961
 20
-521.6952451515
 30
0.0
 40
525.0000000000024
100
AcDbArc
 50
19.2821428571
 51
19.5549799024
  0
ARC
  5
AA
330
9C
100
AcDbEntity
  8
FORMAT
 62
     0
100
AcDbCircle
 10
-58.8138689961
 20
-521.6952451515
 30
0.0
 40
525.0000000000024
100
AcDbArc
 50
19.0093058118
 51
19.2821428571
  0
ARC
  5
AB
330
9C
100
AcDbEntity
  8
FORMAT
 62
     0
100
AcDbCircle
 10
-58.8138689961
 20
-521.6952451515
 30
0.0
 40
525.0000000000023
100
AcDbArc
 50
6.425
 51
6.6978370453
  0
ARC
  5
AC
330
9C
100
AcDbEntity
  8
FORMAT
 62
     0
100
AcDbCircle
 10
-58.8138689961
 20
-521.6952451515
 30
0.0
 40
525.0000000000023
100
AcDbArc
 50
6.1521629547
 51
6.425
  0
ARC
  5
AD
330
9C
100
AcDbEntity
  8
FORMAT
 62
     0
100
AcDbCircle
 10
-58.8138689961
 20
-521.6952451515
 30
0.0
 40
525.000000000002
100
AcDbArc
 50
353.5678571429
 51
353.8406941882
  0
ARC
  5
AE
330
9C
100
AcDbEntity
  8
FORMAT
 62
     0
100
AcDbCircle
 10
-58.8138689961
 20
-521.6952451515
 30
0.0
 40
525.000000000002
100
AcDbArc
 50
353.2950200976
 51
353.5678571429
  0
ARC
  5
AF
330
9C
100
AcDbEntity
  8
FORMAT
 62
     0
100
AcDbCircle
 10
-58.8138689961
 20
-521.6952451515
 30
0.0
 40
525.0000000000015
100
AcDbArc
 50
340.7107142857
 51
340.983551331
  0
ARC
  5
B0
330
9C
100
AcDbEntity
  8
FORMAT
 62
     0
100
AcDbCircle
 10
-58.8138689961
 20
-521.6952451515
 30
0.0
 40
525.0000000000015
100
AcDbArc
 50
340.4378772404
 51
340.7107142857
  0
ARC
  5
B1
330
9C
100
AcDbEntity
  8
FORMAT
 62
     0
100
AcDbCircle
 10
-58.8138689961
 20
-521.6952451515
 30
0.0
 40
525.0000000000011
100
AcDbArc
 50
327.8535714286
 51
328.1264084739
  0
ARC
  5
B2
330
9C
100
AcDbEntity
  8
FORMAT
 62
     0
100
AcDbCircle
 10
-58.8138689961
 20
-521.6952451515
 30
0.0
 40
525.0000000000011
100
AcDbArc
 50
327.5807343833
 51
327.8535714286
  0
ARC
  5
B3
330
9C
100
AcDbEntity
  8
FORMAT
 62
     0
100
AcDbCircle
 10
-58.8138689961
 20
-521.6952451515
 30
0.0
 40
525.0000000000008
100
AcDbArc
 50
314.9964285714
 51
315.2692656167
  0
ARC
  5
B4
330
9C
100
AcDbEntity
  8
FORMAT
 62
     0
100
AcDbCircle
 10
-58.8138689961
 20
-521.6952451515
 30
0.0
 40
525.0000000000009
100
AcDbArc
 50
314.7235915261
 51
314.9964285714
  0
ARC
  5
B5
330
9C
100
AcDbEntity
  8
FORMAT
 62
     0
100
AcDbCircle
 10
-58.8138689961
 20
-521.6952451515
 30
0.0
 40
525.0000000000005
100
AcDbArc
 50
302.1392857143
 51
302.4121227596
  0
ARC
  5
B6
330
9C
100
AcDbEntity
  8
FORMAT
 62
     0
100
AcDbCircle
 10
-58.8138689961
 20
-521.6952451515
 30
0.0
 40
525.0000000000006
100
AcDbArc
 50
301.866448669
 51
302.1392857143
  0
ARC
  5
B7
330
9C
100
AcDbEntity
  8
FORMAT
 62
     0
100
AcDbCircle
 10
-58.8138689961
 20
-521.6952451515
 30
0.0
 40
525.0000000000002
100
AcDbArc
 50
289.2821428571
 51
289.5549799024
  0
ARC
  5
B8
330
9C
100
AcDbEntity
  8
FORMAT
 62
     0
100
AcDbCircle
 10
-58.8138689961
 20
-521.6952451515
 30
0.0
 40
525.0000000000003
100
AcDbArc
 50
289.0093058118
 51
289.2821428571
  0
ARC
  5
B9
330
9C
100
AcDbEntity
  8
FORMAT
 62
     0
100
AcDbCircle
 10
-58.8138689961
 20
-521.6952451515
 30
0.0
 40
525.0000000000001
100
AcDbArc
 50
276.425
 51
276.6978370453
  0
ARC
  5
BA
330
9C
100
AcDbEntity
  8
FORMAT
 62
     0
100
AcDbCircle
 10
-58.8138689961
 20
-521.6952451515
 30
0.0
 40
525.0000000000001
100
AcDbArc
 50
276.1521629547
 51
276.425
  0
ARC
  5
BB
330
9C
100
AcDbEntity
  8
FORMAT
 62
     0
100
AcDbCircle
 10
-58.8138689961
 20
-521.6952451515
 30
0.0
 40
525.0
100
AcDbArc
 50
263.5678571429
 51
263.8406941882
  0
ARC
  5
BC
330
9C
100
AcDbEntity
  8
FORMAT
 62
     0
100
AcDbCircle
 10
-58.8138689961
 20
-521.6952451515
 30
0.0
 40
525.0
100
AcDbArc
 50
263.2950200976
 51
263.5678571429
  0
ARC
  5
BD
330
9C
100
AcDbEntity
  8
FORMAT
 62
     0
100
AcDbCircle
 10
-58.8138689961
 20
-521.6952451515
 30
0.0
 40
525.0
100
AcDbArc
 50
250.7107142857
 51
250.983551331
  0
ARC
  5
BE
330
9C
100
AcDbEntity
  8
FORMAT
 62
     0
100
AcDbCircle
 10
-58.8138689961
 20
-521.6952451515
 30
0.0
 40
525.0
100
AcDbArc
 50
250.4378772404
 51
250.7107142857
  0
ARC
  5
BF
330
9C
100
AcDbEntity
  8
FORMAT
 62
     0
100
AcDbCircle
 10
-58.8138689961
 20
-521.6952451515
 30
0.0
 40
524.9999999999999
100
AcDbArc
 50
237.8535714286
 51
238.1264084739
  0
ARC
  5
C0
330
9C
100
AcDbEntity
  8
FORMAT
 62
     0
100
AcDbCircle
 10
-58.8138689961
 20
-521.6952451515
 30
0.0
 40
524.9999999999999
100
AcDbArc
 50
237.5807343833
 51
237.8535714286
  0
ARC
  5
C1
330
9C
100
AcDbEntity
  8
FORMAT
 62
     0
100
AcDbCircle
 10
-58.8138689961
 20
-521.6952451515
 30
0.0
 40
525.0
100
AcDbArc
 50
224.9964285714
 51
225.2692656167
  0
ARC
  5
C2
330
9C
100
AcDbEntity
  8
FORMAT
 62
     0
100
AcDbCircle
 10
-58.8138689961
 20
-521.6952451515
 30
0.0
 40
525.0
100
AcDbArc
 50
224.7235915261
 51
224.9964285714
  0
ARC
  5
C3
330
9C
100
AcDbEntity
  8
FORMAT
 62
     0
100
AcDbCircle
 10
-58.8138689961
 20
-521.6952451515
 30
0.0
 40
525.0000000000002
100
AcDbArc
 50
212.1392857143
 51
212.4121227596
  0
ARC
  5
C4
330
9C
100
AcDbEntity
  8
FORMAT
 62
     0
100
AcDbCircle
 10
-58.8138689961
 20
-521.6952451515
 30
0.0
 40
525.0000000000002
100
AcDbArc
 50
211.866448669
 51
212.1392857143
  0
ARC
  5
C5
330
9C
100
AcDbEntity
  8
FORMAT
 62
     0
100
AcDbCircle
 10
-58.8138689961
 20
-521.6952451515
 30
0.0
 40
525.0000000000006
100
AcDbArc
 50
199.2821428571
 51
199.5549799024
  0
ARC
  5
C6
330
9C
100
AcDbEntity
  8
FORMAT
 62
     0
100
AcDbCircle
 10
-58.8138689961
 20
-521.6952451515
 30
0.0
 40
525.0000000000007
100
AcDbArc
 50
199.0093058118
 51
199.2821428571
  0
ARC
  5
C7
330
9C
100
AcDbEntity
  8
FORMAT
 62
     0
100
AcDbCircle
 10
-58.8138689961
 20
-521.6952451515
 30
0.0
 40
525.0000000000008
100
AcDbArc
 50
186.425
 51
186.6978370453
  0
ARC
  5
C8
330
9C
100
AcDbEntity
  8
FORMAT
 62
     0
100
AcDbCircle
 10
-58.8138689961
 20
-521.6952451515
 30
0.0
 40
525.0000000000009
100
AcDbArc
 50
186.1521629547
 51
186.425
  0
ARC
  5
C9
330
9C
100
AcDbEntity
  8
FORMAT
 62
     0
100
AcDbCircle
 10
-58.8138689961
 20
-521.6952451515
 30
0.0
 40
525.0000000000013
100
AcDbArc
 50
173.5678571429
 51
173.8406941882
  0
ARC
  5
CA
330
9C
100
AcDbEntity
  8
FORMAT
 62
     0
100
AcDbCircle
 10
-58.8138689961
 20
-521.6952451515
 30
0.0
 40
525.0000000000011
100
AcDbArc
 50
173.2950200976
 51
173.5678571429
  0
ARC
  5
CB
330
9C
100
AcDbEntity
  8
FORMAT
 62
     0
100
AcDbCircle
 10
-58.8138689961
 20
-521.6952451515
 30
0.0
 40
525.0000000000016
100
AcDbArc
 50
160.7107142857
 51
160.983551331
  0
ARC
  5
CC
330
9C
100
AcDbEntity
  8
FORMAT
 62
     0
100
AcDbCircle
 10
-58.8138689961
 20
-521.6952451515
 30
0.0
 40
525.0000000000016
100
AcDbArc
 50
160.4378772404
 51
160.7107142857
  0
ARC
  5
CD
330
9C
100
AcDbEntity
  8
FORMAT
 62
     0
100
AcDbCircle
 10
-58.8138689961
 20
-521.6952451515
 30
0.0
 40
525.0000000000018
100
AcDbArc
 50
147.8535714286
 51
148.1264084739
  0
ARC
  5
CE
330
9C
100
AcDbEntity
  8
FORMAT
 62
     0
100
AcDbCircle
 10
-58.8138689961
 20
-521.6952451515
 30
0.0
 40
525.0000000000018
100
AcDbArc
 50
147.5807343833
 51
147.8535714286
  0
ARC
  5
CF
330
9C
100
AcDbEntity
  8
FORMAT
 62
     0
100
AcDbCircle
 10
-58.8138689961
 20
-521.6952451515
 30
0.0
 40
525.0000000000023
100
AcDbArc
 50
134.9964285714
 51
135.2692656167
  0
ARC
  5
D0
330
9C
100
AcDbEntity
  8
FORMAT
 62
     0
100
AcDbCircle
 10
-58.8138689961
 20
-521.6952451515
 30
0.0
 40
525.0000000000023
100
AcDbArc
 50
134.7235915261
 51
134.9964285714
  0
ARC
  5
D1
330
9C
100
AcDbEntity
  8
FORMAT
 62
     0
100
AcDbCircle
 10
-58.8138689961
 20
-521.6952451515
 30
0.0
 40
525.0000000000024
100
AcDbArc
 50
122.1392857143
 51
122.4121227596
  0
ARC
  5
D2
330
9C
100
AcDbEntity
  8
FORMAT
 62
     0
100
AcDbCircle
 10
-58.8138689961
 20
-521.6952451515
 30
0.0
 40
525.0000000000024
100
AcDbArc
 50
121.866448669
 51
122.1392857143
  0
ARC
  5
D3
330
9C
100
AcDbEntity
  8
FORMAT
 62
     0
100
AcDbCircle
 10
-58.8138689961
 20
-521.6952451515
 30
0.0
 40
525.0000000000028
100
AcDbArc
 50
109.2821428571
 51
109.5549799024
  0
ARC
  5
D4
330
9C
100
AcDbEntity
  8
FORMAT
 62
     0
100
AcDbCircle
 10
-58.8138689961
 20
-521.6952451515
 30
0.0
 40
525.0000000000027
100
AcDbArc
 50
109.0093058118
 51
109.2821428571
  0
ARC
  5
D5
330
9C
100
AcDbEntity
  8
FORMAT
 62
     0
100
AcDbCircle
 10
-58.8138689961
 20
-521.6952451515
 30
0.0
 40
525.000000000003
100
AcDbArc
 50
96.425
 51
96.6978370453
  0
ARC
  5
D6
330
9C
100
AcDbEntity
  8
FORMAT
 62
     0
100
AcDbCircle
 10
-58.8138689961
 20
-521.6952451515
 30
0.0
 40
525.0000000000031
100
AcDbArc
 50
96.1521629547
 51
96.425
  0
ARC
  5
D7
330
9C
100
AcDbEntity
  8
FORMAT
 62
     0
100
AcDbCircle
 10
-58.8138689961
 20
-521.6952451515
 30
0.0
 40
525.0000000000031
100
AcDbArc
 50
58.3992455192
 51
70.1650401951
  0
ARC
  5
D8
330
9C
100
AcDbEntity
  8
FORMAT
 62
     0
100
AcDbCircle
 10
-58.8138689961
 20
-521.6952451515
 30
0.0
 40
525.0000000000032
100
AcDbArc
 50
71.2563883763
 51
83.0221830523
  0
ARC
  5
D9
330
9C
100
AcDbEntity
  8
FORMAT
 62
     0
100
AcDbCircle
 10
-58.8138689961
 20
-521.6952451515
 30
0.0
 40
525.0000000000031
100
AcDbArc
 50
45.542102662
 51
57.307897338
  0
ARC
  5
DA
330
9C
100
AcDbEntity
  8
FORMAT
 62
     0
100
AcDbCircle
 10
-58.8138689961
 20
-521.6952451515
 30
0.0
 40
525.000000000003
100
AcDbArc
 50
32.6849598049
 51
44.4507544808
  0
ARC
  5
DB
330
9C
100
AcDbEntity
  8
FORMAT
 62
     0
100
AcDbCircle
 10
-58.8138689961
 20
-521.6952451515
 30
0.0
 40
525.0000000000027
100
AcDbArc
 50
19.8278169477
 51
31.5936116237
  0
ARC
  5
DC
330
9C
100
AcDbEntity
  8
FORMAT
 62
     0
100
AcDbCircle
 10
-58.8138689961
 20
-521.6952451515
 30
0.0
 40
525.0000000000024
100
AcDbArc
 50
6.9706740906
 51
18.7364687665
  0
ARC
  5
DD
330
9C
100
AcDbEntity
  8
FORMAT
 62
     0
100
AcDbCircle
 10
-58.8138689961
 20
-521.6952451515
 30
0.0
 40
525.0000000000023
100
AcDbArc
 50
354.1135312335
 51
5.8793259094
  0
ARC
  5
DE
330
9C
100
AcDbEntity
  8
FORMAT
 62
     0
100
AcDbCircle
 10
-58.8138689961
 20
-521.6952451515
 30
0.0
 40
525.0000000000019
100
AcDbArc
 50
341.2563883763
 51
353.0221830523
  0
ARC
  5
DF
330
9C
100
AcDbEntity
  8
FORMAT
 62
     0
100
AcDbCircle
 10
-58.8138689961
 20
-521.6952451515
 30
0.0
 40
525.0000000000015
100
AcDbArc
 50
328.3992455192
 51
340.1650401951
  0
ARC
  5
E0
330
9C
100
AcDbEntity
  8
FORMAT
 62
     0
100
AcDbCircle
 10
-58.8138689961
 20
-521.6952451515
 30
0.0
 40
525.0000000000011
100
AcDbArc
 50
315.542102662
 51
327.307897338
  0
ARC
  5
E1
330
9C
100
AcDbEntity
  8
FORMAT
 62
     0
100
AcDbCircle
 10
-58.8138689961
 20
-521.6952451515
 30
0.0
 40
525.0000000000007
100
AcDbArc
 50
302.6849598049
 51
314.4507544808
  0
ARC
  5
E2
330
9C
100
AcDbEntity
  8
FORMAT
 62
     0
100
AcDbCircle
 10
-58.8138689961
 20
-521.6952451515
 30
0.0
 40
525.0000000000005
100
AcDbArc
 50
289.8278169477
 51
301.5936116237
  0
ARC
  5
E3
330
9C
100
AcDbEntity
  8
FORMAT
 62
     0
100
AcDbCircle
 10
-58.8138689961
 20
-521.6952451515
 30
0.0
 40
525.0000000000002
100
AcDbArc
 50
276.9706740906
 51
288.7364687665
  0
ARC
  5
E4
330
9C
100
AcDbEntity
  8
FORMAT
 62
     0
100
AcDbCircle
 10
-58.8138689961
 20
-521.6952451515
 30
0.0
 40
525.0000000000002
100
AcDbArc
 50
264.1135312335
 51
275.8793259094
  0
ARC
  5
E5
330
9C
100
AcDbEntity
  8
FORMAT
 62
     0
100
AcDbCircle
 10
-58.8138689961
 20
-521.6952451515
 30
0.0
 40
525.0000000000002
100
AcDbArc
 50
251.2563883763
 51
263.0221830523
  0
ARC
  5
E6
330
9C
100
AcDbEntity
  8
FORMAT
 62
     0
100
AcDbCircle
 10
-58.8138689961
 20
-521.6952451515
 30
0.0
 40
524.9999999999999
100
AcDbArc
 50
238.3992455192
 51
250.1650401951
  0
ARC
  5
E7
330
9C
100
AcDbEntity
  8
FORMAT
 62
     0
100
AcDbCircle
 10
-58.8138689961
 20
-521.6952451515
 30
0.0
 40
525.0
100
AcDbArc
 50
225.542102662
 51
237.307897338
  0
ARC
  5
E8
330
9C
100
AcDbEntity
  8
FORMAT
 62
     0
100
AcDbCircle
 10
-58.8138689961
 20
-521.6952451515
 30
0.0
 40
525.0000000000002
100
AcDbArc
 50
212.6849598049
 51
224.4507544808
  0
ARC
  5
E9
330
9C
100
AcDbEntity
  8
FORMAT
 62
     0
100
AcDbCircle
 10
-58.8138689961
 20
-521.6952451515
 30
0.0
 40
525.0000000000006
100
AcDbArc
 50
199.8278169477
 51
211.5936116237
  0
ARC
  5
EA
330
9C
100
AcDbEntity
  8
FORMAT
 62
     0
100
AcDbCircle
 10
-58.8138689961
 20
-521.6952451515
 30
0.0
 40
525.0000000000009
100
AcDbArc
 50
186.9706740906
 51
198.7364687665
  0
ARC
  5
EB
330
9C
100
AcDbEntity
  8
FORMAT
 62
     0
100
AcDbCircle
 10
-58.8138689961
 20
-521.6952451515
 30
0.0
 40
525.0000000000011
100
AcDbArc
 50
174.1135312335
 51
185.8793259094
  0
ARC
  5
EC
330
9C
100
AcDbEntity
  8
FORMAT
 62
     0
100
AcDbCircle
 10
-58.8138689961
 20
-521.6952451515
 30
0.0
 40
525.0000000000015
100
AcDbArc
 50
161.2563883763
 51
173.0221830523
  0
ARC
  5
ED
330
9C
100
AcDbEntity
  8
FORMAT
 62
     0
100
AcDbCircle
 10
-58.8138689961
 20
-521.6952451515
 30
0.0
 40
525.0000000000018
100
AcDbArc
 50
148.3992455192
 51
160.1650401951
  0
ARC
  5
EE
330
9C
100
AcDbEntity
  8
FORMAT
 62
     0
100
AcDbCircle
 10
-58.8138689961
 20
-521.6952451515
 30
0.0
 40
525.0000000000023
100
AcDbArc
 50
135.542102662
 51
147.307897338
  0
ARC
  5
EF
330
9C
100
AcDbEntity
  8
FORMAT
 62
     0
100
AcDbCircle
 10
-58.8138689961
 20
-521.6952451515
 30
0.0
 40
525.0000000000024
100
AcDbArc
 50
122.6849598049
 51
134.4507544808
  0
ARC
  5
F0
330
9C
100
AcDbEntity
  8
FORMAT
 62
     0
100
AcDbCircle
 10
-58.8138689961
 20
-521.6952451515
 30
0.0
 40
525.0000000000026
100
AcDbArc
 50
109.8278169477
 51
121.5936116237
  0
ARC
  5
F1
330
9C
100
AcDbEntity
  8
FORMAT
 62
     0
100
AcDbCircle
 10
-58.8138689961
 20
-521.6952451515
 30
0.0
 40
525.0000000000031
100
AcDbArc
 50
84.1135312335
 51
95.8793259094
  0
ARC
  5
F2
330
9C
100
AcDbEntity
  8
FORMAT
 62
     0
100
AcDbCircle
 10
-58.8138689961
 20
-521.6952451515
 30
0.0
 40
525.0000000000031
100
AcDbArc
 50
96.9706740906
 51
108.7364687665
  0
LINE
  5
F3
330
9C
100
AcDbEntity
  8
FORMAT
 62
     0
100
AcDbLine
 10
0.0
 20
0.0
 30
0.0
 11
0.2800660428
 21
2.4842630722
 31
0.0
  0
LINE
  5
F4
330
9C
100
AcDbEntity
  8
FORMAT
 62
     0
100
AcDbLine
 10
0.0
 20
0.0
 30
0.0
 11
-0.2800660428
 21
-2.4842630722
 31
0.0
  0
LINE
  5
F5
330
9C
100
AcDbEntity
  8
FORMAT
 62
     0
100
AcDbLine
 10
0.5601320857
 20
4.9685261443
 30
0.0
 11
2.5205943855
 21
22.3583676494
 31
0.0
  0
LINE
  5
F6
330
9C
100
AcDbEntity
  8
FORMAT
 62
     0
100
AcDbLine
 10
-0.5601320857
 20
-4.9685261443
 30
0.0
 11
-2.5205943855
 21
-22.3583676494
 31
0.0
  0
LINE
  5
F7
330
9C
100
AcDbEntity
  8
FORMAT
 62
     0
100
AcDbLine
 10
114.6135267033
 20
-26.1673060594
 30
0.0
 11
115.4393714447
 21
-23.8076492065
 31
0.0
  0
LINE
  5
F8
330
9C
100
AcDbEntity
  8
FORMAT
 62
     0
100
AcDbLine
 10
114.6135267033
 20
-26.1673060594
 30
0.0
 11
113.7876819619
 21
-28.5269629122
 31
0.0
  0
LINE
  5
F9
330
9C
100
AcDbEntity
  8
FORMAT
 62
     0
100
AcDbLine
 10
116.2652161861
 20
-21.4479923537
 30
0.0
 11
122.0461293761
 21
-4.930394384
 31
0.0
  0
LINE
  5
FA
330
9C
100
AcDbEntity
  8
FORMAT
 62
     0
100
AcDbLine
 10
112.9618372204
 20
-30.886619765
 30
0.0
 11
107.1809240305
 21
-47.4042177347
 31
0.0
  0
LINE
  5
FB
330
9C
100
AcDbEntity
  8
FORMAT
 62
     0
100
AcDbLine
 10
220.5306796165
 20
-77.1824521293
 30
0.0
 11
221.8608917527
 21
-75.0657245434
 31
0.0
  0
LINE
  5
FC
330
9C
100
AcDbEntity
  8
FORMAT
 62
     0
100
AcDbLine
 10
220.5306796165
 20
-77.1824521293
 30
0.0
 11
219.2004674802
 21
-79.2991797151
 31
0.0
  0
LINE
  5
FD
330
9C
100
AcDbEntity
  8
FORMAT
 62
     0
100
AcDbLine
 10
223.191103889
 20
-72.9489969576
 30
0.0
 11
232.5025888427
 21
-58.1319038569
 31
0.0
  0
LINE
  5
FE
330
9C
100
AcDbEntity
  8
FORMAT
 62
     0
100
AcDbLine
 10
217.870255344
 20
-81.4159073009
 30
0.0
 11
208.5587703902
 21
-96.2330004016
 31
0.0
  0
LINE
  5
FF
330
9C
100
AcDbEntity
  8
FORMAT
 62
     0
100
AcDbLine
 10
-58.8138689961
 20
-521.6952451515
 30
0.0
 11
-58.8138689961
 21
-519.1952451515
 31
0.0
  0
LINE
  5
100
330
9C
100
AcDbEntity
  8
FORMAT
 62
     0
100
AcDbLine
 10
-58.8138689961
 20
-521.6952451515
 30
0.0
 11
-61.3138689961
 21
-521.6952451515
 31
0.0
  0
LINE
  5
101
330
9C
100
AcDbEntity
  8
FORMAT
 62
     0
100
AcDbLine
 10
-58.8138689961
 20
-521.6952451515
 30
0.0
 11
-58.8138689961
 21
-524.1952451515
 31
0.0
  0
LINE
  5
102
330
9C
100
AcDbEntity
  8
FORMAT
 62
     0
100
AcDbLine
 10
-58.8138689961
 20
-521.6952451515
 30
0.0
 11
-56.3138689961
 21
-521.6952451515
 31
0.0
  0
LINE
  5
103
330
9C
100
AcDbEntity
  8
FORMAT
 62
     0
100
AcDbLine
 10
-58.8138689961
 20
-516.6952451515
 30
0.0
 11
-58.8138689961
 21
57.5392681142
 31
0.0
  0
LINE
  5
104
330
9C
100
AcDbEntity
  8
FORMAT
 62
     0
100
AcDbLine
 10
-63.8138689961
 20
-521.6952451515
 30
0.0
 11
-634.1239884102
 21
-521.6952451515
 31
0.0
  0
LINE
  5
105
330
9C
100
AcDbEntity
  8
FORMAT
 62
     0
100
AcDbLine
 10
-58.8138689961
 20
-526.6952451515
 30
0.0
 11
-58.8138689961
 21
-1097.645707438
 31
0.0
  0
LINE
  5
106
330
9C
100
AcDbEntity
  8
FORMAT
 62
     0
100
AcDbLine
 10
-53.8138689961
 20
-521.6952451515
 30
0.0
 11
517.1451058689
 21
-521.6952451515
 31
0.0
  0
LINE
  5
107
330
9C
100
AcDbEntity
  8
FORMAT
 62
     0
100
AcDbLine
 10
312.440330421
 20
-150.4873257651
 30
0.0
 11
314.2082075611
 21
-148.7196690061
 31
0.0
  0
LINE
  5
108
330
9C
100
AcDbEntity
  8
FORMAT
 62
     0
100
AcDbLine
 10
312.440330421
 20
-150.4873257651
 30
0.0
 11
310.6724532809
 21
-152.2549825241
 31
0.0
  0
LINE
  5
109
330
9C
100
AcDbEntity
  8
FORMAT
 62
     0
100
AcDbLine
 10
315.9760847011
 20
-146.9520122471
 30
0.0
 11
328.3512246817
 21
-134.5784149342
 31
0.0
  0
LINE
  5
10A
330
9C
100
AcDbEntity
  8
FORMAT
 62
     0
100
AcDbLine
 10
308.9045761408
 20
-154.022639283
 30
0.0
 11
296.5294361603
 21
-166.3962365959
 31
0.0
  0
LINE
  5
10B
330
9C
100
AcDbEntity
  8
FORMAT
 62
     0
100
AcDbLine
 10
385.7337454442
 20
-242.4061145082
 30
0.0
 11
387.8506388463
 21
-241.0761662671
 31
0.0
  0
LINE
  5
10C
330
9C
100
AcDbEntity
  8
FORMAT
 62
     0
100
AcDbLine
 10
385.7337454442
 20
-242.4061145082
 30
0.0
 11
383.6168520421
 21
-243.7360627494
 31
0.0
  0
LINE
  5
10D
330
9C
100
AcDbEntity
  8
FORMAT
 62
     0
100
AcDbLine
 10
389.9675322484
 20
-239.7462180259
 30
0.0
 11
404.7857860631
 21
-230.4365803378
 31
0.0
  0
LINE
  5
10E
330
9C
100
AcDbEntity
  8
FORMAT
 62
     0
100
AcDbLine
 10
381.49995864
 20
-245.0660109905
 30
0.0
 11
366.6817048253
 21
-254.3756486787
 31
0.0
  0
LINE
  5
10F
330
9C
100
AcDbEntity
  8
FORMAT
 62
     0
100
AcDbLine
 10
436.7356868102
 20
-348.3296264717
 30
0.0
 11
439.0954465997
 21
-347.5040759065
 31
0.0
  0
LINE
  5
110
330
9C
100
AcDbEntity
  8
FORMAT
 62
     0
100
AcDbLine
 10
436.7356868102
 20
-348.3296264717
 30
0.0
 11
434.3759270206
 21
-349.1551770368
 31
0.0
  0
LINE
  5
111
330
9C
100
AcDbEntity
  8
FORMAT
 62
     0
100
AcDbLine
 10
441.4552063893
 20
-346.6785253414
 30
0.0
 11
457.9735249162
 21
-340.8996713854
 31
0.0
  0
LINE
  5
112
330
9C
100
AcDbEntity
  8
FORMAT
 62
     0
100
AcDbLine
 10
432.0161672311
 20
-349.980727602
 30
0.0
 11
415.4978487042
 21
-355.7595815579
 31
0.0
  0
LINE
  5
113
330
9C
100
AcDbEntity
  8
FORMAT
 62
     0
100
AcDbLine
 10
462.8887042133
 20
-462.9464144675
 30
0.0
 11
465.373002181
 21
-462.6666581309
 31
0.0
  0
LINE
  5
114
330
9C
100
AcDbEntity
  8
FORMAT
 62
     0
100
AcDbLine
 10
462.8887042133
 20
-462.9464144675
 30
0.0
 11
460.4044062456
 21
-463.2261708041
 31
0.0
  0
LINE
  5
115
330
9C
100
AcDbEntity
  8
FORMAT
 62
     0
100
AcDbLine
 10
467.8573001486
 20
-462.3869017943
 30
0.0
 11
485.2473859223
 21
-460.4286074382
 31
0.0
  0
LINE
  5
116
330
9C
100
AcDbEntity
  8
FORMAT
 62
     0
100
AcDbLine
 10
457.920108278
 20
-463.5059271407
 30
0.0
 11
440.5300225043
 21
-465.4642214968
 31
0.0
  0
LINE
  5
117
330
9C
100
AcDbEntity
  8
FORMAT
 62
     0
100
AcDbLine
 10
462.8813761555
 20
-580.5091141476
 30
0.0
 11
465.3656392276
 21
-580.7891801904
 31
0.0
  0
LINE
  5
118
330
9C
100
AcDbEntity
  8
FORMAT
 62
     0
100
AcDbLine
 10
462.8813761555
 20
-580.5091141476
 30
0.0
 11
460.3971130833
 21
-580.2290481047
 31
0.0
  0
LINE
  5
119
330
9C
100
AcDbEntity
  8
FORMAT
 62
     0
100
AcDbLine
 10
467.8499022998
 20
-581.0692462333
 30
0.0
 11
485.2397438048
 21
-583.0297085331
 31
0.0
  0
LINE
  5
11A
330
9C
100
AcDbEntity
  8
FORMAT
 62
     0
100
AcDbLine
 10
457.9128500112
 20
-579.9489820619
 30
0.0
 11
440.5230085061
 21
-577.988519762
 31
0.0
  0
LINE
  5
11B
330
9C
100
AcDbEntity
  8
FORMAT
 62
     0
100
AcDbLine
 10
436.7140700961
 20
-695.1226408509
 30
0.0
 11
439.0737269489
 21
-695.9484855923
 31
0.0
  0
LINE
  5
11C
330
9C
100
AcDbEntity
  8
FORMAT
 62
     0
100
AcDbLine
 10
436.7140700961
 20
-695.1226408509
 30
0.0
 11
434.3544132433
 21
-694.2967961095
 31
0.0
  0
LINE
  5
11D
330
9C
100
AcDbEntity
  8
FORMAT
 62
     0
100
AcDbLine
 10
441.4333838018
 20
-696.7743303337
 30
0.0
 11
457.9509817715
 21
-702.5552435237
 31
0.0
  0
LINE
  5
11E
330
9C
100
AcDbEntity
  8
FORMAT
 62
     0
100
AcDbLine
 10
431.9947563905
 20
-693.470951368
 30
0.0
 11
415.4771584207
 21
-687.690038178
 31
0.0
  0
LINE
  5
11F
330
9C
100
AcDbEntity
  8
FORMAT
 62
     0
100
AcDbLine
 10
385.6989240262
 20
-801.0397937641
 30
0.0
 11
387.815651612
 21
-802.3700059003
 31
0.0
  0
LINE
  5
120
330
9C
100
AcDbEntity
  8
FORMAT
 62
     0
100
AcDbLine
 10
385.6989240262
 20
-801.0397937641
 30
0.0
 11
383.5821964404
 21
-799.7095816278
 31
0.0
  0
LINE
  5
121
330
9C
100
AcDbEntity
  8
FORMAT
 62
     0
100
AcDbLine
 10
389.9323791979
 20
-803.7002180366
 30
0.0
 11
404.7494722986
 21
-813.0117029903
 31
0.0
  0
LINE
  5
122
330
9C
100
AcDbEntity
  8
FORMAT
 62
     0
100
AcDbLine
 10
381.4654688546
 20
-798.3793694916
 30
0.0
 11
366.6483757538
 21
-789.0678845378
 31
0.0
  0
LINE
  5
123
330
9C
100
AcDbEntity
  8
FORMAT
 62
     0
100
AcDbLine
 10
312.3940503904
 20
-892.9494445686
 30
0.0
 11
314.1617071494
 21
-894.7173217086
 31
0.0
  0
LINE
  5
124
330
9C
100
AcDbEntity
  8
FORMAT
 62
     0
100
AcDbLine
 10
312.3940503904
 20
-892.9494445686
 30
0.0
 11
310.6263936314
 21
-891.1815674285
 31
0.0
  0
LINE
  5
125
330
9C
100
AcDbEntity
  8
FORMAT
 62
     0
100
AcDbLine
 10
315.9293639084
 20
-896.4851988487
 30
0.0
 11
328.3029612212
 21
-908.8603388293
 31
0.0
  0
LINE
  5
126
330
9C
100
AcDbEntity
  8
FORMAT
 62
     0
100
AcDbLine
 10
308.8587368724
 20
-889.4136902884
 30
0.0
 11
296.4851395595
 21
-877.0385503078
 31
0.0
  0
LINE
  5
127
330
9C
100
AcDbEntity
  8
FORMAT
 62
     0
100
AcDbLine
 10
220.4752616473
 20
-966.2428595918
 30
0.0
 11
221.8052098884
 21
-968.3597529939
 31
0.0
  0
LINE
  5
128
330
9C
100
AcDbEntity
  8
FORMAT
 62
     0
100
AcDbLine
 10
220.4752616473
 20
-966.2428595918
 30
0.0
 11
219.1453134061
 21
-964.1259661897
 31
0.0
  0
LINE
  5
129
330
9C
100
AcDbEntity
  8
FORMAT
 62
     0
100
AcDbLine
 10
223.1351581296
 20
-970.476646396
 30
0.0
 11
232.4447958177
 21
-985.2949002106
 31
0.0
  0
LINE
  5
12A
330
9C
100
AcDbEntity
  8
FORMAT
 62
     0
100
AcDbLine
 10
217.8153651649
 20
-962.0090727876
 30
0.0
 11
208.5057274768
 21
-947.1908189729
 31
0.0
  0
LINE
  5
12B
330
9C
100
AcDbEntity
  8
FORMAT
 62
     0
100
AcDbLine
 10
114.5517496838
 20
-1017.2448009578
 30
0.0
 11
115.377300249
 21
-1019.6045607473
 31
0.0
  0
LINE
  5
12C
330
9C
100
AcDbEntity
  8
FORMAT
 62
     0
100
AcDbLine
 10
114.5517496838
 20
-1017.2448009578
 30
0.0
 11
113.7261991187
 21
-1014.8850411682
 31
0.0
  0
LINE
  5
12D
330
9C
100
AcDbEntity
  8
FORMAT
 62
     0
100
AcDbLine
 10
116.2028508141
 20
-1021.9643205369
 30
0.0
 11
121.9817047701
 21
-1038.4826390637
 31
0.0
  0
LINE
  5
12E
330
9C
100
AcDbEntity
  8
FORMAT
 62
     0
100
AcDbLine
 10
112.9006485535
 20
-1012.5252813787
 30
0.0
 11
107.1217945975
 21
-996.0069628518
 31
0.0
  0
LINE
  5
12F
330
9C
100
AcDbEntity
  8
FORMAT
 62
     0
100
AcDbLine
 10
-0.065038312
 20
-1043.3978183609
 30
0.0
 11
0.2147180246
 21
-1045.8821163285
 31
0.0
  0
LINE
  5
130
330
9C
100
AcDbEntity
  8
FORMAT
 62
     0
100
AcDbLine
 10
-0.065038312
 20
-1043.3978183609
 30
0.0
 11
-0.3447946486
 21
-1040.9135203932
 31
0.0
  0
LINE
  5
131
330
9C
100
AcDbEntity
  8
FORMAT
 62
     0
100
AcDbLine
 10
0.4944743612
 20
-1048.3664142962
 30
0.0
 11
2.4527687173
 21
-1065.7565000699
 31
0.0
  0
LINE
  5
132
330
9C
100
AcDbEntity
  8
FORMAT
 62
     0
100
AcDbLine
 10
-0.6245509852
 20
-1038.4292224256
 30
0.0
 11
-2.5828453413
 21
-1021.0391366519
 31
0.0
  0
LINE
  5
133
330
9C
100
AcDbEntity
  8
FORMAT
 62
     0
100
AcDbLine
 10
-117.6277379921
 20
-1043.3904903031
 30
0.0
 11
-117.9078040349
 21
-1045.8747533752
 31
0.0
  0
LINE
  5
134
330
9C
100
AcDbEntity
  8
FORMAT
 62
     0
100
AcDbLine
 10
-117.6277379921
 20
-1043.3904903031
 30
0.0
 11
-117.3476719493
 21
-1040.9062272309
 31
0.0
  0
LINE
  5
135
330
9C
100
AcDbEntity
  8
FORMAT
 62
     0
100
AcDbLine
 10
-118.1878700778
 20
-1048.3590164474
 30
0.0
 11
-120.1483323777
 21
-1065.7488579524
 31
0.0
  0
LINE
  5
136
330
9C
100
AcDbEntity
  8
FORMAT
 62
     0
100
AcDbLine
 10
-117.0676059064
 20
-1038.4219641588
 30
0.0
 11
-115.1071436066
 21
-1021.0321226537
 31
0.0
  0
LINE
  5
137
330
9C
100
AcDbEntity
  8
FORMAT
 62
     0
100
AcDbLine
 10
-232.2412646954
 20
-1017.2231842437
 30
0.0
 11
-233.0671094368
 21
-1019.5828410965
 31
0.0
  0
LINE
  5
138
330
9C
100
AcDbEntity
  8
FORMAT
 62
     0
100
AcDbLine
 10
-232.2412646954
 20
-1017.2231842437
 30
0.0
 11
-231.415419954
 21
-1014.8635273909
 31
0.0
  0
LINE
  5
139
330
9C
100
AcDbEntity
  8
FORMAT
 62
     0
100
AcDbLine
 10
-233.8929541782
 20
-1021.9424979494
 30
0.0
 11
-239.6738673682
 21
-1038.4600959191
 31
0.0
  0
LINE
  5
13A
330
9C
100
AcDbEntity
  8
FORMAT
 62
     0
100
AcDbLine
 10
-230.5895752125
 20
-1012.5038705381
 30
0.0
 11
-224.8086620226
 21
-995.9862725683
 31
0.0
  0
LINE
  5
13B
330
9C
100
AcDbEntity
  8
FORMAT
 62
     0
100
AcDbLine
 10
-338.1584176086
 20
-966.2080381738
 30
0.0
 11
-339.4886297448
 21
-968.3247657596
 31
0.0
  0
LINE
  5
13C
330
9C
100
AcDbEntity
  8
FORMAT
 62
     0
100
AcDbLine
 10
-338.1584176086
 20
-966.2080381738
 30
0.0
 11
-336.8282054723
 21
-964.091310588
 31
0.0
  0
LINE
  5
13D
330
9C
100
AcDbEntity
  8
FORMAT
 62
     0
100
AcDbLine
 10
-340.8188418811
 20
-970.4414933454
 30
0.0
 11
-350.1303268348
 21
-985.2585864462
 31
0.0
  0
LINE
  5
13E
330
9C
100
AcDbEntity
  8
FORMAT
 62
     0
100
AcDbLine
 10
-335.4979933361
 20
-961.9745830022
 30
0.0
 11
-326.1865083823
 21
-947.1574899014
 31
0.0
  0
LINE
  5
13F
330
9C
100
AcDbEntity
  8
FORMAT
 62
     0
100
AcDbLine
 10
-430.0680684131
 20
-892.903164538
 30
0.0
 11
-431.8359455532
 21
-894.670821297
 31
0.0
  0
LINE
  5
140
330
9C
100
AcDbEntity
  8
FORMAT
 62
     0
100
AcDbLine
 10
-430.0680684131
 20
-892.903164538
 30
0.0
 11
-428.300191273
 21
-891.135507779
 31
0.0
  0
LINE
  5
141
330
9C
100
AcDbEntity
  8
FORMAT
 62
     0
100
AcDbLine
 10
-433.6038226933
 20
-896.4384780559
 30
0.0
 11
-445.9789626738
 21
-908.8120753688
 31
0.0
  0
LINE
  5
142
330
9C
100
AcDbEntity
  8
FORMAT
 62
     0
100
AcDbLine
 10
-426.5323141329
 20
-889.36785102
 30
0.0
 11
-414.1571741524
 21
-876.9942537071
 31
0.0
  0
LINE
  5
143
330
9C
100
AcDbEntity
  8
FORMAT
 62
     0
100
AcDbLine
 10
-503.3614834363
 20
-800.9843757948
 30
0.0
 11
-505.4783768384
 21
-802.314324036
 31
0.0
  0
LINE
  5
144
330
9C
100
AcDbEntity
  8
FORMAT
 62
     0
100
AcDbLine
 10
-503.3614834363
 20
-800.9843757948
 30
0.0
 11
-501.2445900342
 21
-799.6544275537
 31
0.0
  0
LINE
  5
145
330
9C
100
AcDbEntity
  8
FORMAT
 62
     0
100
AcDbLine
 10
-507.5952702405
 20
-803.6442722772
 30
0.0
 11
-522.4135240552
 21
-812.9539099653
 31
0.0
  0
LINE
  5
146
330
9C
100
AcDbEntity
  8
FORMAT
 62
     0
100
AcDbLine
 10
-499.1276966321
 20
-798.3244793125
 30
0.0
 11
-484.3094428174
 21
-789.0148416244
 31
0.0
  0
LINE
  5
147
330
9C
100
AcDbEntity
  8
FORMAT
 62
     0
100
AcDbLine
 10
-554.3634248023
 20
-695.0608638314
 30
0.0
 11
-556.7231845918
 21
-695.8864143965
 31
0.0
  0
LINE
  5
148
330
9C
100
AcDbEntity
  8
FORMAT
 62
     0
100
AcDbLine
 10
-554.3634248023
 20
-695.0608638314
 30
0.0
 11
-552.0036650127
 21
-694.2353132663
 31
0.0
  0
LINE
  5
149
330
9C
100
AcDbEntity
  8
FORMAT
 62
     0
100
AcDbLine
 10
-559.0829443814
 20
-696.7119649617
 30
0.0
 11
-575.6012629083
 21
-702.4908189177
 31
0.0
  0
LINE
  5
14A
330
9C
100
AcDbEntity
  8
FORMAT
 62
     0
100
AcDbLine
 10
-549.6439052232
 20
-693.4097627011
 30
0.0
 11
-533.1255866963
 21
-687.6309087451
 31
0.0
  0
LINE
  5
14B
330
9C
100
AcDbEntity
  8
FORMAT
 62
     0
100
AcDbLine
 10
-580.5164422054
 20
-580.4440758356
 30
0.0
 11
-583.0007401731
 21
-580.7238321722
 31
0.0
  0
LINE
  5
14C
330
9C
100
AcDbEntity
  8
FORMAT
 62
     0
100
AcDbLine
 10
-580.5164422054
 20
-580.4440758356
 30
0.0
 11
-578.0321442377
 21
-580.164319499
 31
0.0
  0
LINE
  5
14D
330
9C
100
AcDbEntity
  8
FORMAT
 62
     0
100
AcDbLine
 10
-585.4850381407
 20
-581.0035885087
 30
0.0
 11
-602.8751239144
 21
-582.9618828649
 31
0.0
  0
LINE
  5
14E
330
9C
100
AcDbEntity
  8
FORMAT
 62
     0
100
AcDbLine
 10
-575.5478462701
 20
-579.8845631624
 30
0.0
 11
-558.1577604964
 21
-577.9262688062
 31
0.0
  0
LINE
  5
14F
330
9C
100
AcDbEntity
  8
FORMAT
 62
     0
100
AcDbLine
 10
-580.5091141476
 20
-462.8813761555
 30
0.0
 11
-582.9933772197
 21
-462.6013101126
 31
0.0
  0
LINE
  5
150
330
9C
100
AcDbEntity
  8
FORMAT
 62
     0
100
AcDbLine
 10
-580.5091141476
 20
-462.8813761555
 30
0.0
 11
-578.0248510754
 21
-463.1614421983
 31
0.0
  0
LINE
  5
151
330
9C
100
AcDbEntity
  8
FORMAT
 62
     0
100
AcDbLine
 10
-585.4776402919
 20
-462.3212440698
 30
0.0
 11
-602.8674817969
 21
-460.3607817699
 31
0.0
  0
LINE
  5
152
330
9C
100
AcDbEntity
  8
FORMAT
 62
     0
100
AcDbLine
 10
-575.5405880033
 20
-463.4415082412
 30
0.0
 11
-558.1507464982
 21
-465.401970541
 31
0.0
  0
LINE
  5
153
330
9C
100
AcDbEntity
  8
FORMAT
 62
     0
100
AcDbLine
 10
-554.3418080882
 20
-348.2678494522
 30
0.0
 11
-556.7014649411
 21
-347.4420047108
 31
0.0
  0
LINE
  5
154
330
9C
100
AcDbEntity
  8
FORMAT
 62
     0
100
AcDbLine
 10
-554.3418080882
 20
-348.2678494522
 30
0.0
 11
-551.9821512354
 21
-349.0936941936
 31
0.0
  0
LINE
  5
155
330
9C
100
AcDbEntity
  8
FORMAT
 62
     0
100
AcDbLine
 10
-559.0611217939
 20
-346.6161599693
 30
0.0
 11
-575.5787197636
 21
-340.8352467794
 31
0.0
  0
LINE
  5
156
330
9C
100
AcDbEntity
  8
FORMAT
 62
     0
100
AcDbLine
 10
-549.6224943826
 20
-349.919538935
 30
0.0
 11
-533.1048964129
 21
-355.700452125
 31
0.0
  0
LINE
  5
157
330
9C
100
AcDbEntity
  8
FORMAT
 62
     0
100
AcDbLine
 10
-503.3266620183
 20
-242.350696539
 30
0.0
 11
-505.4433896041
 21
-241.0204844027
 31
0.0
  0
LINE
  5
158
330
9C
100
AcDbEntity
  8
FORMAT
 62
     0
100
AcDbLine
 10
-503.3266620183
 20
-242.350696539
 30
0.0
 11
-501.2099344325
 21
-243.6809086752
 31
0.0
  0
LINE
  5
159
330
9C
100
AcDbEntity
  8
FORMAT
 62
     0
100
AcDbLine
 10
-507.56011719
 20
-239.6902722665
 30
0.0
 11
-522.3772102907
 21
-230.3787873127
 31
0.0
  0
LINE
  5
15A
330
9C
100
AcDbEntity
  8
FORMAT
 62
     0
100
AcDbLine
 10
-499.0932068467
 20
-245.0111208115
 30
0.0
 11
-484.2761137459
 21
-254.3226057652
 31
0.0
  0
LINE
  5
15B
330
9C
100
AcDbEntity
  8
FORMAT
 62
     0
100
AcDbLine
 10
-430.0217883825
 20
-150.4410457345
 30
0.0
 11
-431.7894451415
 21
-148.6731685944
 31
0.0
  0
LINE
  5
15C
330
9C
100
AcDbEntity
  8
FORMAT
 62
     0
100
AcDbLine
 10
-430.0217883825
 20
-150.4410457345
 30
0.0
 11
-428.2541316235
 21
-152.2089228746
 31
0.0
  0
LINE
  5
15D
330
9C
100
AcDbEntity
  8
FORMAT
 62
     0
100
AcDbLine
 10
-433.5571019005
 20
-146.9052914543
 30
0.0
 11
-445.9306992134
 21
-134.5301514738
 31
0.0
  0
LINE
  5
15E
330
9C
100
AcDbEntity
  8
FORMAT
 62
     0
100
AcDbLine
 10
-426.4864748645
 20
-153.9768000147
 30
0.0
 11
-414.1128775517
 21
-166.3519399952
 31
0.0
  0
LINE
  5
15F
330
9C
100
AcDbEntity
  8
FORMAT
 62
     0
100
AcDbLine
 10
-338.1029996394
 20
-77.1476307113
 30
0.0
 11
-339.4329478805
 21
-75.0307373092
 31
0.0
  0
LINE
  5
160
330
9C
100
AcDbEntity
  8
FORMAT
 62
     0
100
AcDbLine
 10
-338.1029996394
 20
-77.1476307113
 30
0.0
 11
-336.7730513982
 21
-79.2645241134
 31
0.0
  0
LINE
  5
161
330
9C
100
AcDbEntity
  8
FORMAT
 62
     0
100
AcDbLine
 10
-340.7628961217
 20
-72.9138439071
 30
0.0
 11
-350.0725338098
 21
-58.0955900924
 31
0.0
  0
LINE
  5
162
330
9C
100
AcDbEntity
  8
FORMAT
 62
     0
100
AcDbLine
 10
-335.443103157
 20
-81.3814175155
 30
0.0
 11
-326.1334654689
 21
-96.1996713302
 31
0.0
  0
LINE
  5
163
330
9C
100
AcDbEntity
  8
FORMAT
 62
     0
100
AcDbLine
 10
-232.1794876759
 20
-26.1456893453
 30
0.0
 11
-233.0050382411
 21
-23.7859295557
 31
0.0
  0
LINE
  5
164
330
9C
100
AcDbEntity
  8
FORMAT
 62
     0
100
AcDbLine
 10
-232.1794876759
 20
-26.1456893453
 30
0.0
 11
-231.3539371108
 21
-28.5054491349
 31
0.0
  0
LINE
  5
165
330
9C
100
AcDbEntity
  8
FORMAT
 62
     0
100
AcDbLine
 10
-233.8305888062
 20
-21.4261697662
 30
0.0
 11
-239.6094427622
 21
-4.9078512393
 31
0.0
  0
LINE
  5
166
330
9C
100
AcDbEntity
  8
FORMAT
 62
     0
100
AcDbLine
 10
-230.5283865456
 20
-30.8652089244
 30
0.0
 11
-224.7495325896
 21
-47.3835274513
 31
0.0
  0
LINE
  5
167
330
9C
100
AcDbEntity
  8
FORMAT
 62
     0
100
AcDbLine
 10
-117.5626996801
 20
0.0073280578
 30
0.0
 11
-117.8424560167
 21
2.4916260255
 31
0.0
  0
LINE
  5
168
330
9C
100
AcDbEntity
  8
FORMAT
 62
     0
100
AcDbLine
 10
-117.5626996801
 20
0.0073280578
 30
0.0
 11
-117.2829433435
 21
-2.4769699098
 31
0.0
  0
LINE
  5
169
330
9C
100
AcDbEntity
  8
FORMAT
 62
     0
100
AcDbLine
 10
-118.1222123533
 20
4.9759239931
 30
0.0
 11
-120.0805067094
 21
22.3660097668
 31
0.0
  0
LINE
  5
16A
330
9C
100
AcDbEntity
  8
FORMAT
 62
     0
100
AcDbLine
 10
-117.0031870069
 20
-4.9612678775
 30
0.0
 11
-115.0448926508
 21
-22.3513536512
 31
0.0
  0
ENDBLK
  5
9E
330
9C
100
AcDbEntity
  8
0
100
AcDbBlockEnd
  0
ENDSEC
  0
SECTION
  2
ENTITIES
  0
CIRCLE
  5
46
330
1F
100
AcDbEntity
  8
0
  6
Continuous
 62
     7
370
    15
100
AcDbCircle
 10
112.0228320639
 20
1171.2986574428
 30
0.0
 40
20.00000000000004
  0
CIRCLE
  5
47
330
1F
100
AcDbEntity
  8
0
  6
Continuous
 62
     7
370
    15
100
AcDbCircle
 10
332.5535116804
 20
1094.1162053135
 30
0.0
 40
20.00000000000006
  0
CIRCLE
  5
48
330
1F
100
AcDbEntity
  8
0
  6
Continuous
 62
     7
370
    15
100
AcDbCircle
 10
497.7565775081
 20
928.8925429346
 30
0.0
 40
20.0
  0
CIRCLE
  5
49
330
1F
100
AcDbEntity
  8
0
  6
Continuous
 62
     7
370
    15
100
AcDbCircle
 10
574.9115362772
 20
708.3522429753
 30
0.0
 40
19.99999999999989
  0
CIRCLE
  5
4A
330
1F
100
AcDbEntity
  8
0
  6
Continuous
 62
     7
370
    15
100
AcDbCircle
 10
548.73690216
 20
476.1760165919
 30
0.0
 40
20.0
  0
CIRCLE
  5
4B
330
1F
100
AcDbEntity
  8
0
  6
Continuous
 62
     7
370
    15
100
AcDbCircle
 10
424.4168824543
 20
278.3492128742
 30
0.0
 40
20.00000000000006
  0
CIRCLE
  5
4C
330
1F
100
AcDbEntity
  8
0
  6
Continuous
 62
     7
370
    15
100
AcDbCircle
 10
226.5745817477
 20
154.053856485
 30
0.0
 40
20.00000000000006
  0
CIRCLE
  5
4D
330
1F
100
AcDbEntity
  8
0
  6
Continuous
 62
     7
370
    15
100
AcDbCircle
 10
-5.6049059282
 20
127.9081671397
 30
0.0
 40
20.00000000000006
  0
CIRCLE
  5
4E
330
1F
100
AcDbEntity
  8
0
  6
Continuous
 62
     7
370
    15
100
AcDbCircle
 10
-318.0452363492
 20
278.3954929048
 30
0.0
 40
20.0
  0
CIRCLE
  5
4F
330
1F
100
AcDbEntity
  8
0
  6
Continuous
 62
     7
370
    15
100
AcDbCircle
 10
-442.3405927384
 20
476.2377936114
 30
0.0
 40
20.0
  0
CIRCLE
  5
50
330
1F
100
AcDbEntity
  8
0
  6
Continuous
 62
     7
370
    15
100
AcDbCircle
 10
-468.4862820837
 20
708.4172812873
 30
0.0
 40
20.0
  0
CIRCLE
  5
51
330
1F
100
AcDbEntity
  8
0
  6
Continuous
 62
     7
370
    15
100
AcDbCircle
 10
-391.3038299544
 20
928.9479609038
 30
0.0
 40
20.00000000000006
  0
CIRCLE
  5
52
330
1F
100
AcDbEntity
  8
0
  6
Continuous
 62
     7
370
    15
100
AcDbCircle
 10
-226.0801675755
 20
1094.1510267315
 30
0.0
 40
20.0
  0
CIRCLE
  5
53
330
1F
100
AcDbEntity
  8
0
  6
Continuous
 62
     7
370
    15
100
AcDbCircle
 10
-120.2184326315
 20
154.0754731991
 30
0.0
 40
19.99999999999999
  0
CIRCLE
  5
54
330
1F
100
AcDbEntity
  8
0
  6
Continuous
 62
     7
370
    15
100
AcDbCircle
 10
53.2089630679
 20
649.6034122913
 30
0.0
 40
450.0
  0
CIRCLE
  5
55
330
1F
100
AcDbEntity
  8
0
  6
Continuous
 62
     7
370
    15
100
AcDbCircle
 10
53.2089630679
 20
649.6034122913
 30
0.0
 40
562.5
  0
CIRCLE
  5
56
330
1F
100
AcDbEntity
  8
0
  6
Continuous
 62
     7
370
    15
100
AcDbCircle
 10
-5.5398676162
 20
1171.3059855006
 30
0.0
 40
20.0
  0
CIRCLE
  5
57
330
1F
100
AcDbEntity
  8
0
  6
Continuous
 62
     7
370
    15
100
AcDbCircle
 10
-120.156655612
 20
1145.1529680975
 30
0.0
 40
20.0
  0
CIRCLE
  5
58
330
1F
100
AcDbEntity
  8
0
  6
Continuous
 62
     7
370
    15
100
AcDbCircle
 10
-317.9989563186
 20
1020.8576117083
 30
0.0
 40
20.0
  0
CIRCLE
  5
59
330
1F
100
AcDbEntity
  8
0
  6
Continuous
 62
     7
370
    15
100
AcDbCircle
 10
-442.3189760243
 20
823.0308079906
 30
0.0
 40
20.00000000000017
  0
CIRCLE
  5
5A
330
1F
100
AcDbEntity
  8
0
  6
Continuous
 62
     7
370
    15
100
AcDbCircle
 10
-468.4936101415
 20
590.8545816072
 30
0.0
 40
20.00000000000011
  0
CIRCLE
  5
5B
330
1F
100
AcDbEntity
  8
0
  6
Continuous
 62
     7
370
    15
100
AcDbCircle
 10
-391.3386513724
 20
370.314281648
 30
0.0
 40
20.0
  0
CIRCLE
  5
5C
330
1F
100
AcDbEntity
  8
0
  6
Continuous
 62
     7
370
    15
100
AcDbCircle
 10
-226.1355855447
 20
205.090619269
 30
0.0
 40
20.00000000000003
  0
CIRCLE
  5
5D
330
1F
100
AcDbEntity
  8
0
  6
Continuous
 62
     7
370
    15
100
AcDbCircle
 10
111.9577937519
 20
127.9008390819
 30
0.0
 40
20.00000000000009
  0
CIRCLE
  5
5E
330
1F
100
AcDbEntity
  8
0
  6
Continuous
 62
     7
370
    15
100
AcDbCircle
 10
332.4980937112
 20
205.055797851
 30
0.0
 40
19.99999999999994
  0
CIRCLE
  5
5F
330
1F
100
AcDbEntity
  8
0
  6
Continuous
 62
     7
370
    15
100
AcDbCircle
 10
497.7217560901
 20
370.2588636787
 30
0.0
 40
19.99999999999989
  0
CIRCLE
  5
60
330
1F
100
AcDbEntity
  8
0
  6
Continuous
 62
     7
370
    15
100
AcDbCircle
 10
574.9042082194
 20
590.7895432952
 30
0.0
 40
20.0
  0
CIRCLE
  5
61
330
1F
100
AcDbEntity
  8
0
  6
Continuous
 62
     7
370
    15
100
AcDbCircle
 10
548.7585188741
 20
822.9690309711
 30
0.0
 40
19.99999999999989
  0
CIRCLE
  5
62
330
1F
100
AcDbEntity
  8
0
  6
Continuous
 62
     7
370
    15
100
AcDbCircle
 10
424.4631624849
 20
1020.8113316777
 30
0.0
 40
20.0
  0
CIRCLE
  5
63
330
1F
100
AcDbEntity
  8
0
  6
Continuous
 62
     7
370
    15
100
AcDbCircle
 10
226.6363587672
 20
1145.1313513835
 30
0.0
 40
19.99999999999997
  0
ARC
  5
64
330
1F
100
AcDbEntity
  8
0
  6
Continuous
 62
     7
370
    15
100
AcDbCircle
 10
53.2089630679
 20
649.6034122913
 30
0.0
 40
510.9999999999999
100
AcDbArc
 50
171.9878415408
 51
175.1478727449
  0
ARC
  5
65
330
1F
100
AcDbEntity
  8
0
  6
Continuous
 62
     7
370
    15
100
AcDbCircle
 10
53.2089630679
 20
649.6034122913
 30
0.0
 40
510.9999999999999
100
AcDbArc
 50
159.1306986837
 51
162.2907298877
  0
ARC
  5
66
330
1F
100
AcDbEntity
  8
0
  6
Continuous
 62
     7
370
    15
100
AcDbCircle
 10
53.2089630679
 20
649.6034122913
 30
0.0
 40
510.9999999999999
100
AcDbArc
 50
146.2735558266
 51
149.4335870306
  0
ARC
  5
67
330
1F
100
AcDbEntity
  8
0
  6
Continuous
 62
     7
370
    15
100
AcDbCircle
 10
53.2089630679
 20
649.6034122913
 30
0.0
 40
510.9999999999998
100
AcDbArc
 50
133.4164129694
 51
136.5764441734
  0
ARC
  5
68
330
1F
100
AcDbEntity
  8
0
  6
Continuous
 62
     7
370
    15
100
AcDbCircle
 10
53.2089630679
 20
649.6034122913
 30
0.0
 40
511.0
100
AcDbArc
 50
120.5592701123
 51
123.7193013163
  0
ARC
  5
69
330
1F
100
AcDbEntity
  8
0
  6
Continuous
 62
     7
370
    15
100
AcDbCircle
 10
53.2089630679
 20
649.6034122913
 30
0.0
 40
510.9999999999999
100
AcDbArc
 50
107.7021272551
 51
110.8621584592
  0
ARC
  5
6A
330
1F
100
AcDbEntity
  8
0
  6
Continuous
 62
     7
370
    15
100
AcDbCircle
 10
53.2089630679
 20
649.6034122913
 30
0.0
 40
511.0
100
AcDbArc
 50
94.844984398
 51
98.005015602
  0
ARC
  5
6B
330
1F
100
AcDbEntity
  8
0
  6
Continuous
 62
     7
370
    15
100
AcDbCircle
 10
53.2089630679
 20
649.6034122913
 30
0.0
 40
511.0000000000001
100
AcDbArc
 50
81.9878415408
 51
85.1478727449
  0
ARC
  5
6C
330
1F
100
AcDbEntity
  8
0
  6
Continuous
 62
     7
370
    15
100
AcDbCircle
 10
53.2089630679
 20
649.6034122913
 30
0.0
 40
511.0
100
AcDbArc
 50
69.1306986837
 51
72.2907298877
  0
ARC
  5
6D
330
1F
100
AcDbEntity
  8
0
  6
Continuous
 62
     7
370
    15
100
AcDbCircle
 10
53.2089630679
 20
649.6034122913
 30
0.0
 40
510.9999999999999
100
AcDbArc
 50
56.2735558266
 51
59.4335870306
  0
ARC
  5
6E
330
1F
100
AcDbEntity
  8
0
  6
Continuous
 62
     7
370
    15
100
AcDbCircle
 10
53.2089630679
 20
649.6034122913
 30
0.0
 40
510.9999999999999
100
AcDbArc
 50
43.4164129694
 51
46.5764441734
  0
ARC
  5
6F
330
1F
100
AcDbEntity
  8
0
  6
Continuous
 62
     7
370
    15
100
AcDbCircle
 10
53.2089630679
 20
649.6034122913
 30
0.0
 40
510.9999999999999
100
AcDbArc
 50
30.5592701123
 51
33.7193013163
  0
ARC
  5
70
330
1F
100
AcDbEntity
  8
0
  6
Continuous
 62
     7
370
    15
100
AcDbCircle
 10
53.2089630679
 20
649.6034122913
 30
0.0
 40
510.9999999999999
100
AcDbArc
 50
17.7021272551
 51
20.8621584592
  0
ARC
  5
71
330
1F
100
AcDbEntity
  8
0
  6
Continuous
 62
     7
370
    15
100
AcDbCircle
 10
53.2089630679
 20
649.6034122913
 30
0.0
 40
510.9999999999999
100
AcDbArc
 50
4.844984398
 51
8.005015602
  0
ARC
  5
72
330
1F
100
AcDbEntity
  8
0
  6
Continuous
 62
     7
370
    15
100
AcDbCircle
 10
53.2089630679
 20
649.6034122913
 30
0.0
 40
511.0000000000001
100
AcDbArc
 50
351.9878415408
 51
355.1478727449
  0
ARC
  5
73
330
1F
100
AcDbEntity
  8
0
  6
Continuous
 62
     7
370
    15
100
AcDbCircle
 10
53.2089630679
 20
649.6034122913
 30
0.0
 40
510.9999999999999
100
AcDbArc
 50
339.1306986837
 51
342.2907298877
  0
ARC
  5
74
330
1F
100
AcDbEntity
  8
0
  6
Continuous
 62
     7
370
    15
100
AcDbCircle
 10
53.2089630679
 20
649.6034122913
 30
0.0
 40
510.9999999999999
100
AcDbArc
 50
326.2735558266
 51
329.4335870306
  0
ARC
  5
75
330
1F
100
AcDbEntity
  8
0
  6
Continuous
 62
     7
370
    15
100
AcDbCircle
 10
53.2089630679
 20
649.6034122913
 30
0.0
 40
511.0000000000001
100
AcDbArc
 50
313.4164129694
 51
316.5764441734
  0
ARC
  5
76
330
1F
100
AcDbEntity
  8
0
  6
Continuous
 62
     7
370
    15
100
AcDbCircle
 10
53.2089630679
 20
649.6034122913
 30
0.0
 40
510.9999999999999
100
AcDbArc
 50
300.5592701123
 51
303.7193013163
  0
ARC
  5
77
330
1F
100
AcDbEntity
  8
0
  6
Continuous
 62
     7
370
    15
100
AcDbCircle
 10
53.2089630679
 20
649.6034122913
 30
0.0
 40
511.0
100
AcDbArc
 50
287.7021272551
 51
290.8621584592
  0
ARC
  5
78
330
1F
100
AcDbEntity
  8
0
  6
Continuous
 62
     7
370
    15
100
AcDbCircle
 10
53.2089630679
 20
649.6034122913
 30
0.0
 40
510.9999999999999
100
AcDbArc
 50
274.844984398
 51
278.005015602
  0
ARC
  5
79
330
1F
100
AcDbEntity
  8
0
  6
Continuous
 62
     7
370
    15
100
AcDbCircle
 10
53.2089630679
 20
649.6034122913
 30
0.0
 40
511.0
100
AcDbArc
 50
261.9878415408
 51
265.1478727449
  0
ARC
  5
7A
330
1F
100
AcDbEntity
  8
0
  6
Continuous
 62
     7
370
    15
100
AcDbCircle
 10
53.2089630679
 20
649.6034122913
 30
0.0
 40
511.0
100
AcDbArc
 50
249.1306986837
 51
252.2907298877
  0
ARC
  5
7B
330
1F
100
AcDbEntity
  8
0
  6
Continuous
 62
     7
370
    15
100
AcDbCircle
 10
53.2089630679
 20
649.6034122913
 30
0.0
 40
510.9999999999999
100
AcDbArc
 50
236.2735558266
 51
239.4335870306
  0
ARC
  5
7C
330
1F
100
AcDbEntity
  8
0
  6
Continuous
 62
     7
370
    15
100
AcDbCircle
 10
53.2089630679
 20
649.6034122913
 30
0.0
 40
510.9999999999999
100
AcDbArc
 50
223.4164129694
 51
226.5764441734
  0
ARC
  5
7D
330
1F
100
AcDbEntity
  8
0
  6
Continuous
 62
     7
370
    15
100
AcDbCircle
 10
53.2089630679
 20
649.6034122913
 30
0.0
 40
510.9999999999999
100
AcDbArc
 50
210.5592701123
 51
213.7193013163
  0
ARC
  5
7E
330
1F
100
AcDbEntity
  8
0
  6
Continuous
 62
     7
370
    15
100
AcDbCircle
 10
53.2089630679
 20
649.6034122913
 30
0.0
 40
510.9999999999999
100
AcDbArc
 50
197.7021272551
 51
200.8621584592
  0
ARC
  5
7F
330
1F
100
AcDbEntity
  8
0
  6
Continuous
 62
     7
370
    15
100
AcDbCircle
 10
53.2089630679
 20
649.6034122913
 30
0.0
 40
510.9999999999998
100
AcDbArc
 50
184.844984398
 51
188.005015602
  0
ARC
  5
80
330
1F
100
AcDbEntity
  8
0
  6
Continuous
 62
     7
370
     0
100
AcDbCircle
 10
53.2089630679
 20
649.6034122913
 30
0.0
 40
508.261467228243
100
AcDbArc
 50
172.3536999213
 51
174.7820143644
  0
LWPOLYLINE
  5
81
330
1F
100
AcDbEntity
  8
0
  6
Continuous
 62
     7
370
     0
100
AcDbPolyline
 90
        3
 70
   128
 43
0.0
 10
-429.9700697347
 20
807.298541805
 10
-425.8993705198
 20
819.264576575
 10
-422.8547354623
 20
827.6289410798
  0
ARC
  5
82
330
1F
100
AcDbEntity
  8
0
  6
Continuous
 62
     7
370
     0
100
AcDbCircle
 10
53.2089630679
 20
649.6034122913
 30
0.0
 40
508.261467228243
100
AcDbArc
 50
146.639414207
 51
149.0677286501
  0
LWPOLYLINE
  5
83
330
1F
100
AcDbEntity
  8
0
  6
Continuous
 62
     7
370
     0
100
AcDbPolyline
 90
        3
 70
   128
 43
0.0
 10
-313.6989315435
 20
1001.3253249137
 10
-306.1861534997
 20
1008.9985288589
 10
-298.4672029897
 20
1016.5551461189
  0
ARC
  5
84
330
1F
100
AcDbEntity
  8
0
  6
Continuous
 62
     7
370
     0
100
AcDbCircle
 10
53.2089630679
 20
649.6034122913
 30
0.0
 40
508.261467228243
100
AcDbArc
 50
120.9251284928
 51
123.3534429358
  0
LWPOLYLINE
  5
85
330
1F
100
AcDbEntity
  8
0
  6
Continuous
 62
     7
370
     0
100
AcDbPolyline
 90
        3
 70
   128
 43
0.0
 10
-124.7572143957
 20
1125.6892837493
 10
-116.4522012159
 20
1128.7117458789
 10
-104.4259359523
 20
1132.8020848243
  0
ARC
  5
86
330
1F
100
AcDbEntity
  8
0
  6
Continuous
 62
     7
370
     0
100
AcDbCircle
 10
53.2089630679
 20
649.6034122913
 30
0.0
 40
508.261467228243
100
AcDbArc
 50
95.2108427785
 51
97.6391572215
  0
ARC
  5
87
330
1F
100
AcDbEntity
  8
0
  6
Continuous
 62
     7
370
     0
100
AcDbCircle
 10
53.2089630679
 20
649.6034122913
 30
0.0
 40
508.2614672282431
100
AcDbArc
 50
82.3536999213
 51
84.7820143644
  0
LWPOLYLINE
  5
88
330
1F
100
AcDbEntity
  8
0
  6
Continuous
 62
     7
370
     0
100
AcDbPolyline
 90
        3
 70
   128
 43
0.0
 10
210.9040925816
 20
1132.7824450939
 10
222.8701273516
 20
1128.7117458789
 10
231.2344918564
 20
1125.6671108215
  0
ARC
  5
89
330
1F
100
AcDbEntity
  8
0
  6
Continuous
 62
     7
370
     0
100
AcDbCircle
 10
53.2089630679
 20
649.6034122913
 30
0.0
 40
508.261467228243
100
AcDbArc
 50
56.639414207
 51
59.0677286501
  0
LWPOLYLINE
  5
8A
330
1F
100
AcDbEntity
  8
0
  6
Continuous
 62
     7
370
     0
100
AcDbPolyline
 90
        3
 70
   128
 43
0.0
 10
404.9308756903
 20
1016.5113069026
 10
412.6040796355
 20
1008.9985288589
 10
420.1606968955
 20
1001.2795783489
  0
ARC
  5
8B
330
1F
100
AcDbEntity
  8
0
  6
Continuous
 62
     7
370
     0
100
AcDbCircle
 10
53.2089630679
 20
649.6034122913
 30
0.0
 40
508.261467228243
100
AcDbArc
 50
30.9251284927
 51
33.3534429358
  0
LWPOLYLINE
  5
8C
330
1F
100
AcDbEntity
  8
0
  6
Continuous
 62
     7
370
     0
100
AcDbPolyline
 90
        3
 70
   128
 43
0.0
 10
529.2948345259
 20
827.5695897548
 10
532.3172966555
 20
819.264576575
 10
536.4076356009
 20
807.2383113115
  0
ARC
  5
8D
330
1F
100
AcDbEntity
  8
0
  6
Continuous
 62
     7
370
     0
100
AcDbCircle
 10
53.2089630679
 20
649.6034122913
 30
0.0
 40
508.2614672282431
100
AcDbArc
 50
5.2108427785
 51
7.6391572215
  0
ARC
  5
8E
330
1F
100
AcDbEntity
  8
0
  6
Continuous
 62
     7
370
     0
100
AcDbCircle
 10
53.2089630679
 20
649.6034122913
 30
0.0
 40
508.261467228243
100
AcDbArc
 50
352.3536999213
 51
354.7820143644
  0
LWPOLYLINE
  5
8F
330
1F
100
AcDbEntity
  8
0
  6
Continuous
 62
     7
370
     0
100
AcDbPolyline
 90
        3
 70
   128
 43
0.0
 10
536.3879958704
 20
491.9082827775
 10
532.3172966555
 20
479.9422480075
 10
529.2726615981
 20
471.5778835027
  0
ARC
  5
90
330
1F
100
AcDbEntity
  8
0
  6
Continuous
 62
     7
370
     0
100
AcDbCircle
 10
53.2089630679
 20
649.6034122913
 30
0.0
 40
508.261467228243
100
AcDbArc
 50
326.639414207
 51
329.0677286501
  0
LWPOLYLINE
  5
91
330
1F
100
AcDbEntity
  8
0
  6
Continuous
 62
     7
370
     0
100
AcDbPolyline
 90
        3
 70
   128
 43
0.0
 10
420.1168576792
 20
297.8814996688
 10
412.6040796355
 20
290.2082957237
 10
404.8851291255
 20
282.6516784637
  0
ARC
  5
92
330
1F
100
AcDbEntity
  8
0
  6
Continuous
 62
     7
370
     0
100
AcDbCircle
 10
53.2089630679
 20
649.6034122913
 30
0.0
 40
508.2614672282431
100
AcDbArc
 50
300.9251284927
 51
303.3534429358
  0
LWPOLYLINE
  5
93
330
1F
100
AcDbEntity
  8
0
  6
Continuous
 62
     7
370
     0
100
AcDbPolyline
 90
        3
 70
   128
 43
0.0
 10
231.1751405314
 20
173.5175408332
 10
222.8701273516
 20
170.4950787036
 10
210.8438620881
 20
166.4047397582
  0
ARC
  5
94
330
1F
100
AcDbEntity
  8
0
  6
Continuous
 62
     7
370
     0
100
AcDbCircle
 10
53.2089630679
 20
649.6034122913
 30
0.0
 40
508.261467228243
100
AcDbArc
 50
275.2108427785
 51
277.6391572215
  0
ARC
  5
95
330
1F
100
AcDbEntity
  8
0
  6
Continuous
 62
     7
370
     0
100
AcDbCircle
 10
53.2089630679
 20
649.6034122913
 30
0.0
 40
508.261467228243
100
AcDbArc
 50
262.3536999213
 51
264.7820143644
  0
LWPOLYLINE
  5
96
330
1F
100
AcDbEntity
  8
0
  6
Continuous
 62
     7
370
     0
100
AcDbPolyline
 90
        3
 70
   128
 43
0.0
 10
-104.4861664459
 20
166.4243794887
 10
-116.4522012159
 20
170.4950787036
 10
-124.8165657207
 20
173.5397137611
  0
ARC
  5
97
330
1F
100
AcDbEntity
  8
0
  6
Continuous
 62
     7
370
     0
100
AcDbCircle
 10
53.2089630679
 20
649.6034122913
 30
0.0
 40
508.261467228243
100
AcDbArc
 50
236.639414207
 51
239.0677286501
  0
LWPOLYLINE
  5
98
330
1F
100
AcDbEntity
  8
0
  6
Continuous
 62
     7
370
     0
100
AcDbPolyline
 90
        3
 70
   128
 43
0.0
 10
-298.5129495546
 20
282.6955176799
 10
-306.1861534997
 20
290.2082957237
 10
-313.7427707597
 20
297.9272462337
  0
ARC
  5
99
330
1F
100
AcDbEntity
  8
0
  6
Continuous
 62
     7
370
     0
100
AcDbCircle
 10
53.2089630679
 20
649.6034122913
 30
0.0
 40
508.261467228243
100
AcDbArc
 50
210.9251284928
 51
213.3534429358
  0
LWPOLYLINE
  5
9A
330
1F
100
AcDbEntity
  8
0
  6
Continuous
 62
     7
370
     0
100
AcDbPolyline
 90
        3
 70
   128
 43
0.0
 10
-422.8769083902
 20
471.6372348277
 10
-425.8993705198
 20
479.9422480075
 10
-429.9897094652
 20
491.9685132711
  0
ARC
  5
9B
330
1F
100
AcDbEntity
  8
0
  6
Continuous
 62
     7
370
     0
100
AcDbCircle
 10
53.2089630679
 20
649.6034122913
 30
0.0
 40
508.261467228243
100
AcDbArc
 50
185.2108427785
 51
187.6391572215
  0
INSERT
  5
16B
330
1F
100
AcDbEntity
  8
FORMAT
100
AcDbBlockReference
  2
SW_CENTERMARKSYMBOL_0
 10
112.0228320639
 20
1171.2986574428
 30
0.0
  0
LINE
  5
16C
330
1F
100
AcDbEntity
  8
0
  6
Continuous
 62
     7
370
    15
100
AcDbLine
 10
942.3531533527
 20
1212.1034122913
 30
0.0
 11
917.3531529802
 21
1212.1034122913
 31
0.0
  0
LINE
  5
16D
330
1F
100
AcDbEntity
  8
0
  6
Continuous
 62
     7
370
    15
100
AcDbLine
 10
917.3531529802
 20
87.1034122913
 30
0.0
 11
942.3531533527
 21
87.1034122913
 31
0.0
  0
LINE
  5
16E
330
1F
100
AcDbEntity
  8
0
  6
Continuous
 62
     7
370
    15
100
AcDbLine
 10
812.3531581211
 20
138.6034347026
 30
0.0
 11
815.6041593599
 21
138.6034347026
 31
0.0
  0
LINE
  5
16F
330
1F
100
AcDbEntity
  8
0
  6
Continuous
 62
     7
370
    15
100
AcDbLine
 10
815.6041593599
 20
1160.6033898799
 30
0.0
 11
812.3531581211
 21
1160.6033898799
 31
0.0
  0
ARC
  5
170
330
1F
100
AcDbEntity
  8
0
  6
Continuous
 62
     7
370
    15
100
AcDbCircle
 10
815.6041598306
 20
141.6034122913
 30
0.0
 40
3.000000000000057
100
AcDbArc
 50
270.0
 51
355.0
  0
ARC
  5
171
330
1F
100
AcDbEntity
  8
0
  6
Continuous
 62
     7
370
    15
100
AcDbCircle
 10
815.6041598306
 20
1157.6034122913
 30
0.0
 40
3.000000000000027
100
AcDbArc
 50
5.0
 51
90.0
  0
LINE
  5
172
330
1F
100
AcDbEntity
  8
0
  6
Continuous
 62
     7
370
    15
100
AcDbLine
 10
809.8531605053
 20
637.603412187
 30
0.0
 11
812.3531581211
 21
637.603412187
 31
0.0
  0
LINE
  5
173
330
1F
100
AcDbEntity
  8
0
  6
Continuous
 62
     7
370
    15
100
AcDbLine
 10
812.3531581211
 20
661.6034123956
 30
0.0
 11
809.8531605053
 21
661.6034123956
 31
0.0
  0
LINE
  5
174
330
1F
100
AcDbEntity
  8
0
  6
Continuous
 62
     7
370
    15
100
AcDbLine
 10
818.5927436995
 20
141.3419701068
 30
0.0
 11
820.015014832
 21
157.5986005275
 31
0.0
  0
LINE
  5
175
330
1F
100
AcDbEntity
  8
0
  6
Continuous
 62
     7
370
    15
100
AcDbLine
 10
820.015014832
 20
1141.608224055
 30
0.0
 11
818.5927436995
 21
1157.8648544757
 31
0.0
  0
LINE
  5
176
330
1F
100
AcDbEntity
  8
0
  6
Continuous
 62
     7
370
    15
100
AcDbLine
 10
808.6162896204
 20
639.2111077814
 30
0.0
 11
809.8531605053
 21
641.353412336
 31
0.0
  0
LINE
  5
177
330
1F
100
AcDbEntity
  8
0
  6
Continuous
 62
     7
370
    15
100
AcDbLine
 10
809.8531605053
 20
657.8534122466
 30
0.0
 11
808.6162896204
 21
659.9957168011
 31
0.0
  0
LINE
  5
178
330
1F
100
AcDbEntity
  8
0
  6
Continuous
 62
     7
370
    15
100
AcDbLine
 10
800.6900192546
 20
659.9957168011
 30
0.0
 11
799.4531483697
 21
657.8534122466
 31
0.0
  0
LINE
  5
179
330
1F
100
AcDbEntity
  8
0
  6
Continuous
 62
     7
370
    15
100
AcDbLine
 10
799.4531483697
 20
641.353412336
 30
0.0
 11
800.6900192546
 21
639.2111077814
 31
0.0
  0
LINE
  5
17A
330
1F
100
AcDbEntity
  8
0
  6
Continuous
 62
     7
370
    15
100
AcDbLine
 10
799.4531483697
 20
655.6034123434
 30
0.0
 11
764.3531502533
 21
655.6034123434
 31
0.0
  0
LINE
  5
17B
330
1F
100
AcDbEntity
  8
0
  6
Continuous
 62
     7
370
    15
100
AcDbLine
 10
764.3531502533
 20
643.6034122391
 30
0.0
 11
799.4531483697
 21
643.6034122391
 31
0.0
  0
LINE
  5
17C
330
1F
100
AcDbEntity
  8
0
  6
Continuous
 62
     7
370
    15
100
AcDbLine
 10
917.3531529802
 20
655.6034123434
 30
0.0
 11
819.5747823762
 21
655.6034123434
 31
0.0
  0
LINE
  5
17D
330
1F
100
AcDbEntity
  8
0
  6
Continuous
 62
     7
370
    15
100
AcDbLine
 10
819.5748419809
 20
643.6034122391
 30
0.0
 11
917.3531529802
 21
643.6034122391
 31
0.0
  0
ARC
  5
17E
330
1F
100
AcDbEntity
  8
0
  6
Continuous
 62
     7
370
    15
100
AcDbCircle
 10
824.9959905275
 20
157.1628224101
 30
0.0
 40
5.000000000000087
100
AcDbArc
 50
157.6487552658
 51
175.0
  0
ARC
  5
17F
330
1F
100
AcDbEntity
  8
0
  6
Continuous
 62
     7
370
    15
100
AcDbCircle
 10
824.9959905275
 20
1142.0440021724
 30
0.0
 40
4.999999999999974
100
AcDbArc
 50
185.0
 51
202.3512447342
  0
LINE
  5
180
330
1F
100
AcDbEntity
  8
0
  6
Continuous
 62
     7
370
    15
100
AcDbLine
 10
917.3531529802
 20
1117.6034070461
 30
0.0
 11
852.3531497764
 21
1117.6034070461
 31
0.0
  0
LINE
  5
181
330
1F
100
AcDbEntity
  8
0
  6
Continuous
 62
     7
370
    15
100
AcDbLine
 10
852.3531497764
 20
181.6034175365
 30
0.0
 11
917.3531529802
 21
181.6034175365
 31
0.0
  0
LINE
  5
182
330
1F
100
AcDbEntity
  8
0
  6
Continuous
 62
     7
370
    15
100
AcDbLine
 10
809.8531605053
 20
853.2436348407
 30
0.0
 11
812.3531581211
 21
853.2436348407
 31
0.0
  0
LINE
  5
183
330
1F
100
AcDbEntity
  8
0
  6
Continuous
 62
     7
370
    15
100
AcDbLine
 10
812.3531581211
 20
877.2436238735
 30
0.0
 11
809.8531605053
 21
877.2436238735
 31
0.0
  0
LINE
  5
184
330
1F
100
AcDbEntity
  8
0
  6
Continuous
 62
     7
370
    15
100
AcDbLine
 10
809.8531605053
 20
421.9632007091
 30
0.0
 11
812.3531581211
 21
421.9632007091
 31
0.0
  0
LINE
  5
185
330
1F
100
AcDbEntity
  8
0
  6
Continuous
 62
     7
370
    15
100
AcDbLine
 10
812.3531581211
 20
445.9631897418
 30
0.0
 11
809.8531605053
 21
445.9631897418
 31
0.0
  0
LINE
  5
186
330
1F
100
AcDbEntity
  8
0
  6
Continuous
 62
     7
370
    15
100
AcDbLine
 10
809.4022811699
 20
856.2126912086
 30
0.0
 11
809.8531605053
 21
856.9936312644
 31
0.0
  0
LINE
  5
187
330
1F
100
AcDbEntity
  8
0
  6
Continuous
 62
     7
370
    15
100
AcDbLine
 10
809.8531605053
 20
873.4936274497
 30
0.0
 11
809.4022811699
 21
874.2745675056
 31
0.0
  0
LINE
  5
188
330
1F
100
AcDbEntity
  8
0
  6
Continuous
 62
     7
370
    15
100
AcDbLine
 10
799.9029399204
 20
874.2726750581
 30
0.0
 11
799.4531483697
 21
873.4936274497
 31
0.0
  0
LINE
  5
189
330
1F
100
AcDbEntity
  8
0
  6
Continuous
 62
     7
370
    15
100
AcDbLine
 10
799.4531483697
 20
856.9936312644
 30
0.0
 11
799.9029399204
 21
856.2145836561
 31
0.0
  0
LINE
  5
18A
330
1F
100
AcDbEntity
  8
0
  6
Continuous
 62
     7
370
    15
100
AcDbLine
 10
809.4033689546
 20
424.9341495244
 30
0.0
 11
809.8531605053
 21
425.7131971328
 31
0.0
  0
LINE
  5
18B
330
1F
100
AcDbEntity
  8
0
  6
Continuous
 62
     7
370
    15
100
AcDbLine
 10
809.8531605053
 20
442.2131933181
 30
0.0
 11
809.4033689546
 21
442.9922409265
 31
0.0
  0
LINE
  5
18C
330
1F
100
AcDbEntity
  8
0
  6
Continuous
 62
     7
370
    15
100
AcDbLine
 10
799.9040277052
 20
442.994133374
 30
0.0
 11
799.4531483697
 21
442.2131933181
 31
0.0
  0
LINE
  5
18D
330
1F
100
AcDbEntity
  8
0
  6
Continuous
 62
     7
370
    15
100
AcDbLine
 10
799.4531483697
 20
425.7131971328
 30
0.0
 11
799.9040277052
 21
424.932257077
 31
0.0
  0
LINE
  5
18E
330
1F
100
AcDbEntity
  8
0
  6
Continuous
 62
     7
370
    15
100
AcDbLine
 10
799.4531483697
 20
871.2436266153
 30
0.0
 11
764.3531502533
 21
871.2436266153
 31
0.0
  0
LINE
  5
18F
330
1F
100
AcDbEntity
  8
0
  6
Continuous
 62
     7
370
    15
100
AcDbLine
 10
764.3531502533
 20
859.2436320989
 30
0.0
 11
799.4531483697
 21
859.2436320989
 31
0.0
  0
LINE
  5
190
330
1F
100
AcDbEntity
  8
0
  6
Continuous
 62
     7
370
    15
100
AcDbLine
 10
917.3531529802
 20
871.2436266153
 30
0.0
 11
819.3478451418
 21
871.2436266153
 31
0.0
  0
LINE
  5
191
330
1F
100
AcDbEntity
  8
0
  6
Continuous
 62
     7
370
    15
100
AcDbLine
 10
819.8023901629
 20
859.2436320989
 30
0.0
 11
917.3531529802
 21
859.2436320989
 31
0.0
  0
LINE
  5
192
330
1F
100
AcDbEntity
  8
0
  6
Continuous
 62
     7
370
    15
100
AcDbLine
 10
799.4531483697
 20
439.9631924836
 30
0.0
 11
764.3531502533
 21
439.9631924836
 31
0.0
  0
LINE
  5
193
330
1F
100
AcDbEntity
  8
0
  6
Continuous
 62
     7
370
    15
100
AcDbLine
 10
764.3531502533
 20
427.9631979673
 30
0.0
 11
799.4531483697
 21
427.9631979673
 31
0.0
  0
LINE
  5
194
330
1F
100
AcDbEntity
  8
0
  6
Continuous
 62
     7
370
    15
100
AcDbLine
 10
917.3531529802
 20
439.9631924836
 30
0.0
 11
819.8023901629
 21
439.9631924836
 31
0.0
  0
LINE
  5
195
330
1F
100
AcDbEntity
  8
0
  6
Continuous
 62
     7
370
    15
100
AcDbLine
 10
819.3478451418
 20
427.9631979673
 30
0.0
 11
917.3531529802
 21
427.9631979673
 31
0.0
  0
LINE
  5
196
330
1F
100
AcDbEntity
  8
0
  6
Continuous
 62
     7
370
    15
100
AcDbLine
 10
809.8531605053
 20
1026.1736668556
 30
0.0
 11
812.3531581211
 21
1026.1736668556
 31
0.0
  0
LINE
  5
197
330
1F
100
AcDbEntity
  8
0
  6
Continuous
 62
     7
370
    15
100
AcDbLine
 10
812.3531581211
 20
1050.1736558883
 30
0.0
 11
809.8531605053
 21
1050.1736558883
 31
0.0
  0
LINE
  5
198
330
1F
100
AcDbEntity
  8
0
  6
Continuous
 62
     7
370
    15
100
AcDbLine
 10
809.8531605053
 20
249.0331686942
 30
0.0
 11
812.3531581211
 21
249.0331686942
 31
0.0
  0
LINE
  5
199
330
1F
100
AcDbEntity
  8
0
  6
Continuous
 62
     7
370
    15
100
AcDbLine
 10
812.3531581211
 20
273.033157727
 30
0.0
 11
809.8531605053
 21
273.033157727
 31
0.0
  0
LINE
  5
19A
330
1F
100
AcDbEntity
  8
0
  6
Continuous
 62
     7
370
    15
100
AcDbLine
 10
800.2742619562
 20
1047.8458858936
 30
0.0
 11
799.4531483697
 21
1046.4236594646
 31
0.0
  0
LINE
  5
19B
330
1F
100
AcDbEntity
  8
0
  6
Continuous
 62
     7
370
    15
100
AcDbLine
 10
799.4531483697
 20
1029.9236632793
 30
0.0
 11
800.2742619562
 21
1028.5014368503
 31
0.0
  0
LINE
  5
19C
330
1F
100
AcDbEntity
  8
0
  6
Continuous
 62
     7
370
    15
100
AcDbLine
 10
809.0319873142
 20
1028.5013474433
 30
0.0
 11
809.8531605053
 21
1029.9236632793
 31
0.0
  0
LINE
  5
19D
330
1F
100
AcDbEntity
  8
0
  6
Continuous
 62
     7
370
    15
100
AcDbLine
 10
809.8531605053
 20
1046.4236594646
 30
0.0
 11
809.0319873142
 21
1047.8459753005
 31
0.0
  0
LINE
  5
19E
330
1F
100
AcDbEntity
  8
0
  6
Continuous
 62
     7
370
    15
100
AcDbLine
 10
800.2743215608
 20
270.7054771392
 30
0.0
 11
799.4531483697
 21
269.2831613033
 31
0.0
  0
LINE
  5
19F
330
1F
100
AcDbEntity
  8
0
  6
Continuous
 62
     7
370
    15
100
AcDbLine
 10
799.4531483697
 20
252.783165118
 30
0.0
 11
800.2743215608
 21
251.360849282
 31
0.0
  0
LINE
  5
1A0
330
1F
100
AcDbEntity
  8
0
  6
Continuous
 62
     7
370
    15
100
AcDbLine
 10
809.0320320177
 20
251.360938689
 30
0.0
 11
809.8531605053
 21
252.783165118
 31
0.0
  0
LINE
  5
1A1
330
1F
100
AcDbEntity
  8
0
  6
Continuous
 62
     7
370
    15
100
AcDbLine
 10
809.8531605053
 20
269.2831613033
 30
0.0
 11
809.0320320177
 21
270.7053877323
 31
0.0
  0
LINE
  5
1A2
330
1F
100
AcDbEntity
  8
0
  6
Continuous
 62
     7
370
    15
100
AcDbLine
 10
799.4531483697
 20
1044.1736735313
 30
0.0
 11
764.3531502533
 21
1044.1736735313
 31
0.0
  0
LINE
  5
1A3
330
1F
100
AcDbEntity
  8
0
  6
Continuous
 62
     7
370
    15
100
AcDbLine
 10
764.3531502533
 20
1032.1736492126
 30
0.0
 11
799.4531483697
 21
1032.1736492126
 31
0.0
  0
LINE
  5
1A4
330
1F
100
AcDbEntity
  8
0
  6
Continuous
 62
     7
370
    15
100
AcDbLine
 10
917.3531529802
 20
1044.1736735313
 30
0.0
 11
819.1675857949
 21
1044.1736735313
 31
0.0
  0
LINE
  5
1A5
330
1F
100
AcDbEntity
  8
0
  6
Continuous
 62
     7
370
    15
100
AcDbLine
 10
819.9859128642
 20
1032.1736492126
 30
0.0
 11
917.3531529802
 21
1032.1736492126
 31
0.0
  0
LINE
  5
1A6
330
1F
100
AcDbEntity
  8
0
  6
Continuous
 62
     7
370
    15
100
AcDbLine
 10
799.4531483697
 20
267.03317537
 30
0.0
 11
764.3531502533
 21
267.03317537
 31
0.0
  0
LINE
  5
1A7
330
1F
100
AcDbEntity
  8
0
  6
Continuous
 62
     7
370
    15
100
AcDbLine
 10
764.3531502533
 20
255.0331510513
 30
0.0
 11
799.4531483697
 21
255.0331510513
 31
0.0
  0
LINE
  5
1A8
330
1F
100
AcDbEntity
  8
0
  6
Continuous
 62
     7
370
    15
100
AcDbLine
 10
917.3531529802
 20
267.03317537
 30
0.0
 11
819.9859128642
 21
267.03317537
 31
0.0
  0
LINE
  5
1A9
330
1F
100
AcDbEntity
  8
0
  6
Continuous
 62
     7
370
    15
100
AcDbLine
 10
819.1675857949
 20
255.0331510513
 30
0.0
 11
917.3531529802
 21
255.0331510513
 31
0.0
  0
LINE
  5
1AA
330
1F
100
AcDbEntity
  8
0
  6
Continuous
 62
     7
370
    15
100
AcDbLine
 10
809.8531605053
 20
1122.1425987689
 30
0.0
 11
812.3531581211
 21
1122.1425987689
 31
0.0
  0
LINE
  5
1AB
330
1F
100
AcDbEntity
  8
0
  6
Continuous
 62
     7
370
    15
100
AcDbLine
 10
812.3531581211
 20
1146.1425878017
 30
0.0
 11
809.8531605053
 21
1146.1425878017
 31
0.0
  0
LINE
  5
1AC
330
1F
100
AcDbEntity
  8
0
  6
Continuous
 62
     7
370
    15
100
AcDbLine
 10
809.8531605053
 20
153.0642367809
 30
0.0
 11
812.3531581211
 21
153.0642367809
 31
0.0
  0
LINE
  5
1AD
330
1F
100
AcDbEntity
  8
0
  6
Continuous
 62
     7
370
    15
100
AcDbLine
 10
812.3531581211
 20
177.0642258136
 30
0.0
 11
809.8531605053
 21
177.0642258136
 31
0.0
  0
LINE
  5
1AE
330
1F
100
AcDbEntity
  8
0
  6
Continuous
 62
     7
370
    15
100
AcDbLine
 10
800.0228793668
 20
1143.3793760745
 30
0.0
 11
799.4531483697
 21
1142.392591378
 31
0.0
  0
LINE
  5
1AF
330
1F
100
AcDbEntity
  8
0
  6
Continuous
 62
     7
370
    15
100
AcDbLine
 10
799.4531483697
 20
1125.8925951927
 30
0.0
 11
800.0253529596
 21
1124.9014891593
 31
0.0
  0
LINE
  5
1B0
330
1F
100
AcDbEntity
  8
0
  6
Continuous
 62
     7
370
    15
100
AcDbLine
 10
809.2808814096
 20
1124.90136995
 30
0.0
 11
809.8531605053
 21
1125.8925951927
 31
0.0
  0
LINE
  5
1B1
330
1F
100
AcDbEntity
  8
0
  6
Continuous
 62
     7
370
    15
100
AcDbLine
 10
809.8531605053
 20
1142.392591378
 30
0.0
 11
809.2834742117
 21
1143.3792866676
 31
0.0
  0
LINE
  5
1B2
330
1F
100
AcDbEntity
  8
0
  6
Continuous
 62
     7
370
    15
100
AcDbLine
 10
800.0228346634
 20
174.3009544818
 30
0.0
 11
799.4531483697
 21
173.3142293899
 31
0.0
  0
LINE
  5
1B3
330
1F
100
AcDbEntity
  8
0
  6
Continuous
 62
     7
370
    15
100
AcDbLine
 10
799.4531483697
 20
156.8142332046
 30
0.0
 11
800.0254274654
 21
155.8230377643
 31
0.0
  0
LINE
  5
1B4
330
1F
100
AcDbEntity
  8
0
  6
Continuous
 62
     7
370
    15
100
AcDbLine
 10
809.2809410142
 20
155.8231569736
 30
0.0
 11
809.8531605053
 21
156.8142332046
 31
0.0
  0
LINE
  5
1B5
330
1F
100
AcDbEntity
  8
0
  6
Continuous
 62
     7
370
    15
100
AcDbLine
 10
809.8531605053
 20
173.3142293899
 30
0.0
 11
809.2834295082
 21
174.3010140865
 31
0.0
  0
LINE
  5
1B6
330
1F
100
AcDbEntity
  8
0
  6
Continuous
 62
     7
370
    15
100
AcDbLine
 10
799.4531483697
 20
1140.1425756423
 30
0.0
 11
764.3531502533
 21
1140.1425756423
 31
0.0
  0
LINE
  5
1B7
330
1F
100
AcDbEntity
  8
0
  6
Continuous
 62
     7
370
    15
100
AcDbLine
 10
764.3531502533
 20
1128.142581126
 30
0.0
 11
799.4531483697
 21
1128.142581126
 31
0.0
  0
LINE
  5
1B8
330
1F
100
AcDbEntity
  8
0
  6
Continuous
 62
     7
370
    15
100
AcDbLine
 10
917.3531529802
 20
1140.1425756423
 30
0.0
 11
819.0530629205
 21
1140.1425756423
 31
0.0
  0
LINE
  5
1B9
330
1F
100
AcDbEntity
  8
0
  6
Continuous
 62
     7
370
    15
100
AcDbLine
 10
820.1625139761
 20
1128.142581126
 30
0.0
 11
917.3531529802
 21
1128.142581126
 31
0.0
  0
LINE
  5
1BA
330
1F
100
AcDbEntity
  8
0
  6
Continuous
 62
     7
370
    15
100
AcDbLine
 10
799.4531483697
 20
171.0642434566
 30
0.0
 11
764.3531502533
 21
171.0642434566
 31
0.0
  0
LINE
  5
1BB
330
1F
100
AcDbEntity
  8
0
  6
Continuous
 62
     7
370
    15
100
AcDbLine
 10
764.3531502533
 20
159.0642489402
 30
0.0
 11
799.4531483697
 21
159.0642489402
 31
0.0
  0
LINE
  5
1BC
330
1F
100
AcDbEntity
  8
0
  6
Continuous
 62
     7
370
    15
100
AcDbLine
 10
917.3531529802
 20
171.0642434566
 30
0.0
 11
820.1625065255
 21
171.0642434566
 31
0.0
  0
LINE
  5
1BD
330
1F
100
AcDbEntity
  8
0
  6
Continuous
 62
     7
370
    15
100
AcDbLine
 10
819.0530629205
 20
159.0642489402
 30
0.0
 11
917.3531529802
 21
159.0642489402
 31
0.0
  0
LINE
  5
1BE
330
1F
100
AcDbEntity
  8
0
  6
Continuous
 62
     7
370
    15
100
AcDbLine
 10
809.2834295082
 20
174.3010140865
 30
0.0
 11
809.2808814096
 21
174.3054546325
 31
0.0
  0
LINE
  5
1BF
330
1F
100
AcDbEntity
  8
0
  6
Continuous
 62
     7
370
    15
100
AcDbLine
 10
800.0253529596
 20
174.3053354232
 30
0.0
 11
800.0228346634
 21
174.3009544818
 31
0.0
  0
LINE
  5
1C0
330
1F
100
AcDbEntity
  8
0
  6
Continuous
 62
     7
370
    15
100
AcDbLine
 10
800.2743215608
 20
1047.8459753005
 30
0.0
 11
800.2742619562
 21
1047.8458858936
 31
0.0
  0
LINE
  5
1C1
330
1F
100
AcDbEntity
  8
0
  6
Continuous
 62
     7
370
    15
100
AcDbLine
 10
809.0319873142
 20
251.360849282
 30
0.0
 11
809.0320320177
 21
251.360938689
 31
0.0
  0
LINE
  5
1C2
330
1F
100
AcDbEntity
  8
0
  6
Continuous
 62
     7
370
    15
100
AcDbLine
 10
799.9029399204
 20
856.2145836561
 30
0.0
 11
799.9040277052
 21
856.2126912086
 31
0.0
  0
LINE
  5
1C3
330
1F
100
AcDbEntity
  8
0
  6
Continuous
 62
     7
370
    15
100
AcDbLine
 10
809.4033689546
 20
442.9922409265
 30
0.0
 11
809.4022811699
 21
442.994133374
 31
0.0
  0
LINE
  5
1C4
330
1F
100
AcDbEntity
  8
0
  6
Continuous
 62
     7
370
    15
100
AcDbLine
 10
942.3531533527
 20
649.6034122913
 30
0.0
 11
942.3531533527
 21
1212.1034122913
 31
0.0
  0
LINE
  5
1C5
330
1F
100
AcDbEntity
  8
0
  6
Continuous
 62
     7
370
    15
100
AcDbLine
 10
942.3531533527
 20
87.1034122913
 30
0.0
 11
942.3531533527
 21
649.6034122913
 31
0.0
  0
LINE
  5
1C6
330
1F
100
AcDbEntity
  8
0
  6
Continuous
 62
     7
370
    15
100
AcDbLine
 10
917.3531529802
 20
649.6034122913
 30
0.0
 11
917.3531529802
 21
1212.1034122913
 31
0.0
  0
LINE
  5
1C7
330
1F
100
AcDbEntity
  8
0
  6
Continuous
 62
     7
370
    15
100
AcDbLine
 10
917.3531529802
 20
87.1034122913
 30
0.0
 11
917.3531529802
 21
649.6034122913
 31
0.0
  0
LINE
  5
1C8
330
1F
100
AcDbEntity
  8
0
  6
Continuous
 62
     7
370
    15
100
AcDbLine
 10
812.3531581211
 20
649.6034122913
 30
0.0
 11
812.3531581211
 21
1160.6033898799
 31
0.0
  0
LINE
  5
1C9
330
1F
100
AcDbEntity
  8
0
  6
Continuous
 62
     7
370
    15
100
AcDbLine
 10
812.3531581211
 20
138.6034347026
 30
0.0
 11
812.3531581211
 21
649.6034122913
 31
0.0
  0
LINE
  5
1CA
330
1F
100
AcDbEntity
  8
0
  6
Continuous
 62
     7
370
    15
100
AcDbLine
 10
809.8531605053
 20
637.603412187
 30
0.0
 11
809.8531605053
 21
661.6034123956
 31
0.0
  0
SPLINE
  5
1CB
330
1F
100
AcDbEntity
  8
0
  6
Continuous
 62
     7
370
    15
100
AcDbSpline
210
0.0
220
0.0
230
1.0
 70
     8
 71
     3
 72
    27
 73
    23
 74
     0
 42
0.00000001
 43
0.00000001
 12
1.0
 22
0.0
 32
0.0
 13
1.0
 23
0.0
 33
0.0
 40
0.0
 40
0.0
 40
0.0
 40
0.0
 40
0.0210337214533519
 40
0.0705277954736698
 40
0.1241817820943148
 40
0.1778371185540651
 40
0.2316896117986311
 40
0.2855428401455112
 40
0.3395242946075936
 40
0.3935044463488097
 40
0.4474871727243048
 40
0.5014680072082023
 40
0.5553247875098216
 40
0.6091805734744182
 40
0.6628433741304743
 40
0.7165072831590855
 40
0.7699922225905705
 40
0.8234763888725051
 40
0.8768751892879445
 40
0.9302746249359358
 40
0.9837139421086892
 40
0.9999999999999999
 40
0.9999999999999999
 40
0.9999999999999999
 40
0.9999999999999999
 10
819.9859128641677
 20
1032.191620012982
 30
0.0
 10
819.9789179563834
 20
1032.187518022997
 30
0.0
 10
819.9554634561099
 20
1032.173763713694
 30
0.0
 10
819.9037708165505
 20
1032.305842783337
 30
0.0
 10
819.8319810620854
 20
1032.597327319167
 30
0.0
 10
819.7505551466456
 20
1033.061236133846
 30
0.0
 10
819.6643059330498
 20
1033.670922801261
 30
0.0
 10
819.5755245742505
 20
1034.40799474345
 30
0.0
 10
819.4868494634005
 20
1035.255102512956
 30
0.0
 10
819.4007074045317
 20
1036.18484763417
 30
0.0
 10
819.3197856353462
 20
1037.173065944488
 30
0.0
 10
819.2461263516412
 20
1038.189122819387
 30
0.0
 10
819.1821568323593
 20
1039.204572301136
 30
0.0
 10
819.1292682998678
 20
1040.189834792665
 30
0.0
 10
819.0893696809806
 20
1041.115853482561
 30
0.0
 10
819.0630018432248
 20
1041.958224783106
 30
0.0
 10
819.051356205893
 20
1042.690592914312
 30
0.0
 10
819.054209291639
 20
1043.295902375055
 30
0.0
 10
819.0717379890449
 20
1043.756551007034
 30
0.0
 10
819.1039053076994
 20
1044.050617507064
 30
0.0
 10
819.1366006746282
 20
1044.181921765244
 30
0.0
 10
819.1617188369131
 20
1044.160377330061
 30
0.0
 10
819.1675857948852
 20
1044.155345103009
 30
0.0
  0
SPLINE
  5
1CC
330
1F
100
AcDbEntity
  8
0
  6
Continuous
 62
     7
370
    15
100
AcDbSpline
210
0.0
220
0.0
230
1.0
 70
     8
 71
     3
 72
    27
 73
    23
 74
     0
 42
0.00000001
 43
0.00000001
 12
1.0
 22
0.0
 32
0.0
 13
1.0
 23
0.0
 33
0.0
 40
0.0
 40
0.0
 40
0.0
 40
0.0
 40
0.0301026007611296
 40
0.0839494061071063
 40
0.1377950373882681
 40
0.1917730855735065
 40
0.2457518407021304
 40
0.299736921311167
 40
0.3537205810695228
 40
0.4075868774995702
 40
0.4614510913199162
 40
0.5151237395551456
 40
0.5687957091567261
 40
0.622288716212132
 40
0.675780137170548
 40
0.7291807584993683
 40
0.7825808018016535
 40
0.8360168925511963
 40
0.8894518291563528
 40
0.9430339987817383
 40
0.9966158128583711
 40
1.0
 40
1.0
 40
1.0
 40
1.0
 10
819.8023901629043
 20
859.2648811547589
 30
0.0
 10
819.7875350037707
 20
859.2617366817421
 30
0.0
 10
819.7461072946901
 20
859.2529674513236
 30
0.0
 10
819.6719707439413
 20
859.4289994819492
 30
0.0
 10
819.5835428785198
 20
859.7677005591546
 30
0.0
 10
819.4947049994084
 20
860.2740788825399
 30
0.0
 10
819.4082382706481
 20
860.9179651229091
 30
0.0
 10
819.3267633754738
 20
861.6890356453224
 30
0.0
 10
819.2523422438143
 20
862.5594782966299
 30
0.0
 10
819.1874486732005
 20
863.5081914176403
 30
0.0
 10
819.1334920607485
 20
864.5042333498905
 30
0.0
 10
819.092402845196
 20
865.5211295180632
 30
0.0
 10
819.0647554198782
 20
866.5284496261829
 30
0.0
 10
819.0518243894654
 20
867.4976712276106
 30
0.0
 10
819.0533122463382
 20
868.4029916312828
 30
0.0
 10
819.069719468194
 20
869.2165402421379
 30
0.0
 10
819.0999994016705
 20
869.920285097067
 30
0.0
 10
819.1438955203155
 20
870.4880480909785
 30
0.0
 10
819.1995469529379
 20
870.9164757881607
 30
0.0
 10
819.2666894475827
 20
871.1629530799141
 30
0.0
 10
819.3171345401496
 20
871.2682928458848
 30
0.0
 10
819.3461230192459
 20
871.2402415677956
 30
0.0
 10
819.3478451418472
 20
871.2385751216244
 30
0.0
  0
SPLINE
  5
1CD
330
1F
100
AcDbEntity
  8
0
  6
Continuous
 62
     7
370
    15
100
AcDbSpline
210
0.0
220
0.0
230
1.0
 70
     8
 71
     3
 72
    27
 73
    23
 74
     0
 42
0.00000001
 43
0.00000001
 12
1.0
 22
0.0
 32
0.0
 13
1.0
 23
0.0
 33
0.0
 40
0.0
 40
0.0
 40
0.0
 40
0.0
 40
0.0079510722711239
 40
0.0619375918424006
 40
0.1159259271205495
 40
0.1699027125451542
 40
0.2238780903387276
 40
0.2777247687683361
 40
0.3315672597300772
 40
0.3852172767395121
 40
0.4388650003635003
 40
0.4923407884105158
 40
0.5458164854221321
 40
0.5992144427067843
 40
0.6526131795797868
 40
0.7060616532003992
 40
0.7595121399707048
 40
0.8131161661704146
 40
0.8667226368408986
 40
0.9205253315006926
 40
0.9743289242960127
 40
1.0
 40
1.0
 40
1.0
 40
1.0
 10
819.5747823762489
 20
655.5925717486572
 30
0.0
 10
819.570428499942
 20
655.5960507641103
 30
0.0
 10
819.5365124940956
 20
655.6231517426711
 30
0.0
 10
819.4731198104528
 20
655.5073120806411
 30
0.0
 10
819.3876333708811
 20
655.2414001854077
 30
0.0
 10
819.3077184144992
 20
654.7943028812608
 30
0.0
 10
819.2354135942168
 20
654.2062148569687
 30
0.0
 10
819.1731108614375
 20
653.4828226916844
 30
0.0
 10
819.1221242892423
 20
652.652200443948
 30
0.0
 10
819.0843287106013
 20
651.7335310586512
 30
0.0
 10
819.0601781283177
 20
650.7572738584818
 30
0.0
 10
819.0508611904568
 20
649.7485369967071
 30
0.0
 10
819.055969133623
 20
648.7373123667294
 30
0.0
 10
819.0759179692558
 20
647.751708908793
 30
0.0
 10
819.1095677467779
 20
646.8177187996777
 30
0.0
 10
819.1565403336878
 20
645.9640099513106
 30
0.0
 10
819.2150991485449
 20
645.2100423473262
 30
0.0
 10
819.2840941415312
 20
644.5828758340892
 30
0.0
 10
819.3613265944883
 20
644.0913389138035
 30
0.0
 10
819.4449482606195
 20
643.7680788555972
 30
0.0
 10
819.5171472732634
 20
643.6062367913319
 30
0.0
 10
819.5607559594525
 20
643.6204956103862
 30
0.0
 10
819.5748419808937
 20
643.6251013448965
 30
0.0
  0
SPLINE
  5
1CE
330
1F
100
AcDbEntity
  8
0
  6
Continuous
 62
     7
370
    15
100
AcDbSpline
210
0.0
220
0.0
230
1.0
 70
     8
 71
     3
 72
    27
 73
    23
 74
     0
 42
0.00000001
 43
0.00000001
 12
1.0
 22
0.0
 32
0.0
 13
1.0
 23
0.0
 33
0.0
 40
0.0
 40
0.0
 40
0.0
 40
0.0
 40
0.0301026007611296
 40
0.0839494061071063
 40
0.1377950373882681
 40
0.1917730855735065
 40
0.2457518407021304
 40
0.299736921311167
 40
0.3537205810695228
 40
0.4075868774995702
 40
0.4614510913199162
 40
0.5151237395551456
 40
0.5687957091567261
 40
0.622288716212132
 40
0.675780137170548
 40
0.7291807584993683
 40
0.7825808018016535
 40
0.8360168925511963
 40
0.8894518291563528
 40
0.9430339987817383
 40
0.9966158128583711
 40
1.0
 40
1.0
 40
1.0
 40
1.0
 10
819.8023901629043
 20
439.9419434277843
 30
0.0
 10
819.7875350037707
 20
439.9450879008011
 30
0.0
 10
819.7461072946901
 20
439.9538571312196
 30
0.0
 10
819.6719707439413
 20
439.777825100594
 30
0.0
 10
819.5835428785198
 20
439.4391240233886
 30
0.0
 10
819.4947049994084
 20
438.9327457000033
 30
0.0
 10
819.4082382706481
 20
438.2888594596341
 30
0.0
 10
819.3267633754738
 20
437.5177889372208
 30
0.0
 10
819.2523422438143
 20
436.6473462859132
 30
0.0
 10
819.1874486732005
 20
435.6986331649028
 30
0.0
 10
819.1334920607485
 20
434.7025912326528
 30
0.0
 10
819.092402845196
 20
433.68569506448
 30
0.0
 10
819.0647554198782
 20
432.6783749563603
 30
0.0
 10
819.0518243894654
 20
431.7091533549327
 30
0.0
 10
819.0533122463382
 20
430.8038329512605
 30
0.0
 10
819.069719468194
 20
429.9902843404054
 30
0.0
 10
819.0999994016705
 20
429.2865394854762
 30
0.0
 10
819.1438955203155
 20
428.7187764915648
 30
0.0
 10
819.1995469529379
 20
428.2903487943826
 30
0.0
 10
819.2666894475827
 20
428.0438715026291
 30
0.0
 10
819.3171345401496
 20
427.9385317366585
 30
0.0
 10
819.3461230192459
 20
427.9665830147476
 30
0.0
 10
819.3478451418472
 20
427.9682494609188
 30
0.0
  0
SPLINE
  5
1CF
330
1F
100
AcDbEntity
  8
0
  6
Continuous
 62
     7
370
    15
100
AcDbSpline
210
0.0
220
0.0
230
1.0
 70
     8
 71
     3
 72
    27
 73
    23
 74
     0
 42
0.00000001
 43
0.00000001
 12
1.0
 22
0.0
 32
0.0
 13
1.0
 23
0.0
 33
0.0
 40
0.0
 40
0.0
 40
0.0
 40
0.0
 40
0.0210337214533519
 40
0.0705277954736698
 40
0.1241817820943148
 40
0.1778371185540651
 40
0.2316896117986311
 40
0.2855428401455112
 40
0.3395242946075936
 40
0.3935044463488097
 40
0.4474871727243048
 40
0.5014680072082023
 40
0.5553247875098216
 40
0.6091805734744182
 40
0.6628433741304743
 40
0.7165072831590855
 40
0.7699922225905705
 40
0.8234763888725051
 40
0.8768751892879445
 40
0.9302746249359358
 40
0.9837139421086892
 40
0.9999999999999999
 40
0.9999999999999999
 40
0.9999999999999999
 40
0.9999999999999999
 10
819.9859128641677
 20
267.0152045695614
 30
0.0
 10
819.9789179563834
 20
267.0193065595459
 30
0.0
 10
819.9554634561099
 20
267.033060868849
 30
0.0
 10
819.9037708165505
 20
266.9009817992062
 30
0.0
 10
819.8319810620854
 20
266.6094972633764
 30
0.0
 10
819.7505551466456
 20
266.1455884486973
 30
0.0
 10
819.6643059330498
 20
265.535901781282
 30
0.0
 10
819.5755245742505
 20
264.7988298390938
 30
0.0
 10
819.4868494634005
 20
263.9517220695869
 30
0.0
 10
819.4007074045317
 20
263.0219769483736
 30
0.0
 10
819.3197856353462
 20
262.033758638055
 30
0.0
 10
819.2461263516412
 20
261.0177017631563
 30
0.0
 10
819.1821568323593
 20
260.0022522814069
 30
0.0
 10
819.1292682998678
 20
259.0169897898783
 30
0.0
 10
819.0893696809806
 20
258.0909710999827
 30
0.0
 10
819.0630018432248
 20
257.2485997994373
 30
0.0
 10
819.051356205893
 20
256.5162316682316
 30
0.0
 10
819.054209291639
 20
255.9109222074882
 30
0.0
 10
819.0717379890449
 20
255.4502735755092
 30
0.0
 10
819.1039053076994
 20
255.1562070754796
 30
0.0
 10
819.1366006746282
 20
255.0249028172989
 30
0.0
 10
819.1617188369131
 20
255.0464472524822
 30
0.0
 10
819.1675857948852
 20
255.0514794795345
 30
0.0
  0
SPLINE
  5
1D0
330
1F
100
AcDbEntity
  8
0
  6
Continuous
 62
     7
370
    15
100
AcDbSpline
210
0.0
220
0.0
230
1.0
 70
     8
 71
     3
 72
    24
 73
    20
 74
     0
 42
0.00000001
 43
0.00000001
 12
1.0
 22
0.0
 32
0.0
 13
1.0
 23
0.0
 33
0.0
 40
0.0
 40
0.0
 40
0.0
 40
0.0
 40
0.0585791642587632
 40
0.117159681646979
 40
0.1777438042114813
 40
0.2383292128223905
 40
0.2991364752077398
 40
0.3599436188899646
 40
0.4208901259829037
 40
0.4818346368181955
 40
0.5427741931818655
 40
0.6037129139661267
 40
0.6645076186648674
 40
0.7252996159045114
 40
0.7858734691264478
 40
0.8464466889278645
 40
0.9068223805755352
 40
0.9671979941717914
 40
1.0
 40
1.0
 40
1.0
 40
1.0
 10
820.0150148319793
 20
170.6809259860348
 30
0.0
 10
819.9979777489123
 20
170.551540982475
 30
0.0
 10
819.9639031892356
 20
170.2927679866708
 30
0.0
 10
819.898826591487
 20
169.7219141814673
 30
0.0
 10
819.8248800176482
 20
169.0250388438733
 30
0.0
 10
819.743007741186
 20
168.2069497274559
 30
0.0
 10
819.6564009691707
 20
167.2979614081557
 30
0.0
 10
819.5675353441158
 20
166.3248029427265
 30
0.0
 10
819.4789872681158
 20
165.3142134020473
 30
0.0
 10
819.393214915349
 20
164.2956254334708
 30
0.0
 10
819.3128496161513
 20
163.2990833873477
 30
0.0
 10
819.239968075773
 20
162.3522578682147
 30
0.0
 10
819.1769407451051
 20
161.4847955648158
 30
0.0
 10
819.1251354880264
 20
160.7184289068138
 30
0.0
 10
819.0864770462016
 20
160.0795497337475
 30
0.0
 10
819.0612252214107
 20
159.5782805194897
 30
0.0
 10
819.0514613568605
 20
159.2443395845541
 30
0.0
 10
819.05323432424
 20
159.0722316238239
 30
0.0
 10
819.0640571757812
 20
159.0820878430432
 30
0.0
 10
819.067867224176
 20
159.0855576007199
 30
0.0
  0
SPLINE
  5
1D1
330
1F
100
AcDbEntity
  8
0
  6
Continuous
 62
     7
370
    15
100
AcDbSpline
210
0.0
220
0.0
230
1.0
 70
     8
 71
     3
 72
    24
 73
    20
 74
     0
 42
0.00000001
 43
0.00000001
 12
1.0
 22
0.0
 32
0.0
 13
1.0
 23
0.0
 33
0.0
 40
0.0
 40
0.0
 40
0.0
 40
0.0
 40
0.0179615672338221
 40
0.0784134949151168
 40
0.138722029021906
 40
0.1990304233838193
 40
0.2593315772834229
 40
0.3196332383862233
 40
0.3800628344842701
 40
0.4404958595828734
 40
0.5011389285763255
 40
0.5617835140428162
 40
0.6226350412899356
 40
0.6834858045059898
 40
0.7444449994184317
 40
0.8054053860539682
 40
0.8663285416291637
 40
0.9272506880183218
 40
0.9999999999999999
 40
0.9999999999999999
 40
0.9999999999999999
 40
0.9999999999999999
 10
819.0675915526939
 20
1140.124396225674
 30
0.0
 10
819.0652443069861
 20
1140.12942198426
 30
0.0
 10
819.0549971087887
 20
1140.151362569408
 30
0.0
 10
819.0512193412795
 20
1140.020450529839
 30
0.0
 10
819.0573871792683
 20
1139.726603113851
 30
0.0
 10
819.0788202598327
 20
1139.266483358648
 30
0.0
 10
819.1141441628735
 20
1138.66252657459
 30
0.0
 10
819.1622336522029
 20
1137.932932325491
 30
0.0
 10
819.2221854804471
 20
1137.094538060642
 30
0.0
 10
819.2920034028467
 20
1136.173396960664
 30
0.0
 10
819.3701537411098
 20
1135.193131331919
 30
0.0
 10
819.4542520775818
 20
1134.181878268663
 30
0.0
 10
819.5420874257746
 20
1133.168621479055
 30
0.0
 10
819.631156438216
 20
1132.180850090803
 30
0.0
 10
819.7188315080446
 20
1131.249740926263
 30
0.0
 10
819.8027479851269
 20
1130.398145099825
 30
0.0
 10
819.8799324770946
 20
1129.658873912021
 30
0.0
 10
819.9541170223251
 20
1128.992590647718
 30
0.0
 10
819.9935524871487
 20
1128.690375870645
 30
0.0
 10
820.0150148319793
 20
1128.525898596509
 30
0.0
  0
LINE
  5
1D2
330
1F
100
AcDbEntity
  8
0
  6
Continuous
 62
     7
370
    15
100
AcDbLine
 10
800.6900192546
 20
654.7995645462
 30
0.0
 11
808.6162896204
 21
654.7995645462
 31
0.0
  0
SPLINE
  5
1D3
330
1F
100
AcDbEntity
  8
0
  6
Continuous
 62
     7
370
    15
100
AcDbSpline
210
0.0
220
0.0
230
1.0
 70
     8
 71
     3
 72
    14
 73
    10
 74
     0
 42
0.00000001
 43
0.00000001
 12
1.0
 22
0.0
 32
0.0
 13
1.0
 23
0.0
 33
0.0
 40
0.0
 40
0.0
 40
0.0
 40
0.0
 40
0.1331915641689503
 40
0.2578378332932976
 40
0.3824532145511209
 40
0.5101672493873323
 40
0.6378834002077941
 40
0.8180584197732661
 40
1.0
 40
1.0
 40
1.0
 40
1.0
 10
808.616289620359
 20
654.7995645462107
 30
0.0
 10
808.739544296194
 20
654.3476065235122
 30
0.0
 10
808.978145883005
 20
653.4726871692784
 30
0.0
 10
809.2309755101397
 20
652.1505380599342
 30
0.0
 10
809.3907613442681
 20
650.8335400984688
 30
0.0
 10
809.4385928076127
 20
649.4962485884748
 30
0.0
 10
809.3614937366673
 20
647.965095395735
 30
0.0
 10
809.1096174734689
 20
646.2566447587949
 30
0.0
 10
808.7812661843757
 20
645.0257232654678
 30
0.0
 10
808.616289620359
 20
644.4072600363326
 30
0.0
  0
LINE
  5
1D4
330
1F
100
AcDbEntity
  8
0
  6
Continuous
 62
     7
370
    15
100
AcDbLine
 10
800.6900192546
 20
644.4072600363
 30
0.0
 11
808.6162896204
 21
644.4072600363
 31
0.0
  0
SPLINE
  5
1D5
330
1F
100
AcDbEntity
  8
0
  6
Continuous
 62
     7
370
    15
100
AcDbSpline
210
0.0
220
0.0
230
1.0
 70
     8
 71
     3
 72
    14
 73
    10
 74
     0
 42
0.00000001
 43
0.00000001
 12
1.0
 22
0.0
 32
0.0
 13
1.0
 23
0.0
 33
0.0
 40
0.0
 40
0.0
 40
0.0
 40
0.0
 40
0.1803121012827022
 40
0.3621158452978184
 40
0.4866234883954041
 40
0.6111286338031456
 40
0.7389515120678165
 40
0.866808506167259
 40
1.0
 40
1.0
 40
1.0
 40
1.0
 10
800.690019254644
 20
644.4072600363326
 30
0.0
 10
800.5264183848489
 20
645.0201451234675
 30
0.0
 10
800.1978632471964
 20
646.2509854265836
 30
0.0
 10
799.9467948757198
 20
647.9481950259245
 30
0.0
 10
799.8688967906462
 20
649.4623439652244
 30
0.0
 10
799.912031097833
 20
650.7883987413779
 30
0.0
 10
800.069286714421
 20
652.1171664330467
 30
0.0
 10
800.3252212128044
 20
653.4617866225118
 30
0.0
 10
800.5667745347089
 20
654.3476047036899
 30
0.0
 10
800.690019254644
 20
654.7995645462107
 30
0.0
  0
SPLINE
  5
1D6
330
1F
100
AcDbEntity
  8
0
  6
Continuous
 62
     7
370
    15
100
AcDbSpline
210
0.0
220
0.0
230
1.0
 70
     8
 71
     3
 72
    15
 73
    11
 74
     0
 42
0.00000001
 43
0.00000001
 12
1.0
 22
0.0
 32
0.0
 13
1.0
 23
0.0
 33
0.0
 40
0.0
 40
0.0
 40
0.0
 40
0.0
 40
0.1323061434687505
 40
0.2645750717055955
 40
0.3997994825017945
 40
0.5350030096811443
 40
0.6501912056011412
 40
0.7654019235864683
 40
0.8826912396046188
 40
1.0
 40
1.0
 40
1.0
 40
1.0
 10
808.616289620359
 20
644.4072600363326
 30
0.0
 10
808.7386628676237
 20
644.1827644620652
 30
0.0
 10
808.9833749408583
 20
643.7338364599168
 30
0.0
 10
809.2466392615124
 20
643.0425448437168
 30
0.0
 10
809.4049763187074
 20
642.3381788783762
 30
0.0
 10
809.4363150469205
 20
641.6593854834819
 30
0.0
 10
809.3549779851667
 20
641.0172051436002
 30
0.0
 10
809.1883023233489
 20
640.4111931681142
 30
0.0
 10
808.9438243882981
 20
639.807910711543
 30
0.0
 10
808.7254739089103
 20
639.4100530834257
 30
0.0
 10
808.616289620359
 20
639.2111077813935
 30
0.0
  0
SPLINE
  5
1D7
330
1F
100
AcDbEntity
  8
0
  6
Continuous
 62
     7
370
    15
100
AcDbSpline
210
0.0
220
0.0
230
1.0
 70
     8
 71
     3
 72
    15
 73
    11
 74
     0
 42
0.00000001
 43
0.00000001
 12
1.0
 22
0.0
 32
0.0
 13
1.0
 23
0.0
 33
0.0
 40
0.0
 40
0.0
 40
0.0
 40
0.0
 40
0.1323061386748736
 40
0.2645726155290154
 40
0.3998019070107767
 40
0.535005429291268
 40
0.6501936210376262
 40
0.7654019104584864
 40
0.8826912438550922
 40
1.0
 40
1.0
 40
1.0
 40
1.0
 10
808.616289620359
 20
659.9957168011498
 30
0.0
 10
808.7386622558373
 20
659.7712233118243
 30
0.0
 10
808.9833708427701
 20
659.3223036302817
 30
0.0
 10
809.2466469963047
 20
658.6309764206065
 30
0.0
 10
809.4049729562498
 20
657.9266555450592
 30
0.0
 10
809.4363152794967
 20
657.2478389218783
 30
0.0
 10
809.3549797931087
 20
656.6056717640611
 30
0.0
 10
809.1882995497685
 20
655.9996414354247
 30
0.0
 10
808.9438246872851
 20
655.396368619253
 30
0.0
 10
808.7254740018677
 20
654.998510217001
 30
0.0
 10
808.616289620359
 20
654.7995645462107
 30
0.0
  0
SPLINE
  5
1D8
330
1F
100
AcDbEntity
  8
0
  6
Continuous
 62
     7
370
    15
100
AcDbSpline
210
0.0
220
0.0
230
1.0
 70
     8
 71
     3
 72
    15
 73
    11
 74
     0
 42
0.00000001
 43
0.00000001
 12
1.0
 22
0.0
 32
0.0
 13
1.0
 23
0.0
 33
0.0
 40
0.0
 40
0.0
 40
0.0
 40
0.0
 40
0.1323061434687505
 40
0.2645750717055955
 40
0.3997994825017945
 40
0.5350030096811443
 40
0.6501912056011412
 40
0.7654019235864683
 40
0.8826912396046188
 40
1.0
 40
1.0
 40
1.0
 40
1.0
 10
800.690019254644
 20
654.7995645462107
 30
0.0
 10
800.5676460073793
 20
655.0240601204781
 30
0.0
 10
800.3229339341448
 20
655.4729881226265
 30
0.0
 10
800.0596696134907
 20
656.1642797388264
 30
0.0
 10
799.9013325562956
 20
656.8686457041671
 30
0.0
 10
799.8699938280827
 20
657.5474390990613
 30
0.0
 10
799.9513308898364
 20
658.1896194389429
 30
0.0
 10
800.1180065516542
 20
658.795631414429
 30
0.0
 10
800.362484486705
 20
659.3989138710002
 30
0.0
 10
800.5808349660928
 20
659.7967714991175
 30
0.0
 10
800.690019254644
 20
659.9957168011498
 30
0.0
  0
SPLINE
  5
1D9
330
1F
100
AcDbEntity
  8
0
  6
Continuous
 62
     7
370
    15
100
AcDbSpline
210
0.0
220
0.0
230
1.0
 70
     8
 71
     3
 72
    15
 73
    11
 74
     0
 42
0.00000001
 43
0.00000001
 12
1.0
 22
0.0
 32
0.0
 13
1.0
 23
0.0
 33
0.0
 40
0.0
 40
0.0
 40
0.0
 40
0.0
 40
0.1323061386748736
 40
0.2645726155290154
 40
0.3998019070107767
 40
0.535005429291268
 40
0.6501936210376262
 40
0.7654019104584864
 40
0.8826912438550922
 40
1.0
 40
1.0
 40
1.0
 40
1.0
 10
800.690019254644
 20
639.2111077813935
 30
0.0
 10
800.5676466191658
 20
639.4356012707188
 30
0.0
 10
800.3229380322329
 20
639.8845209522616
 30
0.0
 10
800.0596618786985
 20
640.5758481619367
 30
0.0
 10
799.9013359187533
 20
641.2801690374839
 30
0.0
 10
799.8699935955063
 20
641.9589856606649
 30
0.0
 10
799.9513290818944
 20
642.6011528184822
 30
0.0
 10
800.1180093252347
 20
643.2071831471186
 30
0.0
 10
800.3624841877179
 20
643.8104559632901
 30
0.0
 10
800.5808348731354
 20
644.2083143655422
 30
0.0
 10
800.690019254644
 20
644.4072600363326
 30
0.0
  0
LINE
  5
1DA
330
1F
100
AcDbEntity
  8
0
  6
Continuous
 62
     7
370
    15
100
AcDbLine
 10
799.4531483697
 20
641.353412336
 30
0.0
 11
799.4531483697
 21
657.8534122466
 31
0.0
  0
LINE
  5
1DB
330
1F
100
AcDbEntity
  8
0
  6
Continuous
 62
     7
370
    15
100
AcDbLine
 10
800.6900192546
 20
659.9957168011
 30
0.0
 11
808.6162896204
 21
659.9957168011
 31
0.0
  0
LINE
  5
1DC
330
1F
100
AcDbEntity
  8
0
  6
Continuous
 62
     7
370
    15
100
AcDbLine
 10
800.6900192546
 20
639.2111077814
 30
0.0
 11
808.6162896204
 21
639.2111077814
 31
0.0
  0
LINE
  5
1DD
330
1F
100
AcDbEntity
  8
0
  6
Continuous
 62
     7
370
    15
100
AcDbLine
 10
764.3531502533
 20
643.6034122391
 30
0.0
 11
764.3531502533
 21
655.6034123434
 31
0.0
  0
SPLINE
  5
1DE
330
1F
100
AcDbEntity
  8
0
  6
Continuous
 62
     7
370
    15
100
AcDbSpline
210
0.0
220
0.0
230
1.0
 70
     8
 71
     3
 72
    10
 73
     6
 74
     0
 42
0.00000001
 43
0.00000001
 12
1.0
 22
0.0
 32
0.0
 13
1.0
 23
0.0
 33
0.0
 40
0.0
 40
0.0
 40
0.0
 40
0.0
 40
0.0703167031265508
 40
0.5288721417086653
 40
1.0
 40
1.0
 40
1.0
 40
1.0
 10
820.162506525476
 20
171.053991457684
 30
0.0
 10
820.1602227390292
 20
171.0572211948858
 30
0.0
 10
820.1430457245272
 20
171.0815129769967
 30
0.0
 10
820.0767562206024
 20
170.9804381722556
 30
0.0
 10
820.0357800065589
 20
170.7816594320143
 30
0.0
 10
820.0150148319793
 20
170.6809259860348
 30
0.0
  0
SPLINE
  5
1DF
330
1F
100
AcDbEntity
  8
0
  6
Continuous
 62
     7
370
    15
100
AcDbSpline
210
0.0
220
0.0
230
1.0
 70
     8
 71
     3
 72
    10
 73
     6
 74
     0
 42
0.00000001
 43
0.00000001
 12
1.0
 22
0.0
 32
0.0
 13
1.0
 23
0.0
 33
0.0
 40
0.0
 40
0.0
 40
0.0
 40
0.0
 40
0.4604441708428975
 40
0.9341295804398548
 40
1.0
 40
1.0
 40
1.0
 40
1.0
 10
820.0150148319793
 20
1128.525898596509
 30
0.0
 10
820.0351889090321
 20
1128.427271015724
 30
0.0
 10
820.0761172198377
 20
1128.227179568179
 30
0.0
 10
820.1432999440233
 20
1128.123172381576
 30
0.0
 10
820.1604234879845
 20
1128.149473234711
 30
0.0
 10
820.1625139760566
 20
1128.152684113247
 30
0.0
  0
LINE
  5
1E0
330
1F
100
AcDbEntity
  8
0
  6
Continuous
 62
     7
370
    15
100
AcDbLine
 10
852.3531497764
 20
655.6034123434
 30
0.0
 11
852.3531497764
 21
859.2436320989
 31
0.0
  0
LINE
  5
1E1
330
1F
100
AcDbEntity
  8
0
  6
Continuous
 62
     7
370
    15
100
AcDbLine
 10
852.3531497764
 20
871.2436266153
 30
0.0
 11
852.3531497764
 21
1032.1736492126
 31
0.0
  0
LINE
  5
1E2
330
1F
100
AcDbEntity
  8
0
  6
Continuous
 62
     7
370
    15
100
AcDbLine
 10
852.3531497764
 20
1044.1736735313
 30
0.0
 11
852.3531497764
 21
1128.142581126
 31
0.0
  0
LINE
  5
1E3
330
1F
100
AcDbEntity
  8
0
  6
Continuous
 62
     7
370
    15
100
AcDbLine
 10
852.3531497764
 20
171.0642434566
 30
0.0
 11
852.3531497764
 21
255.0331510513
 31
0.0
  0
LINE
  5
1E4
330
1F
100
AcDbEntity
  8
0
  6
Continuous
 62
     7
370
    15
100
AcDbLine
 10
852.3531497764
 20
267.03317537
 30
0.0
 11
852.3531497764
 21
427.9631979673
 31
0.0
  0
LINE
  5
1E5
330
1F
100
AcDbEntity
  8
0
  6
Continuous
 62
     7
370
    15
100
AcDbLine
 10
852.3531497764
 20
439.9631924836
 30
0.0
 11
852.3531497764
 21
643.6034122391
 31
0.0
  0
LINE
  5
1E6
330
1F
100
AcDbEntity
  8
0
  6
Continuous
 62
     7
370
    15
100
AcDbLine
 10
809.8531605053
 20
853.2436348407
 30
0.0
 11
809.8531605053
 21
877.2436238735
 31
0.0
  0
LINE
  5
1E7
330
1F
100
AcDbEntity
  8
0
  6
Continuous
 62
     7
370
    15
100
AcDbLine
 10
809.8531605053
 20
444.7748221366
 30
0.0
 11
809.8531605053
 21
445.9631897418
 31
0.0
  0
LINE
  5
1E8
330
1F
100
AcDbEntity
  8
0
  6
Continuous
 62
     7
370
    15
100
AcDbLine
 10
809.8531605053
 20
421.9632007091
 30
0.0
 11
809.8531605053
 21
444.7748221366
 31
0.0
  0
LINE
  5
1E9
330
1F
100
AcDbEntity
  8
0
  6
Continuous
 62
     7
370
    15
100
AcDbLine
 10
800.6900192546
 20
873.8301552741
 30
0.0
 11
808.6162896204
 21
873.8301552741
 31
0.0
  0
SPLINE
  5
1EA
330
1F
100
AcDbEntity
  8
0
  6
Continuous
 62
     7
370
    15
100
AcDbSpline
210
0.0
220
0.0
230
1.0
 70
     8
 71
     3
 72
    16
 73
    12
 74
     0
 42
0.00000001
 43
0.00000001
 12
1.0
 22
0.0
 32
0.0
 13
1.0
 23
0.0
 33
0.0
 40
0.0
 40
0.0
 40
0.0
 40
0.0
 40
0.2500000000000017
 40
0.2500000000000017
 40
0.5000000000000034
 40
0.5000000000000034
 40
0.6250000000000043
 40
0.6250000000000043
 40
0.7500000000000051
 40
0.7500000000000051
 40
1.0
 40
1.0
 40
1.0
 40
1.0
 10
808.6162930735114
 20
873.8301558504875
 30
0.0
 10
808.860268538173
 20
873.0686967850902
 30
0.0
 10
809.0649626058168
 20
872.2886122577962
 30
0.0
 10
809.3448163961425
 20
870.7246325178877
 30
0.0
 10
809.4202248763991
 20
869.9384103712897
 30
0.0
 10
809.4200984302698
 20
868.7516488926497
 30
0.0
 10
809.401406835009
 20
868.3548383673835
 30
0.0
 10
809.3272316746359
 20
867.558803838546
 30
0.0
 10
809.2720552627978
 20
867.1631819073136
 30
0.0
 10
809.0607176968609
 20
865.9904772998013
 30
0.0
 10
808.8587542441894
 20
865.2237448419947
 30
0.0
 10
808.6162910684458
 20
864.4670064611164
 30
0.0
  0
LINE
  5
1EB
330
1F
100
AcDbEntity
  8
0
  6
Continuous
 62
     7
370
    15
100
AcDbLine
 10
800.6900192546
 20
864.467010638
 30
0.0
 11
808.6162896204
 21
864.467010638
 31
0.0
  0
SPLINE
  5
1EC
330
1F
100
AcDbEntity
  8
0
  6
Continuous
 62
     7
370
    15
100
AcDbSpline
210
0.0
220
0.0
230
1.0
 70
     8
 71
     3
 72
    16
 73
    12
 74
     0
 42
0.00000001
 43
0.00000001
 12
1.0
 22
0.0
 32
0.0
 13
1.0
 23
0.0
 33
0.0
 40
0.0
 40
0.0
 40
0.0
 40
0.0
 40
0.2499999999999999
 40
0.2499999999999999
 40
0.4999999999999998
 40
0.4999999999999998
 40
0.6250000000000032
 40
0.6250000000000032
 40
0.7500000000000068
 40
0.7500000000000068
 40
1.0
 40
1.0
 40
1.0
 40
1.0
 10
800.6900136318825
 20
873.8301558504877
 30
0.0
 10
800.4460381538908
 20
873.0686967434855
 30
0.0
 10
800.2413440773547
 20
872.2886121727977
 30
0.0
 10
799.9614902856019
 20
870.7246323465266
 30
0.0
 10
799.8860818128009
 20
869.9384101562114
 30
0.0
 10
799.8862082832626
 20
868.7516486111331
 30
0.0
 10
799.9048998887567
 20
868.3548380635817
 30
0.0
 10
799.9790750731786
 20
867.5588034899387
 30
0.0
 10
800.0342514979812
 20
867.1631815417448
 30
0.0
 10
800.2455891056114
 20
865.9904768775971
 30
0.0
 10
800.4475525890698
 20
865.2237443827714
 30
0.0
 10
800.6900157959215
 20
864.4670059649537
 30
0.0
  0
SPLINE
  5
1ED
330
1F
100
AcDbEntity
  8
0
  6
Continuous
 62
     7
370
    15
100
AcDbSpline
210
0.0
220
0.0
230
1.0
 70
     8
 71
     3
 72
    15
 73
    11
 74
     0
 42
0.00000001
 43
0.00000001
 12
1.0
 22
0.0
 32
0.0
 13
1.0
 23
0.0
 33
0.0
 40
0.0
 40
0.0
 40
0.0
 40
0.0
 40
0.1323053144291959
 40
0.2645738551616187
 40
0.3997996778514437
 40
0.5350025795258977
 40
0.6501924488174841
 40
0.7654012301356936
 40
0.8826880536033984
 40
1.0
 40
1.0
 40
1.0
 40
1.0
 10
808.616289620359
 20
864.4670106379818
 30
0.0
 10
808.7386628996071
 20
864.0960370007836
 30
0.0
 10
808.983375444973
 20
863.3541928369243
 30
0.0
 10
809.246640883078
 20
862.2118329504424
 30
0.0
 10
809.4049754143055
 20
861.0479219955758
 30
0.0
 10
809.4363145254199
 20
859.9262011342819
 30
0.0
 10
809.3549798423394
 20
858.8650472922461
 30
0.0
 10
809.1883039101979
 20
857.8636054934876
 30
0.0
 10
808.9438159755209
 20
856.8666742097374
 30
0.0
 10
808.7254728661222
 20
856.2092380185754
 30
0.0
 10
808.616289620359
 20
855.8804847209286
 30
0.0
  0
SPLINE
  5
1EE
330
1F
100
AcDbEntity
  8
0
  6
Continuous
 62
     7
370
    15
100
AcDbSpline
210
0.0
220
0.0
230
1.0
 70
     8
 71
     3
 72
    16
 73
    12
 74
     0
 42
0.00000001
 43
0.00000001
 12
1.0
 22
0.0
 32
0.0
 13
1.0
 23
0.0
 33
0.0
 40
0.0
 40
0.0
 40
0.0
 40
0.0
 40
0.2499999999999886
 40
0.2499999999999886
 40
0.4999999999999771
 40
0.4999999999999771
 40
0.6249999999999789
 40
0.6249999999999789
 40
0.7499999999999808
 40
0.7499999999999808
 40
1.0
 40
1.0
 40
1.0
 40
1.0
 10
808.6162930735118
 20
874.606773764164
 30
0.0
 10
808.8612145880942
 20
874.5433702856076
 30
0.0
 10
809.0630743081307
 20
874.4795045418343
 30
0.0
 10
809.3427155797278
 20
874.3504410842194
 30
0.0
 10
809.4195747144562
 20
874.2852334683001
 30
0.0
 10
809.4204188756253
 20
874.1861934906404
 30
0.0
 10
809.4016297889552
 20
874.1530248288865
 30
0.0
 10
809.3283622968743
 20
874.087413716969
 30
0.0
 10
809.2739582452111
 20
874.0548281306922
 30
0.0
 10
809.0638791868589
 20
873.9576515137031
 30
0.0
 10
808.8615198936917
 20
873.8936383643096
 30
0.0
 10
808.6162930735117
 20
873.8301558504876
 30
0.0
  0
SPLINE
  5
1EF
330
1F
100
AcDbEntity
  8
0
  6
Continuous
 62
     7
370
    15
100
AcDbSpline
210
0.0
220
0.0
230
1.0
 70
     8
 71
     3
 72
    11
 73
     7
 74
     0
 42
0.00000001
 43
0.00000001
 12
1.0
 22
0.0
 32
0.0
 13
1.0
 23
0.0
 33
0.0
 40
0.0
 40
0.0
 40
0.0
 40
0.0
 40
0.3034534209920681
 40
0.6068271345683265
 40
0.9169826383005248
 40
1.0
 40
1.0
 40
1.0
 40
1.0
 10
808.616289620359
 20
855.8804847209286
 30
0.0
 10
808.739166804982
 20
855.914040099584
 30
0.0
 10
808.9848888983589
 20
855.9811420429801
 30
0.0
 10
809.2405435363792
 20
856.0844683424917
 30
0.0
 10
809.3822188292869
 20
856.1637980674006
 30
0.0
 10
809.3906387567702
 20
856.2088672244599
 30
0.0
 10
809.3924166011406
 20
856.2183834521603
 30
0.0
  0
SPLINE
  5
1F0
330
1F
100
AcDbEntity
  8
0
  6
Continuous
 62
     7
370
    15
100
AcDbSpline
210
0.0
220
0.0
230
1.0
 70
     8
 71
     3
 72
    16
 73
    12
 74
     0
 42
0.00000001
 43
0.00000001
 12
1.0
 22
0.0
 32
0.0
 13
1.0
 23
0.0
 33
0.0
 40
0.0
 40
0.0
 40
0.0
 40
0.0
 40
0.2500000000000036
 40
0.2500000000000036
 40
0.5000000000000071
 40
0.5000000000000071
 40
0.6250000000000092
 40
0.6250000000000092
 40
0.7500000000000113
 40
0.7500000000000113
 40
1.0
 40
1.0
 40
1.0
 40
1.0
 10
800.6900136318822
 20
873.8301558504876
 30
0.0
 10
800.4450921172997
 20
873.8935593290443
 30
0.0
 10
800.2432323972632
 20
873.9574250728173
 30
0.0
 10
799.9635911256662
 20
874.0864885304323
 30
0.0
 10
799.8867319909378
 20
874.1516961463515
 30
0.0
 10
799.8858878297686
 20
874.2507361240114
 30
0.0
 10
799.9046769164387
 20
874.2839047857652
 30
0.0
 10
799.9779444085195
 20
874.3495158976827
 30
0.0
 10
800.032348460183
 20
874.3821014839596
 30
0.0
 10
800.242427518535
 20
874.4792781009487
 30
0.0
 10
800.4447868117024
 20
874.5432912503421
 30
0.0
 10
800.6900136318824
 20
874.606773764164
 30
0.0
  0
SPLINE
  5
1F1
330
1F
100
AcDbEntity
  8
0
  6
Continuous
 62
     7
370
    15
100
AcDbSpline
210
0.0
220
0.0
230
1.0
 70
     8
 71
     3
 72
    15
 73
    11
 74
     0
 42
0.00000001
 43
0.00000001
 12
1.0
 22
0.0
 32
0.0
 13
1.0
 23
0.0
 33
0.0
 40
0.0
 40
0.0
 40
0.0
 40
0.0
 40
0.1323068540226762
 40
0.2645738303955913
 40
0.3998008119642665
 40
0.535003712465778
 40
0.6501935807580436
 40
0.7654023610767681
 40
0.88268918352696
 40
1.0
 40
1.0
 40
1.0
 40
1.0
 10
800.690019254644
 20
855.8804847209286
 30
0.0
 10
800.5676465781099
 20
856.2514557998143
 30
0.0
 10
800.3229381085033
 20
856.9932861458819
 30
0.0
 10
800.059664632929
 20
858.1356743754392
 30
0.0
 10
799.9013345918893
 20
859.2995851044586
 30
0.0
 10
799.8699941354768
 20
860.4213090474035
 30
0.0
 10
799.9513290298519
 20
861.4824630804846
 30
0.0
 10
800.1180051799752
 20
862.483904380837
 30
0.0
 10
800.3624912345125
 20
863.4808342911721
 30
0.0
 10
800.5808358040329
 20
864.1382627756993
 30
0.0
 10
800.690019254644
 20
864.4670106379818
 30
0.0
  0
SPLINE
  5
1F2
330
1F
100
AcDbEntity
  8
0
  6
Continuous
 62
     7
370
    15
100
AcDbSpline
210
0.0
220
0.0
230
1.0
 70
     8
 71
     3
 72
    11
 73
     7
 74
     0
 42
0.00000001
 43
0.00000001
 12
1.0
 22
0.0
 32
0.0
 13
1.0
 23
0.0
 33
0.0
 40
0.0
 40
0.0
 40
0.0
 40
0.0
 40
0.1977708583442651
 40
0.4619900492176618
 40
0.7309703706424379
 40
1.0
 40
1.0
 40
1.0
 40
1.0
 10
799.9095411347938
 20
856.2183983533215
 30
0.0
 10
799.9242769774204
 20
856.1957573064783
 30
0.0
 10
799.9586997064173
 20
856.14286812739
 30
0.0
 10
800.1199844399072
 20
856.059860527783
 30
0.0
 10
800.361988728441
 20
855.9696748466067
 30
0.0
 10
800.5806690653175
 20
855.9102165792463
 30
0.0
 10
800.690019254644
 20
855.8804847209286
 30
0.0
  0
LINE
  5
1F3
330
1F
100
AcDbEntity
  8
0
  6
Continuous
 62
     7
370
    15
100
AcDbLine
 10
799.4531483697
 20
856.9936312644
 30
0.0
 11
799.4531483697
 21
873.4936274497
 31
0.0
  0
LINE
  5
1F4
330
1F
100
AcDbEntity
  8
0
  6
Continuous
 62
     7
370
    15
100
AcDbLine
 10
800.6900192546
 20
434.7398139446
 30
0.0
 11
808.6162896204
 21
434.7398139446
 31
0.0
  0
SPLINE
  5
1F5
330
1F
100
AcDbEntity
  8
0
  6
Continuous
 62
     7
370
    15
100
AcDbSpline
210
0.0
220
0.0
230
1.0
 70
     8
 71
     3
 72
    16
 73
    12
 74
     0
 42
0.00000001
 43
0.00000001
 12
1.0
 22
0.0
 32
0.0
 13
1.0
 23
0.0
 33
0.0
 40
0.0
 40
0.0
 40
0.0
 40
0.0
 40
0.2499999999999997
 40
0.2499999999999997
 40
0.4999999999999993
 40
0.4999999999999993
 40
0.6249999999999991
 40
0.6249999999999991
 40
0.749999999999999
 40
0.749999999999999
 40
1.0
 40
1.0
 40
1.0
 40
1.0
 10
808.616291025915
 20
434.7398182541616
 30
0.0
 10
808.8602667177593
 20
433.9783592592955
 30
0.0
 10
809.0649610807159
 20
433.1982747945431
 30
0.0
 10
809.3448155811409
 20
431.6342950849892
 30
0.0
 10
809.4202244649774
 20
430.8480729567518
 30
0.0
 10
809.4200986370315
 20
429.6613115064933
 30
0.0
 10
809.4014072493217
 20
429.2645009907856
 30
0.0
 10
809.3272324939593
 20
428.4684664804025
 30
0.0
 10
809.2720562633508
 20
428.0728444554375
 30
0.0
 10
809.060719204096
 20
426.9001397103311
 30
0.0
 10
808.8587560264755
 20
426.1334071762765
 30
0.0
 10
808.6162930735114
 20
425.3766687320493
 30
0.0
  0
LINE
  5
1F6
330
1F
100
AcDbEntity
  8
0
  6
Continuous
 62
     7
370
    15
100
AcDbLine
 10
800.6900192546
 20
425.3766693084
 30
0.0
 11
808.6162896204
 21
425.3766693084
 31
0.0
  0
SPLINE
  5
1F7
330
1F
100
AcDbEntity
  8
0
  6
Continuous
 62
     7
370
    15
100
AcDbSpline
210
0.0
220
0.0
230
1.0
 70
     8
 71
     3
 72
    16
 73
    12
 74
     0
 42
0.00000001
 43
0.00000001
 12
1.0
 22
0.0
 32
0.0
 13
1.0
 23
0.0
 33
0.0
 40
0.0
 40
0.0
 40
0.0
 40
0.0
 40
0.2499999999999896
 40
0.2499999999999896
 40
0.4999999999999791
 40
0.4999999999999791
 40
0.6249999999999809
 40
0.6249999999999809
 40
0.7499999999999827
 40
0.7499999999999827
 40
1.0
 40
1.0
 40
1.0
 40
1.0
 10
800.6900158975033
 20
434.7398189346243
 30
0.0
 10
800.4460401635666
 20
433.9783598913944
 30
0.0
 10
800.2413457572238
 20
433.1982753750252
 30
0.0
 10
799.9614911792723
 20
431.6342955527214
 30
0.0
 10
799.8860822624761
 20
430.8480733677285
 30
0.0
 10
799.8862080572766
 20
429.6613118312678
 30
0.0
 10
799.9048994366298
 20
429.2645012866494
 30
0.0
 10
799.9790741811638
 20
428.4684667180591
 30
0.0
 10
800.0342504098862
 20
428.0728446603348
 30
0.0
 10
800.2455874711833
 20
426.9001398245184
 30
0.0
 10
800.4475506608624
 20
426.13340723263
 30
0.0
 10
800.6900136318825
 20
425.3766687320493
 30
0.0
  0
SPLINE
  5
1F8
330
1F
100
AcDbEntity
  8
0
  6
Continuous
 62
     7
370
    15
100
AcDbSpline
210
0.0
220
0.0
230
1.0
 70
     8
 71
     3
 72
    16
 73
    12
 74
     0
 42
0.00000001
 43
0.00000001
 12
1.0
 22
0.0
 32
0.0
 13
1.0
 23
0.0
 33
0.0
 40
0.0
 40
0.0
 40
0.0
 40
0.0
 40
0.2500000000000118
 40
0.2500000000000118
 40
0.5000000000000236
 40
0.5000000000000236
 40
0.6250000000000218
 40
0.6250000000000218
 40
0.7500000000000199
 40
0.7500000000000199
 40
1.0
 40
1.0
 40
1.0
 40
1.0
 10
808.6162930735119
 20
425.3766687320493
 30
0.0
 10
808.8612145880942
 20
425.3132652534928
 30
0.0
 10
809.0630743081307
 20
425.2493995097198
 30
0.0
 10
809.3427155797278
 20
425.1203360521046
 30
0.0
 10
809.4195747144562
 20
425.0551284361854
 30
0.0
 10
809.4204188756253
 20
424.9560884585258
 30
0.0
 10
809.4016297889552
 20
424.9229197967718
 30
0.0
 10
809.3283622968743
 20
424.8573086848543
 30
0.0
 10
809.2739582452111
 20
424.8247230985775
 30
0.0
 10
809.0638791868589
 20
424.7275464815884
 30
0.0
 10
808.8615198936917
 20
424.6635333321948
 30
0.0
 10
808.6162930735117
 20
424.6000508183731
 30
0.0
  0
SPLINE
  5
1F9
330
1F
100
AcDbEntity
  8
0
  6
Continuous
 62
     7
370
    15
100
AcDbSpline
210
0.0
220
0.0
230
1.0
 70
     8
 71
     3
 72
    15
 73
    11
 74
     0
 42
0.00000001
 43
0.00000001
 12
1.0
 22
0.0
 32
0.0
 13
1.0
 23
0.0
 33
0.0
 40
0.0
 40
0.0
 40
0.0
 40
0.0
 40
0.1323068540226762
 40
0.2645738303955913
 40
0.3998008119642665
 40
0.535003712465778
 40
0.6501935807580436
 40
0.7654023610767681
 40
0.88268918352696
 40
1.0
 40
1.0
 40
1.0
 40
1.0
 10
808.616289620359
 20
443.3263398616146
 30
0.0
 10
808.738662296893
 20
442.9553687827289
 30
0.0
 10
808.9833707664998
 20
442.2135384366612
 30
0.0
 10
809.246644242074
 20
441.0711502071041
 30
0.0
 10
809.4049742831138
 20
439.9072394780846
 30
0.0
 10
809.4363147395262
 20
438.7855155351397
 30
0.0
 10
809.3549798451511
 20
437.7243615020586
 30
0.0
 10
809.1883036950278
 20
436.7229202017063
 30
0.0
 10
808.9438176404906
 20
435.7259902913711
 30
0.0
 10
808.7254730709703
 20
435.0685618068438
 30
0.0
 10
808.616289620359
 20
434.7398139445614
 30
0.0
  0
SPLINE
  5
1FA
330
1F
100
AcDbEntity
  8
0
  6
Continuous
 62
     7
370
    15
100
AcDbSpline
210
0.0
220
0.0
230
1.0
 70
     8
 71
     3
 72
    11
 73
     7
 74
     0
 42
0.00000001
 43
0.00000001
 12
1.0
 22
0.0
 32
0.0
 13
1.0
 23
0.0
 33
0.0
 40
0.0
 40
0.0
 40
0.0
 40
0.0
 40
0.1977708583442651
 40
0.4619900492176618
 40
0.7309703706424379
 40
1.0
 40
1.0
 40
1.0
 40
1.0
 10
809.3967677402092
 20
442.9884262292217
 30
0.0
 10
809.3820318975827
 20
443.0110672760649
 30
0.0
 10
809.3476091685858
 20
443.0639564551532
 30
0.0
 10
809.1863244350959
 20
443.1469640547602
 30
0.0
 10
808.9443201465622
 20
443.2371497359366
 30
0.0
 10
808.7256398096857
 20
443.296608003297
 30
0.0
 10
808.616289620359
 20
443.3263398616146
 30
0.0
  0
SPLINE
  5
1FB
330
1F
100
AcDbEntity
  8
0
  6
Continuous
 62
     7
370
    15
100
AcDbSpline
210
0.0
220
0.0
230
1.0
 70
     8
 71
     3
 72
    11
 73
     7
 74
     0
 42
0.00000001
 43
0.00000001
 12
1.0
 22
0.0
 32
0.0
 13
1.0
 23
0.0
 33
0.0
 40
0.0
 40
0.0
 40
0.0
 40
0.0
 40
0.3034534209920681
 40
0.6068271345683265
 40
0.9169826383005248
 40
1.0
 40
1.0
 40
1.0
 40
1.0
 10
800.690019254644
 20
443.3263398616146
 30
0.0
 10
800.5671420700211
 20
443.2927844829593
 30
0.0
 10
800.3214199766442
 20
443.2256825395632
 30
0.0
 10
800.0657653386239
 20
443.1223562400515
 30
0.0
 10
799.9240900457163
 20
443.0430265151426
 30
0.0
 10
799.9156701182328
 20
442.9979573580833
 30
0.0
 10
799.9138922738624
 20
442.9884411303829
 30
0.0
  0
SPLINE
  5
1FC
330
1F
100
AcDbEntity
  8
0
  6
Continuous
 62
     7
370
    15
100
AcDbSpline
210
0.0
220
0.0
230
1.0
 70
     8
 71
     3
 72
    15
 73
    11
 74
     0
 42
0.00000001
 43
0.00000001
 12
1.0
 22
0.0
 32
0.0
 13
1.0
 23
0.0
 33
0.0
 40
0.0
 40
0.0
 40
0.0
 40
0.0
 40
0.1323053144291959
 40
0.2645738551616187
 40
0.3997996778514437
 40
0.5350025795258977
 40
0.6501924488174841
 40
0.7654012301356936
 40
0.8826880536033984
 40
1.0
 40
1.0
 40
1.0
 40
1.0
 10
800.690019254644
 20
434.7398139445614
 30
0.0
 10
800.5676459753961
 20
435.1107875817597
 30
0.0
 10
800.32293343003
 20
435.852631745619
 30
0.0
 10
800.059667991925
 20
436.9949916321009
 30
0.0
 10
799.9013334606977
 20
438.1589025869673
 30
0.0
 10
799.8699943495832
 20
439.2806234482613
 30
0.0
 10
799.9513290326637
 20
440.3417772902971
 30
0.0
 10
800.1180049648052
 20
441.3432190890557
 30
0.0
 10
800.3624928994822
 20
442.3401503728059
 30
0.0
 10
800.5808360088809
 20
442.9975865639678
 30
0.0
 10
800.690019254644
 20
443.3263398616146
 30
0.0
  0
SPLINE
  5
1FD
330
1F
100
AcDbEntity
  8
0
  6
Continuous
 62
     7
370
    15
100
AcDbSpline
210
0.0
220
0.0
230
1.0
 70
     8
 71
     3
 72
    16
 73
    12
 74
     0
 42
0.00000001
 43
0.00000001
 12
1.0
 22
0.0
 32
0.0
 13
1.0
 23
0.0
 33
0.0
 40
0.0
 40
0.0
 40
0.0
 40
0.0
 40
0.2500000000000041
 40
0.2500000000000041
 40
0.5000000000000081
 40
0.5000000000000081
 40
0.6250000000000098
 40
0.6250000000000098
 40
0.7500000000000114
 40
0.7500000000000114
 40
1.0
 40
1.0
 40
1.0
 40
1.0
 10
800.6900136318822
 20
424.6000508183731
 30
0.0
 10
800.4450921172997
 20
424.6634542969295
 30
0.0
 10
800.2432323972632
 20
424.7273200407027
 30
0.0
 10
799.9635911256662
 20
424.8563834983177
 30
0.0
 10
799.886731990938
 20
424.9215911142368
 30
0.0
 10
799.8858878297688
 20
425.0206310918966
 30
0.0
 10
799.9046769164387
 20
425.0537997536505
 30
0.0
 10
799.9779444085195
 20
425.1194108655681
 30
0.0
 10
800.032348460183
 20
425.1519964518449
 30
0.0
 10
800.2424275185351
 20
425.249173068834
 30
0.0
 10
800.4447868117024
 20
425.3131862182275
 30
0.0
 10
800.6900136318824
 20
425.3766687320493
 30
0.0
  0
LINE
  5
1FE
330
1F
100
AcDbEntity
  8
0
  6
Continuous
 62
     7
370
    15
100
AcDbLine
 10
799.4531483697
 20
425.7131971328
 30
0.0
 11
799.4531483697
 21
442.2131933181
 31
0.0
  0
LINE
  5
1FF
330
1F
100
AcDbEntity
  8
0
  6
Continuous
 62
     7
370
    15
100
AcDbLine
 10
800.6900192546
 20
855.8804847209
 30
0.0
 11
808.6162896204
 21
855.8804847209
 31
0.0
  0
LINE
  5
200
330
1F
100
AcDbEntity
  8
0
  6
Continuous
 62
     7
370
    15
100
AcDbLine
 10
800.6900192546
 20
443.3263398616
 30
0.0
 11
808.6162896204
 21
443.3263398616
 31
0.0
  0
LINE
  5
201
330
1F
100
AcDbEntity
  8
0
  6
Continuous
 62
     7
370
    15
100
AcDbLine
 10
764.3531502533
 20
859.2436320989
 30
0.0
 11
764.3531502533
 21
871.2436266153
 31
0.0
  0
LINE
  5
202
330
1F
100
AcDbEntity
  8
0
  6
Continuous
 62
     7
370
    15
100
AcDbLine
 10
764.3531502533
 20
427.9631979673
 30
0.0
 11
764.3531502533
 21
439.9631924836
 31
0.0
  0
LINE
  5
203
330
1F
100
AcDbEntity
  8
0
  6
Continuous
 62
     7
370
    15
100
AcDbLine
 10
800.6900192546
 20
874.6067739932
 30
0.0
 11
808.6162896204
 21
874.6067739932
 31
0.0
  0
LINE
  5
204
330
1F
100
AcDbEntity
  8
0
  6
Continuous
 62
     7
370
    15
100
AcDbLine
 10
800.6900192546
 20
424.6000505893
 30
0.0
 11
808.6162896204
 21
424.6000505893
 31
0.0
  0
LINE
  5
205
330
1F
100
AcDbEntity
  8
0
  6
Continuous
 62
     7
370
    15
100
AcDbLine
 10
809.8531605053
 20
1026.1736668556
 30
0.0
 11
809.8531605053
 21
1050.1736558883
 31
0.0
  0
LINE
  5
206
330
1F
100
AcDbEntity
  8
0
  6
Continuous
 62
     7
370
    15
100
AcDbLine
 10
809.8531605053
 20
268.515036246
 30
0.0
 11
809.8531605053
 21
273.033157727
 31
0.0
  0
LINE
  5
207
330
1F
100
AcDbEntity
  8
0
  6
Continuous
 62
     7
370
    15
100
AcDbLine
 10
809.8531605053
 20
249.0331686942
 30
0.0
 11
809.8531605053
 21
268.515036246
 31
0.0
  0
LINE
  5
208
330
1F
100
AcDbEntity
  8
0
  6
Continuous
 62
     7
370
    15
100
AcDbLine
 10
800.6900192546
 20
1041.9703878372
 30
0.0
 11
808.6162896204
 21
1041.9703878372
 31
0.0
  0
SPLINE
  5
209
330
1F
100
AcDbEntity
  8
0
  6
Continuous
 62
     7
370
    15
100
AcDbSpline
210
0.0
220
0.0
230
1.0
 70
     8
 71
     3
 72
    15
 73
    11
 74
     0
 42
0.00000001
 43
0.00000001
 12
1.0
 22
0.0
 32
0.0
 13
1.0
 23
0.0
 33
0.0
 40
0.0
 40
0.0
 40
0.0
 40
0.0
 40
0.1323059099813579
 40
0.2645725812093335
 40
0.3997997230938631
 40
0.5350037840366495
 40
0.6501927928801833
 40
0.7654019532017472
 40
0.8826904116349257
 40
1.0
 40
1.0
 40
1.0
 40
1.0
 10
808.616289620359
 20
1041.970387837155
 30
0.0
 10
808.7386623916553
 20
1041.526413066272
 30
0.0
 10
808.9833716414248
 20
1040.638595196756
 30
0.0
 10
809.246644589906
 20
1039.271421194844
 30
0.0
 10
809.4049745406443
 20
1037.878481080661
 30
0.0
 10
809.4363150374562
 20
1036.535993734606
 30
0.0
 10
809.354979452231
 20
1035.266043255446
 30
0.0
 10
809.1883017949426
 20
1034.067523001326
 30
0.0
 10
808.9438219902049
 20
1032.874408992365
 30
0.0
 10
808.7254736324224
 20
1032.087599718199
 30
0.0
 10
808.616289620359
 20
1031.694159647687
 30
0.0
  0
LINE
  5
20A
330
1F
100
AcDbEntity
  8
0
  6
Continuous
 62
     7
370
    15
100
AcDbLine
 10
800.6900192546
 20
1031.6941596477
 30
0.0
 11
808.6162896204
 21
1031.6941596477
 31
0.0
  0
SPLINE
  5
20B
330
1F
100
AcDbEntity
  8
0
  6
Continuous
 62
     7
370
    15
100
AcDbSpline
210
0.0
220
0.0
230
1.0
 70
     8
 71
     3
 72
    15
 73
    11
 74
     0
 42
0.00000001
 43
0.00000001
 12
1.0
 22
0.0
 32
0.0
 13
1.0
 23
0.0
 33
0.0
 40
0.0
 40
0.0
 40
0.0
 40
0.0
 40
0.132305907341026
 40
0.2645725759294527
 40
0.3997997151153534
 40
0.5350037733599717
 40
0.6501955680240051
 40
0.7654019578834482
 40
0.882690413975987
 40
1.0
 40
1.0
 40
1.0
 40
1.0
 10
800.690019254644
 20
1031.694159647687
 30
0.0
 10
800.5676464734556
 20
1032.13813442161
 30
0.0
 10
800.3229372039049
 20
1033.025952297207
 30
0.0
 10
800.059664404856
 20
1034.393126253183
 30
0.0
 10
799.9013338740516
 20
1035.786066545679
 30
0.0
 10
799.8699952204229
 20
1037.128562961963
 30
0.0
 10
799.9513254109193
 20
1038.398515518556
 30
0.0
 10
800.1180103827498
 20
1039.597033444662
 30
0.0
 10
800.3624865401713
 20
1040.790138613506
 30
0.0
 10
800.5808351276982
 20
1041.576947806988
 30
0.0
 10
800.690019254644
 20
1041.970387837155
 30
0.0
  0
SPLINE
  5
20C
330
1F
100
AcDbEntity
  8
0
  6
Continuous
 62
     7
370
    15
100
AcDbSpline
210
0.0
220
0.0
230
1.0
 70
     8
 71
     3
 72
     9
 73
     5
 74
     0
 42
0.00000001
 43
0.00000001
 12
1.0
 22
0.0
 32
0.0
 13
1.0
 23
0.0
 33
0.0
 40
0.0
 40
0.0
 40
0.0
 40
0.0
 40
0.8143572126404119
 40
1.0
 40
1.0
 40
1.0
 40
1.0
 10
800.690019254644
 20
1048.449889561398
 30
0.0
 10
800.5615924509884
 20
1048.286303504485
 30
0.0
 10
800.4038891708282
 20
1048.085425984923
 30
0.0
 10
800.3001511822588
 20
1047.880149493943
 30
0.0
 10
800.2808929729057
 20
1047.842041393979
 30
0.0
  0
SPLINE
  5
20D
330
1F
100
AcDbEntity
  8
0
  6
Continuous
 62
     7
370
    15
100
AcDbSpline
210
0.0
220
0.0
230
1.0
 70
     8
 71
     3
 72
    14
 73
    10
 74
     0
 42
0.00000001
 43
0.00000001
 12
1.0
 22
0.0
 32
0.0
 13
1.0
 23
0.0
 33
0.0
 40
0.0
 40
0.0
 40
0.0
 40
0.0
 40
0.1803121252307836
 40
0.3621181246115275
 40
0.4866242718385017
 40
0.6111294317805983
 40
0.7389534270485936
 40
0.8668080133830802
 40
0.9999999999999999
 40
0.9999999999999999
 40
0.9999999999999999
 40
0.9999999999999999
 10
800.690019254644
 20
1041.970387837155
 30
0.0
 10
800.5264180270307
 20
1042.35251984323
 30
0.0
 10
800.1978601463461
 20
1043.119949794027
 30
0.0
 10
799.9467974298999
 20
1044.178110398187
 30
0.0
 10
799.8688960261882
 20
1045.122213664678
 30
0.0
 10
799.9120324974166
 20
1045.948957932711
 30
0.0
 10
800.0692825347828
 20
1046.777452374603
 30
0.0
 10
800.3252257589345
 20
1047.615794352294
 30
0.0
 10
800.5667751700175
 20
1048.168093691278
 30
0.0
 10
800.690019254644
 20
1048.449889561398
 30
0.0
  0
SPLINE
  5
20E
330
1F
100
AcDbEntity
  8
0
  6
Continuous
 62
     7
370
    15
100
AcDbSpline
210
0.0
220
0.0
230
1.0
 70
     8
 71
     3
 72
    16
 73
    12
 74
     0
 42
0.00000001
 43
0.00000001
 12
1.0
 22
0.0
 32
0.0
 13
1.0
 23
0.0
 33
0.0
 40
0.0
 40
0.0
 40
0.0
 40
0.0
 40
0.2499999999999971
 40
0.2499999999999971
 40
0.4999999999999942
 40
0.4999999999999942
 40
0.6249999999999957
 40
0.6249999999999957
 40
0.7499999999999971
 40
0.7499999999999971
 40
1.0
 40
1.0
 40
1.0
 40
1.0
 10
800.6900136318822
 20
1027.897427691207
 30
0.0
 10
800.4450923432482
 20
1028.207394791783
 30
0.0
 10
800.243232769663
 20
1028.519621813736
 30
0.0
 10
799.9635915272027
 20
1029.150587588746
 30
0.0
 10
799.8867322706989
 20
1029.469374750917
 30
0.0
 10
799.885887694562
 20
1029.953561644631
 30
0.0
 10
799.904676606775
 20
1030.115716700756
 30
0.0
 10
799.977943704309
 20
1030.436476505173
 30
0.0
 10
800.0323475344428
 20
1030.59578101947
 30
0.0
 10
800.2424258815269
 20
1031.070858363539
 30
0.0
 10
800.444784640848
 20
1031.383806045591
 30
0.0
 10
800.690010917122
 20
1031.694159553214
 30
0.0
  0
LINE
  5
20F
330
1F
100
AcDbEntity
  8
0
  6
Continuous
 62
     7
370
    15
100
AcDbLine
 10
799.4531483697
 20
1029.9236632793
 30
0.0
 11
799.4531483697
 21
1046.4236594646
 31
0.0
  0
SPLINE
  5
210
330
1F
100
AcDbEntity
  8
0
  6
Continuous
 62
     7
370
    15
100
AcDbSpline
210
0.0
220
0.0
230
1.0
 70
     8
 71
     3
 72
    14
 73
    10
 74
     0
 42
0.00000001
 43
0.00000001
 12
1.0
 22
0.0
 32
0.0
 13
1.0
 23
0.0
 33
0.0
 40
0.0
 40
0.0
 40
0.0
 40
0.0
 40
0.1331920644539406
 40
0.2578381675259173
 40
0.3824537715405517
 40
0.5101669502011673
 40
0.637881123247339
 40
0.8180571708896915
 40
1.0
 40
1.0
 40
1.0
 40
1.0
 10
808.616289620359
 20
1048.449889561398
 30
0.0
 10
808.7395441584688
 20
1048.168095481695
 30
0.0
 10
808.9781448917463
 20
1047.622587988975
 30
0.0
 10
809.2309760873262
 20
1046.798243976454
 30
0.0
 10
809.3907605701592
 20
1045.977099895637
 30
0.0
 10
809.4385932782806
 20
1045.143319496161
 30
0.0
 10
809.361491851647
 20
1044.188662396104
 30
0.0
 10
809.1096173508679
 20
1043.123469851053
 30
0.0
 10
808.7812662066544
 20
1042.355996678108
 30
0.0
 10
808.616289620359
 20
1041.970387837155
 30
0.0
  0
SPLINE
  5
211
330
1F
100
AcDbEntity
  8
0
  6
Continuous
 62
     7
370
    15
100
AcDbSpline
210
0.0
220
0.0
230
1.0
 70
     8
 71
     3
 72
     9
 73
     5
 74
     0
 42
0.00000001
 43
0.00000001
 12
1.0
 22
0.0
 32
0.0
 13
1.0
 23
0.0
 33
0.0
 40
0.0
 40
0.0
 40
0.0
 40
0.0
 40
0.2779453780208686
 40
1.0
 40
1.0
 40
1.0
 40
1.0
 10
809.025162582357
 20
1047.842011591656
 30
0.0
 10
808.9947237064495
 20
1047.898967255167
 30
0.0
 10
808.8852098295711
 20
1048.103884005056
 30
0.0
 10
808.729047414175
 20
1048.304810010495
 30
0.0
 10
808.616289620359
 20
1048.449889561398
 30
0.0
  0
SPLINE
  5
212
330
1F
100
AcDbEntity
  8
0
  6
Continuous
 62
     7
370
    15
100
AcDbSpline
210
0.0
220
0.0
230
1.0
 70
     8
 71
     3
 72
    16
 73
    12
 74
     0
 42
0.00000001
 43
0.00000001
 12
1.0
 22
0.0
 32
0.0
 13
1.0
 23
0.0
 33
0.0
 40
0.0
 40
0.0
 40
0.0
 40
0.0
 40
0.2499999999999963
 40
0.2499999999999963
 40
0.4999999999999927
 40
0.4999999999999927
 40
0.6249999999999909
 40
0.6249999999999909
 40
0.749999999999989
 40
0.749999999999989
 40
1.0
 40
1.0
 40
1.0
 40
1.0
 10
808.6162959254859
 20
1031.694159379559
 30
0.0
 10
808.8612168670548
 20
1031.384192276212
 30
0.0
 10
809.0630760259701
 20
1031.071965247939
 30
0.0
 10
809.3427163040865
 20
1030.440999453204
 30
0.0
 10
809.4195750098141
 20
1030.122212277571
 30
0.0
 10
809.4204187328598
 20
1029.63802536225
 30
0.0
 10
809.4016295366442
 20
1029.475870335607
 30
0.0
 10
809.3283619093149
 20
1029.155110578807
 30
0.0
 10
809.2739578300274
 20
1028.995806087366
 30
0.0
 10
809.0638787940983
 20
1028.520728808317
 30
0.0
 10
808.8615196557306
 20
1028.20778116476
 30
0.0
 10
808.6162930735115
 20
1027.897427691207
 30
0.0
  0
SPLINE
  5
213
330
1F
100
AcDbEntity
  8
0
  6
Continuous
 62
     7
370
    15
100
AcDbSpline
210
0.0
220
0.0
230
1.0
 70
     8
 71
     3
 72
    16
 73
    12
 74
     0
 42
0.00000001
 43
0.00000001
 12
1.0
 22
0.0
 32
0.0
 13
1.0
 23
0.0
 33
0.0
 40
0.0
 40
0.0
 40
0.0
 40
0.0
 40
0.2499999999999963
 40
0.2499999999999963
 40
0.4999999999999927
 40
0.4999999999999927
 40
0.6249999999999981
 40
0.6249999999999981
 40
0.7500000000000037
 40
0.7500000000000037
 40
1.0
 40
1.0
 40
1.0
 40
1.0
 10
800.690010866296
 20
267.512665093649
 30
0.0
 10
800.4450899073702
 20
267.8226322055744
 30
0.0
 10
800.2432307314581
 20
268.1348592424434
 30
0.0
 10
799.9635904232487
 20
268.7658250545766
 30
0.0
 10
799.8867317045264
 20
269.0846122390165
 30
0.0
 10
799.8858879682095
 20
269.5687991678742
 30
0.0
 10
799.9046771611071
 20
269.7309541996027
 30
0.0
 10
799.9779447843397
 20
270.0517139662085
 30
0.0
 10
800.0323488627904
 20
270.2110184624798
 30
0.0
 10
800.2424278993986
 20
270.6860957558247
 30
0.0
 10
800.4447870424552
 20
270.9990434086566
 30
0.0
 10
800.6900136318823
 20
271.3093968913316
 30
0.0
  0
SPLINE
  5
214
330
1F
100
AcDbEntity
  8
0
  6
Continuous
 62
     7
370
    15
100
AcDbSpline
210
0.0
220
0.0
230
1.0
 70
     8
 71
     3
 72
    15
 73
    11
 74
     0
 42
0.00000001
 43
0.00000001
 12
1.0
 22
0.0
 32
0.0
 13
1.0
 23
0.0
 33
0.0
 40
0.0
 40
0.0
 40
0.0
 40
0.0
 40
0.1323059099813579
 40
0.2645725812093335
 40
0.3997997230938631
 40
0.5350037840366495
 40
0.6501927928801833
 40
0.7654019532017472
 40
0.8826904116349257
 40
1.0
 40
1.0
 40
1.0
 40
1.0
 10
800.690019254644
 20
257.2364367453884
 30
0.0
 10
800.5676464833476
 20
257.6804115162706
 30
0.0
 10
800.3229372335782
 20
258.5682293857875
 30
0.0
 10
800.059664285097
 20
259.9354033876995
 30
0.0
 10
799.9013343343587
 20
261.3283435018824
 30
0.0
 10
799.8699938375469
 20
262.6708308479369
 30
0.0
 10
799.951329422772
 20
263.9407813270973
 30
0.0
 10
800.1180070800604
 20
265.1393015812179
 30
0.0
 10
800.3624868847982
 20
266.3324155901777
 30
0.0
 10
800.5808352425807
 20
267.1192248643446
 30
0.0
 10
800.690019254644
 20
267.5126649348568
 30
0.0
  0
SPLINE
  5
215
330
1F
100
AcDbEntity
  8
0
  6
Continuous
 62
     7
370
    15
100
AcDbSpline
210
0.0
220
0.0
230
1.0
 70
     8
 71
     3
 72
    14
 73
    10
 74
     0
 42
0.00000001
 43
0.00000001
 12
1.0
 22
0.0
 32
0.0
 13
1.0
 23
0.0
 33
0.0
 40
0.0
 40
0.0
 40
0.0
 40
0.0
 40
0.1803121316546404
 40
0.3621159524433536
 40
0.486622550896434
 40
0.6111272681580738
 40
0.7389495181054082
 40
0.8668080086379405
 40
0.9999999999999999
 40
0.9999999999999999
 40
0.9999999999999999
 40
0.9999999999999999
 10
800.690019254644
 20
250.7569350211453
 30
0.0
 10
800.5264183645318
 20
251.1390631250595
 30
0.0
 10
800.1978631442037
 20
251.9064806084779
 30
0.0
 10
799.9467955985009
 20
252.9646901873566
 30
0.0
 10
799.8688967540446
 20
253.9087033756755
 30
0.0
 10
799.9120306916004
 20
254.7355248351206
 30
0.0
 10
800.0692890310842
 20
255.5639694469313
 30
0.0
 10
800.3252195366816
 20
256.4023377420162
 30
0.0
 10
800.5667742869409
 20
256.9546423807819
 30
0.0
 10
800.690019254644
 20
257.2364367453884
 30
0.0
  0
SPLINE
  5
216
330
1F
100
AcDbEntity
  8
0
  6
Continuous
 62
     7
370
    15
100
AcDbSpline
210
0.0
220
0.0
230
1.0
 70
     8
 71
     3
 72
     9
 73
     5
 74
     0
 42
0.00000001
 43
0.00000001
 12
1.0
 22
0.0
 32
0.0
 13
1.0
 23
0.0
 33
0.0
 40
0.0
 40
0.0
 40
0.0
 40
0.0
 40
0.2779453780208686
 40
1.0
 40
1.0
 40
1.0
 40
1.0
 10
800.281146292646
 20
251.3648129908871
 30
0.0
 10
800.3115851685536
 20
251.3078573273762
 30
0.0
 10
800.4210990454321
 20
251.1029405774867
 30
0.0
 10
800.577261460828
 20
250.902014572048
 30
0.0
 10
800.690019254644
 20
250.7569350211453
 30
0.0
  0
LINE
  5
217
330
1F
100
AcDbEntity
  8
0
  6
Continuous
 62
     7
370
    15
100
AcDbLine
 10
799.4531483697
 20
252.783165118
 30
0.0
 11
799.4531483697
 21
269.2831613033
 31
0.0
  0
LINE
  5
218
330
1F
100
AcDbEntity
  8
0
  6
Continuous
 62
     7
370
    15
100
AcDbLine
 10
800.6900192546
 20
267.5126649349
 30
0.0
 11
808.6162896204
 21
267.5126649349
 31
0.0
  0
SPLINE
  5
219
330
1F
100
AcDbEntity
  8
0
  6
Continuous
 62
     7
370
    15
100
AcDbSpline
210
0.0
220
0.0
230
1.0
 70
     8
 71
     3
 72
    15
 73
    11
 74
     0
 42
0.00000001
 43
0.00000001
 12
1.0
 22
0.0
 32
0.0
 13
1.0
 23
0.0
 33
0.0
 40
0.0
 40
0.0
 40
0.0
 40
0.0
 40
0.132305907341026
 40
0.2645725759294527
 40
0.3997997151153534
 40
0.5350037733599717
 40
0.6501955680240051
 40
0.7654019578834482
 40
0.882690413975987
 40
1.0
 40
1.0
 40
1.0
 40
1.0
 10
808.616289620359
 20
267.5126649348568
 30
0.0
 10
808.7386624015475
 20
267.0686901609337
 30
0.0
 10
808.9833716710982
 20
266.180872285336
 30
0.0
 10
809.2466444701472
 20
264.8136983293599
 30
0.0
 10
809.4049750009515
 20
263.4207580368644
 30
0.0
 10
809.4363136545801
 20
262.0782616205805
 30
0.0
 10
809.3549834640838
 20
260.8083090639876
 30
0.0
 10
809.1882984922532
 20
259.6097911378815
 30
0.0
 10
808.9438223348319
 20
258.4166859690376
 30
0.0
 10
808.7254737473049
 20
257.6298767755549
 30
0.0
 10
808.616289620359
 20
257.2364367453884
 30
0.0
  0
LINE
  5
21A
330
1F
100
AcDbEntity
  8
0
  6
Continuous
 62
     7
370
    15
100
AcDbLine
 10
800.6900192546
 20
257.2364367454
 30
0.0
 11
808.6162896204
 21
257.2364367454
 31
0.0
  0
SPLINE
  5
21B
330
1F
100
AcDbEntity
  8
0
  6
Continuous
 62
     7
370
    15
100
AcDbSpline
210
0.0
220
0.0
230
1.0
 70
     8
 71
     3
 72
     9
 73
     5
 74
     0
 42
0.00000001
 43
0.00000001
 12
1.0
 22
0.0
 32
0.0
 13
1.0
 23
0.0
 33
0.0
 40
0.0
 40
0.0
 40
0.0
 40
0.0
 40
0.8143572126404119
 40
1.0
 40
1.0
 40
1.0
 40
1.0
 10
808.616289620359
 20
250.7569350211453
 30
0.0
 10
808.7447164240147
 20
250.9205210780578
 30
0.0
 10
808.902419704175
 20
251.1213985976198
 30
0.0
 10
809.0061576927443
 20
251.3266750885998
 30
0.0
 10
809.0254159020973
 20
251.3647831885647
 30
0.0
  0
SPLINE
  5
21C
330
1F
100
AcDbEntity
  8
0
  6
Continuous
 62
     7
370
    15
100
AcDbSpline
210
0.0
220
0.0
230
1.0
 70
     8
 71
     3
 72
    14
 73
    10
 74
     0
 42
0.00000001
 43
0.00000001
 12
1.0
 22
0.0
 32
0.0
 13
1.0
 23
0.0
 33
0.0
 40
0.0
 40
0.0
 40
0.0
 40
0.0
 40
0.1331920560997723
 40
0.2578381513536067
 40
0.3824537475520116
 40
0.5101691257010146
 40
0.6378832907366063
 40
0.8180593270778274
 40
0.9999999999999999
 40
0.9999999999999999
 40
0.9999999999999999
 40
0.9999999999999999
 10
808.616289620359
 20
257.2364367453884
 30
0.0
 10
808.7395441601888
 20
256.9546425396908
 30
0.0
 10
808.9781448967962
 20
256.4091348030673
 30
0.0
 10
809.2309760686315
 20
255.5847925298335
 30
0.0
 10
809.390761576807
 20
254.7636370719939
 30
0.0
 10
809.4385932286173
 20
253.9298769284048
 30
0.0
 10
809.3614917460457
 20
252.9752068603726
 30
0.0
 10
809.1096200738024
 20
251.9100259310163
 30
0.0
 10
808.78126647319
 20
251.1425453316599
 30
0.0
 10
808.616289620359
 20
250.7569350211453
 30
0.0
  0
SPLINE
  5
21D
330
1F
100
AcDbEntity
  8
0
  6
Continuous
 62
     7
370
    15
100
AcDbSpline
210
0.0
220
0.0
230
1.0
 70
     8
 71
     3
 72
    16
 73
    12
 74
     0
 42
0.00000001
 43
0.00000001
 12
1.0
 22
0.0
 32
0.0
 13
1.0
 23
0.0
 33
0.0
 40
0.0
 40
0.0
 40
0.0
 40
0.0
 40
0.2499999999999957
 40
0.2499999999999957
 40
0.4999999999999913
 40
0.4999999999999913
 40
0.624999999999992
 40
0.624999999999992
 40
0.7499999999999928
 40
0.7499999999999928
 40
1.0
 40
1.0
 40
1.0
 40
1.0
 10
808.6162930735118
 20
271.3093968913316
 30
0.0
 10
808.8612143539052
 20
270.999429801185
 30
0.0
 10
809.0630739221491
 20
270.6872027898132
 30
0.0
 10
809.342715163547
 20
270.0562370364698
 30
0.0
 10
809.4195744244922
 20
269.7374498853938
 30
0.0
 10
809.4204190157631
 20
269.2532630087663
 30
0.0
 10
809.4016301099126
 20
269.0911079576879
 30
0.0
 10
809.3283630267678
 20
268.7703481633417
 30
0.0
 10
809.2739592047134
 20
268.611043654026
 30
0.0
 10
809.0638808835697
 20
268.1359663247995
 30
0.0
 10
808.861522143718
 20
267.8230186525109
 30
0.0
 10
808.6162958872807
 20
267.5126651546282
 30
0.0
  0
LINE
  5
21E
330
1F
100
AcDbEntity
  8
0
  6
Continuous
 62
     7
370
    15
100
AcDbLine
 10
800.6900192546
 20
1048.4498895614
 30
0.0
 11
808.6162896204
 21
1048.4498895614
 31
0.0
  0
LINE
  5
21F
330
1F
100
AcDbEntity
  8
0
  6
Continuous
 62
     7
370
    15
100
AcDbLine
 10
800.6900192546
 20
250.7569350211
 30
0.0
 11
808.6162896204
 21
250.7569350211
 31
0.0
  0
LINE
  5
220
330
1F
100
AcDbEntity
  8
0
  6
Continuous
 62
     7
370
    15
100
AcDbLine
 10
800.6900192546
 20
1027.8974331825
 30
0.0
 11
808.6162896204
 21
1027.8974331825
 31
0.0
  0
LINE
  5
221
330
1F
100
AcDbEntity
  8
0
  6
Continuous
 62
     7
370
    15
100
AcDbLine
 10
800.6900192546
 20
271.3093914001
 30
0.0
 11
808.6162896204
 21
271.3093914001
 31
0.0
  0
LINE
  5
222
330
1F
100
AcDbEntity
  8
0
  6
Continuous
 62
     7
370
    15
100
AcDbLine
 10
764.3531502533
 20
1032.1736492126
 30
0.0
 11
764.3531502533
 21
1044.1736735313
 31
0.0
  0
LINE
  5
223
330
1F
100
AcDbEntity
  8
0
  6
Continuous
 62
     7
370
    15
100
AcDbLine
 10
764.3531502533
 20
255.0331510513
 30
0.0
 11
764.3531502533
 21
267.03317537
 31
0.0
  0
LINE
  5
224
330
1F
100
AcDbEntity
  8
0
  6
Continuous
 62
     7
370
    15
100
AcDbLine
 10
809.8531605053
 20
1122.1425987689
 30
0.0
 11
809.8531605053
 21
1146.1425878017
 31
0.0
  0
LINE
  5
225
330
1F
100
AcDbEntity
  8
0
  6
Continuous
 62
     7
370
    15
100
AcDbLine
 10
809.8531605053
 20
167.7344895809
 30
0.0
 11
809.8531605053
 21
177.0642258136
 31
0.0
  0
LINE
  5
226
330
1F
100
AcDbEntity
  8
0
  6
Continuous
 62
     7
370
    15
100
AcDbLine
 10
809.8531605053
 20
153.0642367809
 30
0.0
 11
809.8531605053
 21
167.7344895809
 31
0.0
  0
SPLINE
  5
227
330
1F
100
AcDbEntity
  8
0
  6
Continuous
 62
     7
370
    15
100
AcDbSpline
210
0.0
220
0.0
230
1.0
 70
     8
 71
     3
 72
     9
 73
     5
 74
     0
 42
0.00000001
 43
0.00000001
 12
1.0
 22
0.0
 32
0.0
 13
1.0
 23
0.0
 33
0.0
 40
0.0
 40
0.0
 40
0.0
 40
0.0
 40
0.4024675940358171
 40
1.0
 40
1.0
 40
1.0
 40
1.0
 10
800.0421763705803
 20
1124.911204716427
 30
0.0
 10
800.0970333024335
 20
1124.81600155356
 30
0.0
 10
800.2333347902209
 20
1124.57945291144
 30
0.0
 10
800.5192034603763
 20
1124.349429231482
 30
0.0
 10
800.690019254644
 20
1124.211982628567
 30
0.0
  0
SPLINE
  5
228
330
1F
100
AcDbEntity
  8
0
  6
Continuous
 62
     7
370
    15
100
AcDbSpline
210
0.0
220
0.0
230
1.0
 70
     8
 71
     3
 72
    14
 73
    10
 74
     0
 42
0.00000001
 43
0.00000001
 12
1.0
 22
0.0
 32
0.0
 13
1.0
 23
0.0
 33
0.0
 40
0.0
 40
0.0
 40
0.0
 40
0.0
 40
0.1803122910888732
 40
0.3621160213329618
 40
0.4866241881718625
 40
0.6111288813981959
 40
0.738951562568726
 40
0.8668089793319764
 40
1.0
 40
1.0
 40
1.0
 40
1.0
 10
800.690019254644
 20
1141.760692736371
 30
0.0
 10
800.5264184183516
 20
1141.897075248548
 30
0.0
 10
800.1978635341161
 20
1142.170968350293
 30
0.0
 10
799.9467945036605
 20
1142.548611816627
 30
0.0
 10
799.868896924904
 20
1142.885546521848
 30
0.0
 10
799.9120310210278
 20
1143.180638561799
 30
0.0
 10
800.0692875242216
 20
1143.476270542847
 30
0.0
 10
800.3252198721044
 20
1143.775513624793
 30
0.0
 10
800.5667743558869
 20
1143.972611633911
 30
0.0
 10
800.690019254644
 20
1144.073174139721
 30
0.0
  0
SPLINE
  5
229
330
1F
100
AcDbEntity
  8
0
  6
Continuous
 62
     7
370
    15
100
AcDbSpline
210
0.0
220
0.0
230
1.0
 70
     8
 71
     3
 72
    16
 73
    12
 74
     0
 42
0.00000001
 43
0.00000001
 12
1.0
 22
0.0
 32
0.0
 13
1.0
 23
0.0
 33
0.0
 40
0.0
 40
0.0
 40
0.0
 40
0.0
 40
0.2499999999999882
 40
0.2499999999999882
 40
0.4999999999999764
 40
0.4999999999999764
 40
0.6249999999999786
 40
0.6249999999999786
 40
0.7499999999999807
 40
0.7499999999999807
 40
1.0
 40
1.0
 40
1.0
 40
1.0
 10
800.6900136318822
 20
1131.830079265477
 30
0.0
 10
800.4450921172997
 20
1132.640818781422
 30
0.0
 10
800.2432323972632
 20
1133.457469277121
 30
0.0
 10
799.9635911256662
 20
1135.10780215373
 30
0.0
 10
799.8867319909378
 20
1135.941611152382
 30
0.0
 10
799.8858878297686
 20
1137.208034152748
 30
0.0
 10
799.9046769164387
 20
1137.632161430733
 30
0.0
 10
799.9779444085196
 20
1138.471129927852
 30
0.0
 10
800.032348460183
 20
1138.88780142674
 30
0.0
 10
800.242427518535
 20
1140.130397656673
 30
0.0
 10
800.4447868117024
 20
1140.948933026262
 30
0.0
 10
800.6900136318824
 20
1141.760683165194
 30
0.0
  0
SPLINE
  5
22A
330
1F
100
AcDbEntity
  8
0
  6
Continuous
 62
     7
370
    15
100
AcDbSpline
210
0.0
220
0.0
230
1.0
 70
     8
 71
     3
 72
    16
 73
    12
 74
     0
 42
0.00000001
 43
0.00000001
 12
1.0
 22
0.0
 32
0.0
 13
1.0
 23
0.0
 33
0.0
 40
0.0
 40
0.0
 40
0.0
 40
0.0
 40
0.2499999999999984
 40
0.2499999999999984
 40
0.4999999999999969
 40
0.4999999999999969
 40
0.6249999999999948
 40
0.6249999999999948
 40
0.7499999999999927
 40
0.7499999999999927
 40
1.0
 40
1.0
 40
1.0
 40
1.0
 10
800.6900136318822
 20
1124.211980745921
 30
0.0
 10
800.4450921172997
 20
1124.833926155137
 30
0.0
 10
800.2432323972632
 20
1125.460406074697
 30
0.0
 10
799.9635911256662
 20
1126.726431642832
 30
0.0
 10
799.8867319909378
 20
1127.366074424114
 30
0.0
 10
799.8858878297686
 20
1128.337589880943
 30
0.0
 10
799.9046769164387
 20
1128.66295210676
 30
0.0
 10
799.9779444085196
 20
1129.306552911948
 30
0.0
 10
800.032348460183
 20
1129.626195560157
 30
0.0
 10
800.242427518535
 20
1130.579432704167
 30
0.0
 10
800.4447868117024
 20
1131.207358573555
 30
0.0
 10
800.6900136318824
 20
1131.830079265477
 30
0.0
  0
LINE
  5
22B
330
1F
100
AcDbEntity
  8
0
  6
Continuous
 62
     7
370
    15
100
AcDbLine
 10
799.4531483697
 20
1125.8925951927
 30
0.0
 11
799.4531483697
 21
1142.392591378
 31
0.0
  0
LINE
  5
22C
330
1F
100
AcDbEntity
  8
0
  6
Continuous
 62
     7
370
    15
100
AcDbLine
 10
800.6900192546
 20
1141.7606927364
 30
0.0
 11
808.6162896204
 21
1141.7606927364
 31
0.0
  0
SPLINE
  5
22D
330
1F
100
AcDbEntity
  8
0
  6
Continuous
 62
     7
370
    15
100
AcDbSpline
210
0.0
220
0.0
230
1.0
 70
     8
 71
     3
 72
    16
 73
    12
 74
     0
 42
0.00000001
 43
0.00000001
 12
1.0
 22
0.0
 32
0.0
 13
1.0
 23
0.0
 33
0.0
 40
0.0
 40
0.0
 40
0.0
 40
0.0
 40
0.2500000000000043
 40
0.2500000000000043
 40
0.5000000000000087
 40
0.5000000000000087
 40
0.6250000000000102
 40
0.6250000000000102
 40
0.7500000000000119
 40
0.7500000000000119
 40
1.0
 40
1.0
 40
1.0
 40
1.0
 10
808.6162930735119
 20
1141.760683165194
 30
0.0
 10
808.8612145880942
 20
1140.949943649248
 30
0.0
 10
809.0630743081307
 20
1140.133293153549
 30
0.0
 10
809.3427155797278
 20
1138.482960276941
 30
0.0
 10
809.4195747144562
 20
1137.649151278289
 30
0.0
 10
809.4204188756253
 20
1136.382728277923
 30
0.0
 10
809.4016297889552
 20
1135.958600999938
 30
0.0
 10
809.3283622968743
 20
1135.11963250282
 30
0.0
 10
809.2739582452111
 20
1134.702961003931
 30
0.0
 10
809.0638791868589
 20
1133.460364773998
 30
0.0
 10
808.8615198936917
 20
1132.641829404409
 30
0.0
 10
808.6162930735117
 20
1131.830079265477
 30
0.0
  0
LINE
  5
22E
330
1F
100
AcDbEntity
  8
0
  6
Continuous
 62
     7
370
    15
100
AcDbLine
 10
800.6900192546
 20
1131.8300820796
 30
0.0
 11
808.6162896204
 21
1131.8300820796
 31
0.0
  0
SPLINE
  5
22F
330
1F
100
AcDbEntity
  8
0
  6
Continuous
 62
     7
370
    15
100
AcDbSpline
210
0.0
220
0.0
230
1.0
 70
     8
 71
     3
 72
    14
 73
    10
 74
     0
 42
0.00000001
 43
0.00000001
 12
1.0
 22
0.0
 32
0.0
 13
1.0
 23
0.0
 33
0.0
 40
0.0
 40
0.0
 40
0.0
 40
0.0
 40
0.133191091276474
 40
0.2578372514896997
 40
0.3824526722811928
 40
0.5101669334387418
 40
0.6378832336625974
 40
0.8180576858579469
 40
1.0
 40
1.0
 40
1.0
 40
1.0
 10
808.616289620359
 20
1144.073174139721
 30
0.0
 10
808.7395443555139
 20
1143.972607235667
 30
0.0
 10
808.9781463659098
 20
1143.777925340026
 30
0.0
 10
809.2309755825299
 20
1143.483750421356
 30
0.0
 10
809.3907614562296
 20
1143.190646775127
 30
0.0
 10
809.4385926933471
 20
1142.89310562814
 30
0.0
 10
809.3614943240536
 20
1142.552366734964
 30
0.0
 10
809.1096157454535
 20
1142.172230315443
 30
0.0
 10
808.7812659989305
 20
1141.89831767855
 30
0.0
 10
808.616289620359
 20
1141.760692736371
 30
0.0
  0
SPLINE
  5
230
330
1F
100
AcDbEntity
  8
0
  6
Continuous
 62
     7
370
    15
100
AcDbSpline
210
0.0
220
0.0
230
1.0
 70
     8
 71
     3
 72
     9
 73
     5
 74
     0
 42
0.00000001
 43
0.00000001
 12
1.0
 22
0.0
 32
0.0
 13
1.0
 23
0.0
 33
0.0
 40
0.0
 40
0.0
 40
0.0
 40
0.0
 40
0.5921876833751558
 40
1.0
 40
1.0
 40
1.0
 40
1.0
 10
808.616289620359
 20
1124.211982628567
 30
0.0
 10
808.7856473980172
 20
1124.348190223722
 30
0.0
 10
809.0716340580113
 20
1124.578197701044
 30
0.0
 10
809.2081688233909
 20
1124.814739895945
 30
0.0
 10
809.26384938236
 20
1124.911204716427
 30
0.0
  0
SPLINE
  5
231
330
1F
100
AcDbEntity
  8
0
  6
Continuous
 62
     7
370
    15
100
AcDbSpline
210
0.0
220
0.0
230
1.0
 70
     8
 71
     3
 72
    16
 73
    12
 74
     0
 42
0.00000001
 43
0.00000001
 12
1.0
 22
0.0
 32
0.0
 13
1.0
 23
0.0
 33
0.0
 40
0.0
 40
0.0
 40
0.0
 40
0.0
 40
0.2499999999999972
 40
0.2499999999999972
 40
0.4999999999999943
 40
0.4999999999999943
 40
0.6249999999999929
 40
0.6249999999999929
 40
0.7499999999999916
 40
0.7499999999999916
 40
1.0
 40
1.0
 40
1.0
 40
1.0
 10
808.6162930735118
 20
1131.830079265477
 30
0.0
 10
808.8612145880942
 20
1131.208133856261
 30
0.0
 10
809.0630743081307
 20
1130.581653936701
 30
0.0
 10
809.3427155797278
 20
1129.315628368566
 30
0.0
 10
809.4195747144562
 20
1128.675985587284
 30
0.0
 10
809.4204188756253
 20
1127.704470130455
 30
0.0
 10
809.4016297889551
 20
1127.379107904638
 30
0.0
 10
809.3283622968743
 20
1126.73550709945
 30
0.0
 10
809.273958245211
 20
1126.415864451241
 30
0.0
 10
809.0638791868589
 20
1125.462627307231
 30
0.0
 10
808.8615198936916
 20
1124.834701437844
 30
0.0
 10
808.6162930735115
 20
1124.211980745921
 30
0.0
  0
LINE
  5
232
330
1F
100
AcDbEntity
  8
0
  6
Continuous
 62
     7
370
    15
100
AcDbLine
 10
800.6900192546
 20
167.3767425029
 30
0.0
 11
808.6162896204
 21
167.3767425029
 31
0.0
  0
SPLINE
  5
233
330
1F
100
AcDbEntity
  8
0
  6
Continuous
 62
     7
370
    15
100
AcDbSpline
210
0.0
220
0.0
230
1.0
 70
     8
 71
     3
 72
    16
 73
    12
 74
     0
 42
0.00000001
 43
0.00000001
 12
1.0
 22
0.0
 32
0.0
 13
1.0
 23
0.0
 33
0.0
 40
0.0
 40
0.0
 40
0.0
 40
0.0
 40
0.2499999999999966
 40
0.2499999999999966
 40
0.4999999999999931
 40
0.4999999999999931
 40
0.6249999999999909
 40
0.6249999999999909
 40
0.7499999999999886
 40
0.7499999999999886
 40
1.0
 40
1.0
 40
1.0
 40
1.0
 10
808.6162930735119
 20
167.3767453170643
 30
0.0
 10
808.8612145880942
 20
166.5660058011188
 30
0.0
 10
809.0630743081307
 20
165.7493553054202
 30
0.0
 10
809.3427155797278
 20
164.0990224288118
 30
0.0
 10
809.4195747144562
 20
163.2652134301599
 30
0.0
 10
809.4204188756253
 20
161.9987904297935
 30
0.0
 10
809.4016297889552
 20
161.5746631518087
 30
0.0
 10
809.3283622968743
 20
160.73569465469
 30
0.0
 10
809.2739582452111
 20
160.3190231558017
 30
0.0
 10
809.0638791868589
 20
159.0764269258681
 30
0.0
 10
808.8615198936917
 20
158.2578915562792
 30
0.0
 10
808.6162930735117
 20
157.4461414173478
 30
0.0
  0
LINE
  5
234
330
1F
100
AcDbEntity
  8
0
  6
Continuous
 62
     7
370
    15
100
AcDbLine
 10
800.6900192546
 20
157.4461318462
 30
0.0
 11
808.6162896204
 21
157.4461318462
 31
0.0
  0
SPLINE
  5
235
330
1F
100
AcDbEntity
  8
0
  6
Continuous
 62
     7
370
    15
100
AcDbSpline
210
0.0
220
0.0
230
1.0
 70
     8
 71
     3
 72
    16
 73
    12
 74
     0
 42
0.00000001
 43
0.00000001
 12
1.0
 22
0.0
 32
0.0
 13
1.0
 23
0.0
 33
0.0
 40
0.0
 40
0.0
 40
0.0
 40
0.0
 40
0.250000000000004
 40
0.250000000000004
 40
0.500000000000008
 40
0.500000000000008
 40
0.62500000000001
 40
0.62500000000001
 40
0.750000000000012
 40
0.750000000000012
 40
1.0
 40
1.0
 40
1.0
 40
1.0
 10
800.6900136318822
 20
157.4461414173477
 30
0.0
 10
800.4450921172999
 20
158.2568809332933
 30
0.0
 10
800.2432323972632
 20
159.0735314289919
 30
0.0
 10
799.9635911256662
 20
160.7238643056003
 30
0.0
 10
799.8867319909378
 20
161.5576733042522
 30
0.0
 10
799.8858878297686
 20
162.8240963046186
 30
0.0
 10
799.9046769164387
 20
163.2482235826034
 30
0.0
 10
799.9779444085196
 20
164.0871920797221
 30
0.0
 10
800.032348460183
 20
164.5038635786105
 30
0.0
 10
800.242427518535
 20
165.7464598085439
 30
0.0
 10
800.4447868117023
 20
166.5649951781327
 30
0.0
 10
800.6900136318823
 20
167.3767453170643
 30
0.0
  0
SPLINE
  5
236
330
1F
100
AcDbEntity
  8
0
  6
Continuous
 62
     7
370
    15
100
AcDbSpline
210
0.0
220
0.0
230
1.0
 70
     8
 71
     3
 72
    10
 73
     6
 74
     0
 42
0.00000001
 43
0.00000001
 12
1.0
 22
0.0
 32
0.0
 13
1.0
 23
0.0
 33
0.0
 40
0.0
 40
0.0
 40
0.0
 40
0.0
 40
0.4371800804604906
 40
0.8463147134988982
 40
0.9999999999999999
 40
0.9999999999999999
 40
0.9999999999999999
 40
0.9999999999999999
 10
800.690019254644
 20
174.9948419539761
 30
0.0
 10
800.5681129935555
 20
174.8942436945196
 30
0.0
 10
800.3321208543018
 20
174.6995006333976
 30
0.0
 10
800.1158899787644
 20
174.4655074109363
 30
0.0
 10
800.0499109891268
 20
174.3321297697429
 30
0.0
 10
800.0318945693565
 20
174.2957092730831
 30
0.0
  0
SPLINE
  5
237
330
1F
100
AcDbEntity
  8
0
  6
Continuous
 62
     7
370
    15
100
AcDbSpline
210
0.0
220
0.0
230
1.0
 70
     8
 71
     3
 72
    16
 73
    12
 74
     0
 42
0.00000001
 43
0.00000001
 12
1.0
 22
0.0
 32
0.0
 13
1.0
 23
0.0
 33
0.0
 40
0.0
 40
0.0
 40
0.0
 40
0.0
 40
0.2499999999999964
 40
0.2499999999999964
 40
0.4999999999999929
 40
0.4999999999999929
 40
0.6249999999999911
 40
0.6249999999999911
 40
0.7499999999999893
 40
0.7499999999999893
 40
1.0
 40
1.0
 40
1.0
 40
1.0
 10
800.6900136318822
 20
167.3767453170642
 30
0.0
 10
800.4450921172997
 20
167.9986907262799
 30
0.0
 10
800.2432323972632
 20
168.6251706458402
 30
0.0
 10
799.9635911256662
 20
169.8911962139755
 30
0.0
 10
799.8867319909378
 20
170.5308389952572
 30
0.0
 10
799.8858878297686
 20
171.5023544520866
 30
0.0
 10
799.9046769164387
 20
171.8277166779037
 30
0.0
 10
799.9779444085195
 20
172.4713174830911
 30
0.0
 10
800.032348460183
 20
172.7909601313005
 30
0.0
 10
800.242427518535
 20
173.7441972753106
 30
0.0
 10
800.4447868117024
 20
174.3721231446978
 30
0.0
 10
800.6900136318824
 20
174.9948438366208
 30
0.0
  0
SPLINE
  5
238
330
1F
100
AcDbEntity
  8
0
  6
Continuous
 62
     7
370
    15
100
AcDbSpline
210
0.0
220
0.0
230
1.0
 70
     8
 71
     3
 72
    14
 73
    10
 74
     0
 42
0.00000001
 43
0.00000001
 12
1.0
 22
0.0
 32
0.0
 13
1.0
 23
0.0
 33
0.0
 40
0.0
 40
0.0
 40
0.0
 40
0.0
 40
0.1803116805008488
 40
0.3621153512392975
 40
0.4866235179217202
 40
0.6111288992397411
 40
0.7389508961909509
 40
0.8668083127935142
 40
1.0
 40
1.0
 40
1.0
 40
1.0
 10
800.690019254644
 20
155.1336504428219
 30
0.0
 10
800.5264183548453
 20
155.2700169773918
 30
0.0
 10
800.1978628384801
 20
155.5438784123578
 30
0.0
 10
799.9467944573455
 20
155.9215777975726
 30
0.0
 10
799.8688970200393
 20
156.2585035782061
 30
0.0
 10
799.9120303182352
 20
156.5535945795301
 30
0.0
 10
800.0692880957224
 20
156.84922927922
 30
0.0
 10
800.3252207418919
 20
157.1484720710233
 30
0.0
 10
800.5667744496641
 20
157.3455694270393
 30
0.0
 10
800.690019254644
 20
157.4461318461727
 30
0.0
  0
LINE
  5
239
330
1F
100
AcDbEntity
  8
0
  6
Continuous
 62
     7
370
    15
100
AcDbLine
 10
799.4531483697
 20
156.8142332046
 30
0.0
 11
799.4531483697
 21
173.3142293899
 31
0.0
  0
SPLINE
  5
23A
330
1F
100
AcDbEntity
  8
0
  6
Continuous
 62
     7
370
    15
100
AcDbSpline
210
0.0
220
0.0
230
1.0
 70
     8
 71
     3
 72
    14
 73
    10
 74
     0
 42
0.00000001
 43
0.00000001
 12
1.0
 22
0.0
 32
0.0
 13
1.0
 23
0.0
 33
0.0
 40
0.0
 40
0.0
 40
0.0
 40
0.0
 40
0.1331917576286362
 40
0.2578385348814685
 40
0.3824533310255379
 40
0.5101675918436024
 40
0.6378838917279679
 40
0.8180589653913427
 40
1.0
 40
1.0
 40
1.0
 40
1.0
 10
808.616289620359
 20
157.4461318461727
 30
0.0
 10
808.739544394686
 20
157.3455695782384
 30
0.0
 10
808.9781464748404
 20
157.1508966623601
 30
0.0
 10
809.2309743238608
 20
156.856658709157
 30
0.0
 10
809.3907619538396
 20
156.5636179140434
 30
0.0
 10
809.4385926818788
 20
156.2660578405469
 30
0.0
 10
809.3614937872816
 20
155.9253336847618
 30
0.0
 10
809.1096182288362
 20
155.5451418897875
 30
0.0
 10
808.7812662567343
 20
155.2712594799851
 30
0.0
 10
808.616289620359
 20
155.1336504428219
 30
0.0
  0
SPLINE
  5
23B
330
1F
100
AcDbEntity
  8
0
  6
Continuous
 62
     7
370
    15
100
AcDbSpline
210
0.0
220
0.0
230
1.0
 70
     8
 71
     3
 72
    16
 73
    12
 74
     0
 42
0.00000001
 43
0.00000001
 12
1.0
 22
0.0
 32
0.0
 13
1.0
 23
0.0
 33
0.0
 40
0.0
 40
0.0
 40
0.0
 40
0.0
 40
0.2500000000000044
 40
0.2500000000000044
 40
0.5000000000000089
 40
0.5000000000000089
 40
0.6250000000000067
 40
0.6250000000000067
 40
0.7500000000000044
 40
0.7500000000000044
 40
1.0
 40
1.0
 40
1.0
 40
1.0
 10
808.6162930735118
 20
174.9948438366208
 30
0.0
 10
808.8612145880942
 20
174.3728984274048
 30
0.0
 10
809.0630743081307
 20
173.7464185078448
 30
0.0
 10
809.3427155797278
 20
172.4803929397096
 30
0.0
 10
809.4195747144562
 20
171.8407501584276
 30
0.0
 10
809.4204188756253
 20
170.8692347015982
 30
0.0
 10
809.4016297889552
 20
170.5438724757813
 30
0.0
 10
809.3283622968743
 20
169.9002716705938
 30
0.0
 10
809.2739582452111
 20
169.5806290223848
 30
0.0
 10
809.0638791868589
 20
168.6273918783745
 30
0.0
 10
808.8615198936916
 20
167.9994660089871
 30
0.0
 10
808.6162930735117
 20
167.3767453170643
 30
0.0
  0
SPLINE
  5
23C
330
1F
100
AcDbEntity
  8
0
  6
Continuous
 62
     7
370
    15
100
AcDbSpline
210
0.0
220
0.0
230
1.0
 70
     8
 71
     3
 72
    10
 73
     6
 74
     0
 42
0.00000001
 43
0.00000001
 12
1.0
 22
0.0
 32
0.0
 13
1.0
 23
0.0
 33
0.0
 40
0.0
 40
0.0
 40
0.0
 40
0.0
 40
0.1431344642837083
 40
0.5628137199352068
 40
1.0
 40
1.0
 40
1.0
 40
1.0
 10
809.2742503928733
 20
174.2957092730831
 30
0.0
 10
809.2578789704187
 20
174.3296416655002
 30
0.0
 10
809.1935055071966
 20
174.463065967594
 30
0.0
 10
808.9767908192782
 20
174.6970652697378
 30
0.0
 10
808.7380824080916
 20
174.8942402011833
 30
0.0
 10
808.616289620359
 20
174.9948419539761
 30
0.0
  0
LINE
  5
23D
330
1F
100
AcDbEntity
  8
0
  6
Continuous
 62
     7
370
    15
100
AcDbLine
 10
800.6900192546
 20
1124.2119826286
 30
0.0
 11
808.6162896204
 21
1124.2119826286
 31
0.0
  0
LINE
  5
23E
330
1F
100
AcDbEntity
  8
0
  6
Continuous
 62
     7
370
    15
100
AcDbLine
 10
800.6900192546
 20
174.994841954
 30
0.0
 11
808.6162896204
 21
174.994841954
 31
0.0
  0
LINE
  5
23F
330
1F
100
AcDbEntity
  8
0
  6
Continuous
 62
     7
370
    15
100
AcDbLine
 10
800.6900192546
 20
1144.0731741397
 30
0.0
 11
808.6162896204
 21
1144.0731741397
 31
0.0
  0
LINE
  5
240
330
1F
100
AcDbEntity
  8
0
  6
Continuous
 62
     7
370
    15
100
AcDbLine
 10
800.6900192546
 20
155.1336504428
 30
0.0
 11
808.6162896204
 21
155.1336504428
 31
0.0
  0
LINE
  5
241
330
1F
100
AcDbEntity
  8
0
  6
Continuous
 62
     7
370
    15
100
AcDbLine
 10
764.3531502533
 20
1128.142581126
 30
0.0
 11
764.3531502533
 21
1140.1425756423
 31
0.0
  0
LINE
  5
242
330
1F
100
AcDbEntity
  8
0
  6
Continuous
 62
     7
370
    15
100
AcDbLine
 10
764.3531502533
 20
159.0642489402
 30
0.0
 11
764.3531502533
 21
171.0642434566
 31
0.0
  0
LINE
  5
243
330
1F
100
AcDbEntity
  8
0
  6
Continuous
 62
     7
370
     0
100
AcDbLine
 10
815.6041593599
 20
649.6034122913
 30
0.0
 11
815.6041593599
 21
1160.6033898799
 31
0.0
  0
LINE
  5
244
330
1F
100
AcDbEntity
  8
0
  6
Continuous
 62
     7
370
     0
100
AcDbLine
 10
815.6041593599
 20
138.6034347026
 30
0.0
 11
815.6041593599
 21
649.6034122913
 31
0.0
  0
LINE
  5
245
330
1F
100
AcDbEntity
  8
0
  6
Continuous
 62
     7
370
     0
100
AcDbLine
 10
818.5927436995
 20
649.6034122913
 30
0.0
 11
818.5927436995
 21
1157.8648544757
 31
0.0
  0
LINE
  5
246
330
1F
100
AcDbEntity
  8
0
  6
Continuous
 62
     7
370
     0
100
AcDbLine
 10
818.5927436995
 20
141.3419701068
 30
0.0
 11
818.5927436995
 21
649.6034122913
 31
0.0
  0
LINE
  5
247
330
1F
100
AcDbEntity
  8
0
  6
Continuous
 62
     7
370
     0
100
AcDbLine
 10
820.015014832
 20
1044.1736735313
 30
0.0
 11
820.015014832
 21
1128.5258985965
 31
0.0
  0
LINE
  5
248
330
1F
100
AcDbEntity
  8
0
  6
Continuous
 62
     7
370
     0
100
AcDbLine
 10
820.015014832
 20
871.2436266153
 30
0.0
 11
820.015014832
 21
1032.1736492126
 31
0.0
  0
LINE
  5
249
330
1F
100
AcDbEntity
  8
0
  6
Continuous
 62
     7
370
     0
100
AcDbLine
 10
820.015014832
 20
655.6034123434
 30
0.0
 11
820.015014832
 21
859.2436320989
 31
0.0
  0
LINE
  5
24A
330
1F
100
AcDbEntity
  8
0
  6
Continuous
 62
     7
370
     0
100
AcDbLine
 10
820.015014832
 20
439.9631924836
 30
0.0
 11
820.015014832
 21
643.6034122391
 31
0.0
  0
LINE
  5
24B
330
1F
100
AcDbEntity
  8
0
  6
Continuous
 62
     7
370
     0
100
AcDbLine
 10
820.015014832
 20
267.03317537
 30
0.0
 11
820.015014832
 21
427.9631979673
 31
0.0
  0
LINE
  5
24C
330
1F
100
AcDbEntity
  8
0
  6
Continuous
 62
     7
370
     0
100
AcDbLine
 10
820.015014832
 20
170.680925986
 30
0.0
 11
820.015014832
 21
255.0331510513
 31
0.0
  0
LINE
  5
24D
330
1F
100
AcDbEntity
  8
0
  6
Continuous
 62
     7
370
     0
100
AcDbLine
 10
820.015014832
 20
157.5986005275
 30
0.0
 11
820.015014832
 21
159.0642489402
 31
0.0
  0
LINE
  5
24E
330
1F
100
AcDbEntity
  8
0
  6
Continuous
 62
     7
370
     0
100
AcDbLine
 10
820.015014832
 20
1140.1425756423
 30
0.0
 11
820.015014832
 21
1141.608224055
 31
0.0
  0
LINE
  5
24F
330
1F
100
AcDbEntity
  8
0
  6
Continuous
 62
     7
370
     0
100
AcDbLine
 10
824.7343094396
 20
655.6034123434
 30
0.0
 11
824.7343094396
 21
859.2436320989
 31
0.0
  0
LINE
  5
250
330
1F
100
AcDbEntity
  8
0
  6
Continuous
 62
     7
370
     0
100
AcDbLine
 10
824.7343094396
 20
871.2436266153
 30
0.0
 11
824.7343094396
 21
1032.1736492126
 31
0.0
  0
LINE
  5
251
330
1F
100
AcDbEntity
  8
0
  6
Continuous
 62
     7
370
     0
100
AcDbLine
 10
824.7343094396
 20
1044.1736735313
 30
0.0
 11
824.7343094396
 21
1128.142581126
 31
0.0
  0
LINE
  5
252
330
1F
100
AcDbEntity
  8
0
  6
Continuous
 62
     7
370
     0
100
AcDbLine
 10
824.7343094396
 20
171.0642434566
 30
0.0
 11
824.7343094396
 21
255.0331510513
 31
0.0
  0
LINE
  5
253
330
1F
100
AcDbEntity
  8
0
  6
Continuous
 62
     7
370
     0
100
AcDbLine
 10
824.7343094396
 20
267.03317537
 30
0.0
 11
824.7343094396
 21
427.9631979673
 31
0.0
  0
LINE
  5
254
330
1F
100
AcDbEntity
  8
0
  6
Continuous
 62
     7
370
     0
100
AcDbLine
 10
824.7343094396
 20
439.9631924836
 30
0.0
 11
824.7343094396
 21
643.6034122391
 31
0.0
  0
LINE
  5
255
330
1F
100
AcDbEntity
  8
0
  6
Continuous
 62
     7
370
     0
100
AcDbLine
 10
849.9839918065
 20
655.6034123434
 30
0.0
 11
849.9839918065
 21
859.2436320989
 31
0.0
  0
LINE
  5
256
330
1F
100
AcDbEntity
  8
0
  6
Continuous
 62
     7
370
     0
100
AcDbLine
 10
849.9839918065
 20
871.2436266153
 30
0.0
 11
849.9839918065
 21
1032.1736492126
 31
0.0
  0
LINE
  5
257
330
1F
100
AcDbEntity
  8
0
  6
Continuous
 62
     7
370
     0
100
AcDbLine
 10
849.9839918065
 20
1044.1736735313
 30
0.0
 11
849.9839918065
 21
1128.142581126
 31
0.0
  0
LINE
  5
258
330
1F
100
AcDbEntity
  8
0
  6
Continuous
 62
     7
370
     0
100
AcDbLine
 10
849.9839918065
 20
171.0642434566
 30
0.0
 11
849.9839918065
 21
255.0331510513
 31
0.0
  0
LINE
  5
259
330
1F
100
AcDbEntity
  8
0
  6
Continuous
 62
     7
370
     0
100
AcDbLine
 10
849.9839918065
 20
267.03317537
 30
0.0
 11
849.9839918065
 21
427.9631979673
 31
0.0
  0
LINE
  5
25A
330
1F
100
AcDbEntity
  8
0
  6
Continuous
 62
     7
370
     0
100
AcDbLine
 10
849.9839918065
 20
439.9631924836
 30
0.0
 11
849.9839918065
 21
643.6034122391
 31
0.0
  0
LINE
  5
25B
330
1F
100
AcDbEntity
  8
FORMAT
  6
CENTERX2
370
     0
100
AcDbLine
 10
760.7951097285
 20
649.6034122913
 30
0.0
 11
945.8300178544
 21
649.6034122913
 31
0.0
  0
LINE
  5
25C
330
1F
100
AcDbEntity
  8
0
  6
Continuous
 62
     7
370
    15
100
AcDbLine
 10
615.7089630679
 20
-209.5258868634
 30
0.0
 11
615.7089630679
 21
-184.5258864908
 31
0.0
  0
LINE
  5
25D
330
1F
100
AcDbEntity
  8
0
  6
Continuous
 62
     7
370
    15
100
AcDbLine
 10
-509.2910369321
 20
-184.5258864908
 30
0.0
 11
-509.2910369321
 21
-209.5258868634
 31
0.0
  0
LINE
  5
25E
330
1F
100
AcDbEntity
  8
0
  6
Continuous
 62
     7
370
    15
100
AcDbLine
 10
-457.7910145208
 20
-79.5258916317
 30
0.0
 11
-457.7910145208
 21
-82.7768928706
 31
0.0
  0
LINE
  5
25F
330
1F
100
AcDbEntity
  8
0
  6
Continuous
 62
     7
370
    15
100
AcDbLine
 10
564.2089406565
 20
-82.7768928706
 30
0.0
 11
564.2089406565
 21
-79.5258916317
 31
0.0
  0
ARC
  5
260
330
1F
100
AcDbEntity
  8
0
  6
Continuous
 62
     7
370
    15
100
AcDbCircle
 10
-454.7910369321
 20
-82.7768933413
 30
0.0
 40
2.999999999999953
100
AcDbArc
 50
180.0
 51
265.0
  0
ARC
  5
261
330
1F
100
AcDbEntity
  8
0
  6
Continuous
 62
     7
370
    15
100
AcDbCircle
 10
561.2089630679
 20
-82.7768933413
 30
0.0
 40
2.999999999999958
100
AcDbArc
 50
275.0
 51
0.0
  0
LINE
  5
262
330
1F
100
AcDbEntity
  8
0
  6
Continuous
 62
     7
370
    15
100
AcDbLine
 10
-455.0524791166
 20
-85.7654772102
 30
0.0
 11
-449.7795542165
 21
-86.2268022596
 31
0.0
  0
LINE
  5
263
330
1F
100
AcDbEntity
  8
0
  6
Continuous
 62
     7
370
    15
100
AcDbLine
 10
556.1974803523
 20
-86.2268022596
 30
0.0
 11
561.4704052523
 21
-85.7654772102
 31
0.0
  0
LINE
  5
264
330
1F
100
AcDbEntity
  8
0
  6
Continuous
 62
     7
370
    15
100
AcDbLine
 10
151.8018702582
 20
-77.0258940159
 30
0.0
 11
151.8018702582
 21
-79.5258916317
 31
0.0
  0
LINE
  5
265
330
1F
100
AcDbEntity
  8
0
  6
Continuous
 62
     7
370
    15
100
AcDbLine
 10
175.8018667415
 20
-79.5258916317
 30
0.0
 11
175.8018667415
 21
-77.0258940159
 31
0.0
  0
LINE
  5
266
330
1F
100
AcDbEntity
  8
0
  6
Continuous
 62
     7
370
    15
100
AcDbLine
 10
-69.3839406058
 20
-77.0258940159
 30
0.0
 11
-69.3839406058
 21
-79.5258916317
 31
0.0
  0
LINE
  5
267
330
1F
100
AcDbEntity
  8
0
  6
Continuous
 62
     7
370
    15
100
AcDbLine
 10
-45.3839441225
 20
-79.5258916317
 30
0.0
 11
-45.3839441225
 21
-77.0258940159
 31
0.0
  0
LINE
  5
268
330
1F
100
AcDbEntity
  8
0
  6
Continuous
 62
     7
370
    15
100
AcDbLine
 10
154.379659386
 20
-76.3491130768
 30
0.0
 11
155.5518666819
 21
-77.0258940159
 31
0.0
  0
LINE
  5
269
330
1F
100
AcDbEntity
  8
0
  6
Continuous
 62
     7
370
    15
100
AcDbLine
 10
172.0518703178
 20
-77.0258940159
 30
0.0
 11
173.2240701631
 21
-76.3491130768
 31
0.0
  0
LINE
  5
26A
330
1F
100
AcDbEntity
  8
0
  6
Continuous
 62
     7
370
    15
100
AcDbLine
 10
173.2204640821
 20
-67.3005766569
 30
0.0
 11
172.0518703178
 21
-66.6258818804
 31
0.0
  0
LINE
  5
26B
330
1F
100
AcDbEntity
  8
0
  6
Continuous
 62
     7
370
    15
100
AcDbLine
 10
155.5518666819
 20
-66.6258818804
 30
0.0
 11
154.3832729176
 21
-67.3005766569
 31
0.0
  0
LINE
  5
26C
330
1F
100
AcDbEntity
  8
0
  6
Continuous
 62
     7
370
    15
100
AcDbLine
 10
-66.8025379464
 20
-76.3511992394
 30
0.0
 11
-65.6339441821
 21
-77.0258940159
 31
0.0
  0
LINE
  5
26D
330
1F
100
AcDbEntity
  8
0
  6
Continuous
 62
     7
370
    15
100
AcDbLine
 10
-49.1339405462
 20
-77.0258940159
 30
0.0
 11
-47.9653467819
 21
-76.3511992394
 31
0.0
  0
LINE
  5
26E
330
1F
100
AcDbEntity
  8
0
  6
Continuous
 62
     7
370
    15
100
AcDbLine
 10
-47.9617332503
 20
-67.3026628195
 30
0.0
 11
-49.1339405462
 21
-66.6258818804
 31
0.0
  0
LINE
  5
26F
330
1F
100
AcDbEntity
  8
0
  6
Continuous
 62
     7
370
    15
100
AcDbLine
 10
-65.6339441821
 20
-66.6258818804
 30
0.0
 11
-66.8061440274
 21
-67.3026628195
 31
0.0
  0
ARC
  5
270
330
1F
100
AcDbEntity
  8
0
  6
Continuous
 62
     7
370
    15
100
AcDbCircle
 10
-439.2316268133
 20
-92.1687240382
 30
0.0
 40
5.000000000000038
100
AcDbArc
 50
3.0
 51
73.5243649825
  0
ARC
  5
271
330
1F
100
AcDbEntity
  8
0
  6
Continuous
 62
     7
370
    15
100
AcDbCircle
 10
545.649552949
 20
-92.1687240382
 30
0.0
 40
5.000000000000014
100
AcDbArc
 50
106.4800888255
 51
177.0
  0
LINE
  5
272
330
1F
100
AcDbEntity
  8
0
  6
Continuous
 62
     7
370
    15
100
AcDbLine
 10
169.8018694833
 20
-66.6258818804
 30
0.0
 11
169.8018694833
 21
-31.5258837639
 31
0.0
  0
LINE
  5
273
330
1F
100
AcDbEntity
  8
0
  6
Continuous
 62
     7
370
    15
100
AcDbLine
 10
157.8018675164
 20
-31.5258837639
 30
0.0
 11
157.8018675164
 21
-66.6258818804
 31
0.0
  0
LINE
  5
274
330
1F
100
AcDbEntity
  8
0
  6
Continuous
 62
     7
370
    15
100
AcDbLine
 10
169.8018694833
 20
-184.5258864908
 30
0.0
 11
169.8018694833
 21
-86.6313091813
 31
0.0
  0
LINE
  5
275
330
1F
100
AcDbEntity
  8
0
  6
Continuous
 62
     7
370
    15
100
AcDbLine
 10
157.8018675164
 20
-86.8643856942
 30
0.0
 11
157.8018675164
 21
-184.5258864908
 31
0.0
  0
LINE
  5
276
330
1F
100
AcDbEntity
  8
0
  6
Continuous
 62
     7
370
    15
100
AcDbLine
 10
-51.3839413806
 20
-66.6258818804
 30
0.0
 11
-51.3839413806
 21
-31.5258837639
 31
0.0
  0
LINE
  5
277
330
1F
100
AcDbEntity
  8
0
  6
Continuous
 62
     7
370
    15
100
AcDbLine
 10
-63.3839433476
 20
-31.5258837639
 30
0.0
 11
-63.3839433476
 21
-66.6258818804
 31
0.0
  0
LINE
  5
278
330
1F
100
AcDbEntity
  8
0
  6
Continuous
 62
     7
370
    15
100
AcDbLine
 10
-51.3839413806
 20
-184.5258864908
 30
0.0
 11
-51.3839413806
 21
-86.8641547262
 31
0.0
  0
LINE
  5
279
330
1F
100
AcDbEntity
  8
0
  6
Continuous
 62
     7
370
    15
100
AcDbLine
 10
-63.3839433476
 20
-86.6309590041
 30
0.0
 11
-63.3839433476
 21
-184.5258864908
 31
0.0
  0
LINE
  5
27A
330
1F
100
AcDbEntity
  8
0
  6
Continuous
 62
     7
370
    15
100
AcDbLine
 10
-434.2384775564
 20
-91.9070429503
 30
0.0
 11
-432.9151948377
 21
-117.1567253171
 31
0.0
  0
LINE
  5
27B
330
1F
100
AcDbEntity
  8
0
  6
Continuous
 62
     7
370
    15
100
AcDbLine
 10
539.3331209734
 20
-117.1567253171
 30
0.0
 11
540.6564036921
 21
-91.9070429503
 31
0.0
  0
ARC
  5
27C
330
1F
100
AcDbEntity
  8
0
  6
Continuous
 62
     7
370
    15
100
AcDbCircle
 10
-430.4186255153
 20
-117.0258868634
 30
0.0
 40
2.500000000000019
100
AcDbArc
 50
183.0
 51
270.0
  0
ARC
  5
27D
330
1F
100
AcDbEntity
  8
0
  6
Continuous
 62
     7
370
    15
100
AcDbCircle
 10
536.8365516511
 20
-117.0258868634
 30
0.0
 40
2.500000000000132
100
AcDbArc
 50
270.0
 51
357.0
  0
LINE
  5
27E
330
1F
100
AcDbEntity
  8
0
  6
Continuous
 62
     7
370
    15
100
AcDbLine
 10
521.2089578227
 20
-184.5258864908
 30
0.0
 11
521.2089578227
 21
-119.5258832871
 31
0.0
  0
LINE
  5
27F
330
1F
100
AcDbEntity
  8
0
  6
Continuous
 62
     7
370
    15
100
AcDbLine
 10
-414.7910316869
 20
-119.5258832871
 30
0.0
 11
-414.7910316869
 21
-184.5258864908
 31
0.0
  0
LINE
  5
280
330
1F
100
AcDbEntity
  8
0
  6
Continuous
 62
     7
370
    15
100
AcDbLine
 10
351.0833839491
 20
-77.0258940159
 30
0.0
 11
351.0833839491
 21
-79.5258916317
 31
0.0
  0
LINE
  5
281
330
1F
100
AcDbEntity
  8
0
  6
Continuous
 62
     7
370
    15
100
AcDbLine
 10
375.0834027842
 20
-79.5258916317
 30
0.0
 11
375.0834027842
 21
-77.0258940159
 31
0.0
  0
LINE
  5
282
330
1F
100
AcDbEntity
  8
0
  6
Continuous
 62
     7
370
    15
100
AcDbLine
 10
-268.6654766485
 20
-77.0258940159
 30
0.0
 11
-268.6654766485
 21
-79.5258916317
 31
0.0
  0
LINE
  5
283
330
1F
100
AcDbEntity
  8
0
  6
Continuous
 62
     7
370
    15
100
AcDbLine
 10
-244.6654578134
 20
-79.5258916317
 30
0.0
 11
-244.6654578134
 21
-77.0258940159
 31
0.0
  0
LINE
  5
284
330
1F
100
AcDbEntity
  8
0
  6
Continuous
 62
     7
370
    15
100
AcDbLine
 10
372.189656885
 20
-67.1202428042
 30
0.0
 11
371.3334063605
 21
-66.6258818804
 31
0.0
  0
LINE
  5
285
330
1F
100
AcDbEntity
  8
0
  6
Continuous
 62
     7
370
    15
100
AcDbLine
 10
354.8333803729
 20
-66.6258818804
 30
0.0
 11
353.9771298483
 21
-67.1202428042
 31
0.0
  0
LINE
  5
286
330
1F
100
AcDbEntity
  8
0
  6
Continuous
 62
     7
370
    15
100
AcDbLine
 10
353.9785901621
 20
-76.5323675572
 30
0.0
 11
354.8333803729
 21
-77.0258940159
 31
0.0
  0
LINE
  5
287
330
1F
100
AcDbEntity
  8
0
  6
Continuous
 62
     7
370
    15
100
AcDbLine
 10
371.3334063605
 20
-77.0258940159
 30
0.0
 11
372.1881965712
 21
-76.5323675572
 31
0.0
  0
LINE
  5
288
330
1F
100
AcDbEntity
  8
0
  6
Continuous
 62
     7
370
    15
100
AcDbLine
 10
-247.5606640264
 20
-67.1194083392
 30
0.0
 11
-248.4154542371
 21
-66.6258818804
 31
0.0
  0
LINE
  5
289
330
1F
100
AcDbEntity
  8
0
  6
Continuous
 62
     7
370
    15
100
AcDbLine
 10
-264.9154802248
 20
-66.6258818804
 30
0.0
 11
-265.7702704355
 21
-67.1194083392
 31
0.0
  0
LINE
  5
28A
330
1F
100
AcDbEntity
  8
0
  6
Continuous
 62
     7
370
    15
100
AcDbLine
 10
-265.7717307493
 20
-76.5315330922
 30
0.0
 11
-264.9154802248
 21
-77.0258940159
 31
0.0
  0
LINE
  5
28B
330
1F
100
AcDbEntity
  8
0
  6
Continuous
 62
     7
370
    15
100
AcDbLine
 10
-248.4154542371
 20
-77.0258940159
 30
0.0
 11
-247.5592037126
 21
-76.5315330922
 31
0.0
  0
LINE
  5
28C
330
1F
100
AcDbEntity
  8
0
  6
Continuous
 62
     7
370
    15
100
AcDbLine
 10
369.0833906249
 20
-66.6258818804
 30
0.0
 11
369.0833906249
 21
-31.5258837639
 31
0.0
  0
LINE
  5
28D
330
1F
100
AcDbEntity
  8
0
  6
Continuous
 62
     7
370
    15
100
AcDbLine
 10
357.0833961085
 20
-31.5258837639
 30
0.0
 11
357.0833961085
 21
-66.6258818804
 31
0.0
  0
LINE
  5
28E
330
1F
100
AcDbEntity
  8
0
  6
Continuous
 62
     7
370
    15
100
AcDbLine
 10
369.0833906249
 20
-184.5258864908
 30
0.0
 11
369.0833906249
 21
-86.4215827881
 31
0.0
  0
LINE
  5
28F
330
1F
100
AcDbEntity
  8
0
  6
Continuous
 62
     7
370
    15
100
AcDbLine
 10
357.0833961085
 20
-87.0749614536
 30
0.0
 11
357.0833961085
 21
-184.5258864908
 31
0.0
  0
LINE
  5
290
330
1F
100
AcDbEntity
  8
0
  6
Continuous
 62
     7
370
    15
100
AcDbLine
 10
-250.6654699728
 20
-66.6258818804
 30
0.0
 11
-250.6654699728
 21
-31.5258837639
 31
0.0
  0
LINE
  5
291
330
1F
100
AcDbEntity
  8
0
  6
Continuous
 62
     7
370
    15
100
AcDbLine
 10
-262.6654644891
 20
-31.5258837639
 30
0.0
 11
-262.6654644891
 21
-66.6258818804
 31
0.0
  0
LINE
  5
292
330
1F
100
AcDbEntity
  8
0
  6
Continuous
 62
     7
370
    15
100
AcDbLine
 10
-250.6654699728
 20
-184.5258864908
 30
0.0
 11
-250.6654699728
 21
-87.0749614536
 31
0.0
  0
LINE
  5
293
330
1F
100
AcDbEntity
  8
0
  6
Continuous
 62
     7
370
    15
100
AcDbLine
 10
-262.6654644891
 20
-86.4215827881
 30
0.0
 11
-262.6654644891
 21
-184.5258864908
 31
0.0
  0
LINE
  5
294
330
1F
100
AcDbEntity
  8
0
  6
Continuous
 62
     7
370
    15
100
AcDbLine
 10
488.9905015543
 20
-77.0258940159
 30
0.0
 11
488.9905015543
 21
-79.5258916317
 31
0.0
  0
LINE
  5
295
330
1F
100
AcDbEntity
  8
0
  6
Continuous
 62
     7
370
    15
100
AcDbLine
 10
512.9904905871
 20
-79.5258916317
 30
0.0
 11
512.9904905871
 21
-77.0258940159
 31
0.0
  0
LINE
  5
296
330
1F
100
AcDbEntity
  8
0
  6
Continuous
 62
     7
370
    15
100
AcDbLine
 10
-406.5725644514
 20
-77.0258940159
 30
0.0
 11
-406.5725644514
 21
-79.5258916317
 31
0.0
  0
LINE
  5
297
330
1F
100
AcDbEntity
  8
0
  6
Continuous
 62
     7
370
    15
100
AcDbLine
 10
-382.5725754186
 20
-79.5258916317
 30
0.0
 11
-382.5725754186
 21
-77.0258940159
 31
0.0
  0
LINE
  5
298
330
1F
100
AcDbEntity
  8
0
  6
Continuous
 62
     7
370
    15
100
AcDbLine
 10
510.9839896277
 20
-67.6325000225
 30
0.0
 11
509.2404941634
 21
-66.6258818804
 31
0.0
  0
LINE
  5
299
330
1F
100
AcDbEntity
  8
0
  6
Continuous
 62
     7
370
    15
100
AcDbLine
 10
492.7404979781
 20
-66.6258818804
 30
0.0
 11
490.9923831538
 21
-67.6351524292
 31
0.0
  0
LINE
  5
29A
330
1F
100
AcDbEntity
  8
0
  6
Continuous
 62
     7
370
    15
100
AcDbLine
 10
490.9925619677
 20
-76.0167128741
 30
0.0
 11
492.7404979781
 21
-77.0258940159
 31
0.0
  0
LINE
  5
29B
330
1F
100
AcDbEntity
  8
0
  6
Continuous
 62
     7
370
    15
100
AcDbLine
 10
509.2404941634
 20
-77.0258940159
 30
0.0
 11
510.9839896277
 21
-76.0192758738
 31
0.0
  0
LINE
  5
29C
330
1F
100
AcDbEntity
  8
0
  6
Continuous
 62
     7
370
    15
100
AcDbLine
 10
-384.5790465757
 20
-67.6325000225
 30
0.0
 11
-386.3225718423
 21
-66.6258818804
 31
0.0
  0
LINE
  5
29D
330
1F
100
AcDbEntity
  8
0
  6
Continuous
 62
     7
370
    15
100
AcDbLine
 10
-402.8225680276
 20
-66.6258818804
 30
0.0
 11
-404.570504038
 21
-67.6350630223
 31
0.0
  0
LINE
  5
29E
330
1F
100
AcDbEntity
  8
0
  6
Continuous
 62
     7
370
    15
100
AcDbLine
 10
-404.5706530496
 20
-76.0166234671
 30
0.0
 11
-402.8225680276
 21
-77.0258940159
 31
0.0
  0
LINE
  5
29F
330
1F
100
AcDbEntity
  8
0
  6
Continuous
 62
     7
370
    15
100
AcDbLine
 10
-386.3225718423
 20
-77.0258940159
 30
0.0
 11
-384.5790465757
 21
-76.0192758738
 31
0.0
  0
LINE
  5
2A0
330
1F
100
AcDbEntity
  8
0
  6
Continuous
 62
     7
370
    15
100
AcDbLine
 10
506.9904784277
 20
-66.6258818804
 30
0.0
 11
506.9904784277
 21
-31.5258837639
 31
0.0
  0
LINE
  5
2A1
330
1F
100
AcDbEntity
  8
0
  6
Continuous
 62
     7
370
    15
100
AcDbLine
 10
494.9904839114
 20
-31.5258837639
 30
0.0
 11
494.9904839114
 21
-66.6258818804
 31
0.0
  0
LINE
  5
2A2
330
1F
100
AcDbEntity
  8
0
  6
Continuous
 62
     7
370
    15
100
AcDbLine
 10
506.9904784277
 20
-184.5258864908
 30
0.0
 11
506.9904784277
 21
-86.2785241901
 31
0.0
  0
LINE
  5
2A3
330
1F
100
AcDbEntity
  8
0
  6
Continuous
 62
     7
370
    15
100
AcDbLine
 10
494.9904839114
 20
-87.2414595782
 30
0.0
 11
494.9904839114
 21
-184.5258864908
 31
0.0
  0
LINE
  5
2A4
330
1F
100
AcDbEntity
  8
0
  6
Continuous
 62
     7
370
    15
100
AcDbLine
 10
-388.5725577756
 20
-66.6258818804
 30
0.0
 11
-388.5725577756
 21
-31.5258837639
 31
0.0
  0
LINE
  5
2A5
330
1F
100
AcDbEntity
  8
0
  6
Continuous
 62
     7
370
    15
100
AcDbLine
 10
-400.572552292
 20
-31.5258837639
 30
0.0
 11
-400.572552292
 21
-66.6258818804
 31
0.0
  0
LINE
  5
2A6
330
1F
100
AcDbEntity
  8
0
  6
Continuous
 62
     7
370
    15
100
AcDbLine
 10
-388.5725577756
 20
-184.5258864908
 30
0.0
 11
-388.5725577756
 21
-87.2416532933
 31
0.0
  0
LINE
  5
2A7
330
1F
100
AcDbEntity
  8
0
  6
Continuous
 62
     7
370
    15
100
AcDbLine
 10
-400.572552292
 20
-86.2785241901
 30
0.0
 11
-400.572552292
 21
-184.5258864908
 31
0.0
  0
LINE
  5
2A8
330
1F
100
AcDbEntity
  8
0
  6
Continuous
 62
     7
370
    15
100
AcDbLine
 10
538.208977373
 20
-77.0258940159
 30
0.0
 11
538.208977373
 21
-79.5258916317
 31
0.0
  0
LINE
  5
2A9
330
1F
100
AcDbEntity
  8
0
  6
Continuous
 62
     7
370
    15
100
AcDbLine
 10
562.2089664057
 20
-79.5258916317
 30
0.0
 11
562.2089664057
 21
-77.0258940159
 31
0.0
  0
LINE
  5
2AA
330
1F
100
AcDbEntity
  8
0
  6
Continuous
 62
     7
370
    15
100
AcDbLine
 10
-455.79104027
 20
-77.0258940159
 30
0.0
 11
-455.79104027
 21
-79.5258916317
 31
0.0
  0
LINE
  5
2AB
330
1F
100
AcDbEntity
  8
0
  6
Continuous
 62
     7
370
    15
100
AcDbLine
 10
-431.7910512373
 20
-79.5258916317
 30
0.0
 11
-431.7910512373
 21
-77.0258940159
 31
0.0
  0
LINE
  5
2AC
330
1F
100
AcDbEntity
  8
0
  6
Continuous
 62
     7
370
    15
100
AcDbLine
 10
559.2089454249
 20
-67.0588947235
 30
0.0
 11
558.4589401797
 21
-66.6258818804
 31
0.0
  0
LINE
  5
2AD
330
1F
100
AcDbEntity
  8
0
  6
Continuous
 62
     7
370
    15
100
AcDbLine
 10
541.9589737967
 20
-66.6258818804
 30
0.0
 11
541.2089685515
 21
-67.0588947235
 31
0.0
  0
LINE
  5
2AE
330
1F
100
AcDbEntity
  8
0
  6
Continuous
 62
     7
370
    15
100
AcDbLine
 10
541.2089685515
 20
-76.5928811728
 30
0.0
 11
541.9589737967
 21
-77.0258940159
 31
0.0
  0
LINE
  5
2AF
330
1F
100
AcDbEntity
  8
0
  6
Continuous
 62
     7
370
    15
100
AcDbLine
 10
558.4589401797
 20
-77.0258940159
 30
0.0
 11
559.2089454249
 21
-76.5928811728
 31
0.0
  0
LINE
  5
2B0
330
1F
100
AcDbEntity
  8
0
  6
Continuous
 62
     7
370
    15
100
AcDbLine
 10
-434.7910424158
 20
-67.0588947235
 30
0.0
 11
-435.541047661
 21
-66.6258818804
 31
0.0
  0
LINE
  5
2B1
330
1F
100
AcDbEntity
  8
0
  6
Continuous
 62
     7
370
    15
100
AcDbLine
 10
-452.041014044
 20
-66.6258818804
 30
0.0
 11
-452.7910192892
 21
-67.0588947235
 31
0.0
  0
LINE
  5
2B2
330
1F
100
AcDbEntity
  8
0
  6
Continuous
 62
     7
370
    15
100
AcDbLine
 10
-452.7910192892
 20
-76.5928811728
 30
0.0
 11
-452.041014044
 21
-77.0258940159
 31
0.0
  0
LINE
  5
2B3
330
1F
100
AcDbEntity
  8
0
  6
Continuous
 62
     7
370
    15
100
AcDbLine
 10
-435.541047661
 20
-77.0258940159
 30
0.0
 11
-434.7910424158
 21
-76.5928811728
 31
0.0
  0
LINE
  5
2B4
330
1F
100
AcDbEntity
  8
0
  6
Continuous
 62
     7
370
    15
100
AcDbLine
 10
556.2089840487
 20
-66.6258818804
 30
0.0
 11
556.2089840487
 21
-31.5258837639
 31
0.0
  0
LINE
  5
2B5
330
1F
100
AcDbEntity
  8
0
  6
Continuous
 62
     7
370
    15
100
AcDbLine
 10
544.20895973
 20
-31.5258837639
 30
0.0
 11
544.20895973
 21
-66.6258818804
 31
0.0
  0
LINE
  5
2B6
330
1F
100
AcDbEntity
  8
0
  6
Continuous
 62
     7
370
    15
100
AcDbLine
 10
556.2089840487
 20
-184.5258864908
 30
0.0
 11
556.2089840487
 21
-86.2257964312
 31
0.0
  0
LINE
  5
2B7
330
1F
100
AcDbEntity
  8
0
  6
Continuous
 62
     7
370
    15
100
AcDbLine
 10
544.20895973
 20
-87.3807481824
 30
0.0
 11
544.20895973
 21
-184.5258864908
 31
0.0
  0
LINE
  5
2B8
330
1F
100
AcDbEntity
  8
0
  6
Continuous
 62
     7
370
    15
100
AcDbLine
 10
-437.7910335943
 20
-66.6258818804
 30
0.0
 11
-437.7910335943
 21
-31.5258837639
 31
0.0
  0
LINE
  5
2B9
330
1F
100
AcDbEntity
  8
0
  6
Continuous
 62
     7
370
    15
100
AcDbLine
 10
-449.791057913
 20
-31.5258837639
 30
0.0
 11
-449.791057913
 21
-66.6258818804
 31
0.0
  0
LINE
  5
2BA
330
1F
100
AcDbEntity
  8
0
  6
Continuous
 62
     7
370
    15
100
AcDbLine
 10
-437.7910335943
 20
-184.5258864908
 30
0.0
 11
-437.7910335943
 21
-87.3807481824
 31
0.0
  0
LINE
  5
2BB
330
1F
100
AcDbEntity
  8
0
  6
Continuous
 62
     7
370
    15
100
AcDbLine
 10
-449.791057913
 20
-86.2257964312
 30
0.0
 11
-449.791057913
 21
-184.5258864908
 31
0.0
  0
LINE
  5
2BC
330
1F
100
AcDbEntity
  8
0
  6
Continuous
 62
     7
370
    15
100
AcDbLine
 10
-384.5790465757
 20
-76.0192758738
 30
0.0
 11
-384.574635832
 21
-76.0167128741
 31
0.0
  0
LINE
  5
2BD
330
1F
100
AcDbEntity
  8
0
  6
Continuous
 62
     7
370
    15
100
AcDbLine
 10
-384.574457018
 20
-67.6351524292
 30
0.0
 11
-384.5790465757
 21
-67.6325000225
 31
0.0
  0
LINE
  5
2BE
330
1F
100
AcDbEntity
  8
0
  6
Continuous
 62
     7
370
    15
100
AcDbLine
 10
372.1881965712
 20
-76.5323675572
 30
0.0
 11
372.189656885
 21
-76.5315330922
 31
0.0
  0
LINE
  5
2BF
330
1F
100
AcDbEntity
  8
0
  6
Continuous
 62
     7
370
    15
100
AcDbLine
 10
-265.7702704355
 20
-67.1194083392
 30
0.0
 11
-265.7717307493
 21
-67.1202428042
 31
0.0
  0
LINE
  5
2C0
330
1F
100
AcDbEntity
  8
0
  6
Continuous
 62
     7
370
    15
100
AcDbLine
 10
154.3832729176
 20
-67.3005766569
 30
0.0
 11
154.379659386
 21
-67.3026628195
 31
0.0
  0
LINE
  5
2C1
330
1F
100
AcDbEntity
  8
0
  6
Continuous
 62
     7
370
    15
100
AcDbLine
 10
-47.9653467819
 20
-76.3511992394
 30
0.0
 11
-47.9617332503
 21
-76.3491130768
 31
0.0
  0
LINE
  5
2C2
330
1F
100
AcDbEntity
  8
0
  6
Continuous
 62
     7
370
    15
100
AcDbLine
 10
-509.2910369321
 20
-209.5258868634
 30
0.0
 11
615.7089630679
 21
-209.5258868634
 31
0.0
  0
LINE
  5
2C3
330
1F
100
AcDbEntity
  8
0
  6
Continuous
 62
     7
370
    15
100
AcDbLine
 10
-509.2910369321
 20
-184.5258864908
 30
0.0
 11
615.7089630679
 21
-184.5258864908
 31
0.0
  0
LINE
  5
2C4
330
1F
100
AcDbEntity
  8
0
  6
Continuous
 62
     7
370
    15
100
AcDbLine
 10
-457.7910145208
 20
-79.5258916317
 30
0.0
 11
564.2089406565
 21
-79.5258916317
 31
0.0
  0
SPLINE
  5
2C5
330
1F
100
AcDbEntity
  8
0
  6
Continuous
 62
     7
370
    15
100
AcDbSpline
210
0.0
220
0.0
230
1.0
 70
     8
 71
     3
 72
    27
 73
    23
 74
     0
 42
0.00000001
 43
0.00000001
 12
1.0
 22
0.0
 32
0.0
 13
1.0
 23
0.0
 33
0.0
 40
0.0
 40
0.0
 40
0.0
 40
0.0
 40
0.0008614176549732
 40
0.0547182091936999
 40
0.1085740063951964
 40
0.1622368182478864
 40
0.2159007384733627
 40
0.2693856890643713
 40
0.322869866505668
 40
0.3762686780626582
 40
0.4296681248523328
 40
0.4831074531750906
 40
0.5365461675569577
 40
0.5901360922534411
 40
0.6437258249290809
 40
0.6975119808656878
 40
0.7512978545348404
 40
0.8052435575906944
 40
0.859189763361272
 40
0.9131874730456575
 40
0.967183563956274
 40
1.0
 40
1.0
 40
1.0
 40
1.0
 10
-262.6641233846207
 20
-86.42158278811881
 30
0.0
 10
-262.6645670309938
 20
-86.42119252725203
 30
0.0
 10
-262.6927479429056
 20
-86.3964027221832
 30
0.0
 10
-262.5914470206161
 20
-86.35555192606485
 30
0.0
 10
-262.3509843298642
 20
-86.30182506846954
 30
0.0
 10
-261.925057394877
 20
-86.26215114738942
 30
0.0
 10
-261.3589726960663
 20
-86.23572007818602
 30
0.0
 10
-260.6561396506668
 20
-86.22410299772815
 30
0.0
 10
-259.8443538969161
 20
-86.22690494909894
 30
0.0
 10
-258.941486767005
 20
-86.2446093997943
 30
0.0
 10
-257.9764206835048
 20
-86.27612480875237
 30
0.0
 10
-256.9739141026609
 20
-86.32111961917093
 30
0.0
 10
-255.9623175904476
 20
-86.37793205365418
 30
0.0
 10
-254.9706379369525
 20
-86.44542241867272
 30
0.0
 10
-254.0243592988548
 20
-86.52148615895658
 30
0.0
 10
-253.1537221909436
 20
-86.60427140855346
 30
0.0
 10
-252.3790984204959
 20
-86.69135310306227
 30
0.0
 10
-251.7288540388503
 20
-86.78029780686565
 30
0.0
 10
-251.2138233178716
 20
-86.86873846365638
 30
0.0
 10
-250.8649010945406
 20
-86.95347236334493
 30
0.0
 10
-250.678749060129
 20
-87.02357057919531
 30
0.0
 10
-250.6842299410043
 20
-87.06086398670057
 30
0.0
 10
-250.6863017961044
 20
-87.07496145356605
 30
0.0
  0
SPLINE
  5
2C6
330
1F
100
AcDbEntity
  8
0
  6
Continuous
 62
     7
370
    15
100
AcDbSpline
210
0.0
220
0.0
230
1.0
 70
     8
 71
     3
 72
    26
 73
    22
 74
     0
 42
0.00000001
 43
0.00000001
 12
1.0
 22
0.0
 32
0.0
 13
1.0
 23
0.0
 33
0.0
 40
0.0
 40
0.0
 40
0.0
 40
0.0
 40
0.0152919747318559
 40
0.0713693167921209
 40
0.1272596758891687
 40
0.183148377806424
 40
0.2389422108018644
 40
0.2947354398658306
 40
0.3505663318858103
 40
0.4063960180370653
 40
0.4623795356295594
 40
0.5183626817389649
 40
0.5745504445218039
 40
0.6307386554163706
 40
0.687098153660473
 40
0.7434556576090916
 40
0.7998746652782512
 40
0.8562926817873698
 40
0.9126322734441807
 40
0.9689706871493625
 40
1.0
 40
1.0
 40
1.0
 40
1.0
 10
-400.555177538063
 20
-86.27852419007728
 30
0.0
 10
-400.5600941572237
 20
-86.27469037242132
 30
0.0
 10
-400.5830405560095
 20
-86.25679752655876
 30
0.0
 10
-400.4550489606713
 20
-86.23811677719445
 30
0.0
 10
-400.16458514476
 20
-86.22438976344996
 30
0.0
 10
-399.7068425666654
 20
-86.22609124291446
 30
0.0
 10
-399.1050083940265
 20
-86.24243886505751
 30
0.0
 10
-398.3775909001489
 20
-86.2727439214655
 30
0.0
 10
-397.5412482297824
 20
-86.31659909601134
 30
0.0
 10
-396.6225021314626
 20
-86.37238931001308
 30
0.0
 10
-395.644512905304
 20
-86.43901630055485
 30
0.0
 10
-394.6353684096723
 20
-86.5143831290428
 30
0.0
 10
-393.6236718532854
 20
-86.59665928230706
 30
0.0
 10
-392.6364999325064
 20
-86.68344483175066
 30
0.0
 10
-391.7047004473566
 20
-86.77234974676234
 30
0.0
 10
-390.8517802436809
 20
-86.86087149629135
 30
0.0
 10
-390.1069879573427
 20
-86.94629012778917
 30
0.0
 10
-389.4865281820412
 20
-87.02637836842001
 30
0.0
 10
-389.0168396632237
 20
-87.09824891065608
 30
0.0
 10
-388.7425653367665
 20
-87.1516258624533
 30
0.0
 10
-388.6574020275251
 20
-87.17828141893926
 30
0.0
 10
-388.6271556302567
 20
-87.18774834264228
 30
0.0
  0
SPLINE
  5
2C7
330
1F
100
AcDbEntity
  8
0
  6
Continuous
 62
     7
370
    15
100
AcDbSpline
210
0.0
220
0.0
230
1.0
 70
     8
 71
     3
 72
    23
 73
    19
 74
     0
 42
0.00000001
 43
0.00000001
 12
1.0
 22
0.0
 32
0.0
 13
1.0
 23
0.0
 33
0.0
 40
0.0
 40
0.0
 40
0.0
 40
0.0
 40
0.0648978242504942
 40
0.131675063418723
 40
0.1966991892218694
 40
0.2635991811993049
 40
0.328793496892801
 40
0.3958710989737711
 40
0.4612059254933553
 40
0.5284363133563909
 40
0.5937521160220168
 40
0.6609735524496919
 40
0.7261304055845358
 40
0.7931879482675287
 40
0.858107442697457
 40
0.9249215228680339
 40
0.989634891968484
 40
1.0
 40
1.0
 40
1.0
 40
1.0
 10
-438.7847324296494
 20
-87.18774834264228
 30
0.0
 10
-438.9812345498281
 20
-87.17038900461951
 30
0.0
 10
-439.3799294126417
 20
-87.13516760911892
 30
0.0
 10
-440.1370536586672
 20
-87.06838583854389
 30
0.0
 10
-440.9948615275908
 20
-86.99284887579678
 30
0.0
 10
-441.9274217821335
 20
-86.91086826833337
 30
0.0
 10
-442.921391522974
 20
-86.82367253862444
 30
0.0
 10
-443.932680254938
 20
-86.73513531785166
 30
0.0
 10
-444.9498826181559
 20
-86.64627658371626
 30
0.0
 10
-445.9258674707992
 20
-86.56117218952626
 30
0.0
 10
-446.8497749448699
 20
-86.48076223919446
 30
0.0
 10
-447.6778455975426
 20
-86.40883416921538
 30
0.0
 10
-448.4020288567542
 20
-86.34601935810097
 30
0.0
 10
-448.9864224422786
 20
-86.29539251750057
 30
0.0
 10
-449.4314801241516
 20
-86.25688848786116
 30
0.0
 10
-449.695934473062
 20
-86.23401078055748
 30
0.0
 10
-449.8098163378295
 20
-86.22416210627597
 30
0.0
 10
-449.7832252955927
 20
-86.22646889071274
 30
0.0
 10
-449.77955421653
 20
-86.22678735841222
 30
0.0
  0
SPLINE
  5
2C8
330
1F
100
AcDbEntity
  8
0
  6
Continuous
 62
     7
370
    15
100
AcDbSpline
210
0.0
220
0.0
230
1.0
 70
     8
 71
     3
 72
    23
 73
    19
 74
     0
 42
0.00000001
 43
0.00000001
 12
1.0
 22
0.0
 32
0.0
 13
1.0
 23
0.0
 33
0.0
 40
0.0
 40
0.0
 40
0.0
 40
0.0
 40
0.0562324376973416
 40
0.1208591332632039
 40
0.1873556351563644
 40
0.2520469879822178
 40
0.3186046216858258
 40
0.3834852419228398
 40
0.4502361423656912
 40
0.5153550963209678
 40
0.5823536170689002
 40
0.6476539074555573
 40
0.7148453015789049
 40
0.7801912253985048
 40
0.8474390435608712
 40
0.9126703212423072
 40
0.9798073724262228
 40
0.9999999999999999
 40
0.9999999999999999
 40
0.9999999999999999
 40
0.9999999999999999
 10
556.1974803522569
 20
-86.22678735841222
 30
0.0
 10
556.1900926585587
 20
-86.22742663206583
 30
0.0
 10
556.1742144520689
 20
-86.22880060877493
 30
0.0
 10
555.9442254825802
 20
-86.2486756064144
 30
0.0
 10
555.560363320723
 20
-86.28189854398936
 30
0.0
 10
555.0169010205325
 20
-86.32895563107614
 30
0.0
 10
554.3443470275085
 20
-86.38726016623089
 30
0.0
 10
553.5479791319244
 20
-86.45641992297001
 30
0.0
 10
552.6635761404947
 20
-86.53332116001287
 30
0.0
 10
551.7005941103273
 20
-86.61723845997982
 30
0.0
 10
550.7023050104173
 20
-86.70439275166856
 30
0.0
 10
549.679979987618
 20
-86.79383150704929
 30
0.0
 10
548.6805665270778
 20
-86.88144936805851
 30
0.0
 10
547.7154662542608
 20
-86.96621775068736
 30
0.0
 10
546.8295633674544
 20
-87.04418831404905
 30
0.0
 10
546.034130755834
 20
-87.11430898397913
 30
0.0
 10
545.513132718954
 20
-87.16032327498964
 30
0.0
 10
545.2609654336754
 20
-87.18259793063767
 30
0.0
 10
545.2026585653763
 20
-87.18774834264228
 30
0.0
  0
SPLINE
  5
2C9
330
1F
100
AcDbEntity
  8
0
  6
Continuous
 62
     7
370
    15
100
AcDbSpline
210
0.0
220
0.0
230
1.0
 70
     8
 71
     3
 72
    26
 73
    22
 74
     0
 42
0.00000001
 43
0.00000001
 12
1.0
 22
0.0
 32
0.0
 13
1.0
 23
0.0
 33
0.0
 40
0.0
 40
0.0
 40
0.0
 40
0.0
 40
0.0152919747318559
 40
0.0713693167921209
 40
0.1272596758891687
 40
0.183148377806424
 40
0.2389422108018644
 40
0.2947354398658306
 40
0.3505663318858103
 40
0.4063960180370653
 40
0.4623795356295594
 40
0.5183626817389649
 40
0.5745504445218039
 40
0.6307386554163706
 40
0.687098153660473
 40
0.7434556576090916
 40
0.7998746652782512
 40
0.8562926817873698
 40
0.9126322734441807
 40
0.9689706871493625
 40
1.0
 40
1.0
 40
1.0
 40
1.0
 10
506.97310367379
 20
-86.27852419007728
 30
0.0
 10
506.9780202929506
 20
-86.27469037242132
 30
0.0
 10
507.0009666917364
 20
-86.25679752655876
 30
0.0
 10
506.8729750963983
 20
-86.23811677719445
 30
0.0
 10
506.5825112804869
 20
-86.22438976344996
 30
0.0
 10
506.1247687023924
 20
-86.22609124291446
 30
0.0
 10
505.5229345297535
 20
-86.24243886505751
 30
0.0
 10
504.7955170358759
 20
-86.2727439214655
 30
0.0
 10
503.9591743655094
 20
-86.31659909601134
 30
0.0
 10
503.0404282671896
 20
-86.37238931001308
 30
0.0
 10
502.062439041031
 20
-86.43901630055485
 30
0.0
 10
501.0532945453991
 20
-86.5143831290428
 30
0.0
 10
500.0415979890124
 20
-86.59665928230706
 30
0.0
 10
499.0544260682333
 20
-86.68344483175066
 30
0.0
 10
498.1226265830836
 20
-86.77234974676234
 30
0.0
 10
497.2697063794079
 20
-86.86087149629135
 30
0.0
 10
496.5249140930696
 20
-86.94629012778917
 30
0.0
 10
495.9044543177682
 20
-87.02637836842001
 30
0.0
 10
495.4347657989507
 20
-87.09824891065608
 30
0.0
 10
495.1604914724935
 20
-87.1516258624533
 30
0.0
 10
495.075328163252
 20
-87.17828141893926
 30
0.0
 10
495.0450817659836
 20
-87.18774834264228
 30
0.0
  0
SPLINE
  5
2CA
330
1F
100
AcDbEntity
  8
0
  6
Continuous
 62
     7
370
    15
100
AcDbSpline
210
0.0
220
0.0
230
1.0
 70
     8
 71
     3
 72
    27
 73
    23
 74
     0
 42
0.00000001
 43
0.00000001
 12
1.0
 22
0.0
 32
0.0
 13
1.0
 23
0.0
 33
0.0
 40
0.0
 40
0.0
 40
0.0
 40
0.0
 40
0.0008614176549732
 40
0.0547182091936999
 40
0.1085740063951964
 40
0.1622368182478864
 40
0.2159007384733627
 40
0.2693856890643713
 40
0.322869866505668
 40
0.3762686780626582
 40
0.4296681248523328
 40
0.4831074531750906
 40
0.5365461675569577
 40
0.5901360922534411
 40
0.6437258249290809
 40
0.6975119808656878
 40
0.7512978545348404
 40
0.8052435575906944
 40
0.859189763361272
 40
0.9131874730456575
 40
0.967183563956274
 40
1.0
 40
1.0
 40
1.0
 40
1.0
 10
369.0820495203476
 20
-86.42158278811881
 30
0.0
 10
369.0824931667208
 20
-86.42119252725203
 30
0.0
 10
369.1106740786325
 20
-86.3964027221832
 30
0.0
 10
369.0093731563431
 20
-86.35555192606485
 30
0.0
 10
368.7689104655912
 20
-86.30182506846954
 30
0.0
 10
368.342983530604
 20
-86.26215114738942
 30
0.0
 10
367.7768988317933
 20
-86.23572007818602
 30
0.0
 10
367.0740657863938
 20
-86.22410299772815
 30
0.0
 10
366.262280032643
 20
-86.22690494909894
 30
0.0
 10
365.359412902732
 20
-86.2446093997943
 30
0.0
 10
364.3943468192318
 20
-86.27612480875237
 30
0.0
 10
363.3918402383879
 20
-86.32111961917093
 30
0.0
 10
362.3802437261746
 20
-86.37793205365418
 30
0.0
 10
361.3885640726795
 20
-86.44542241867272
 30
0.0
 10
360.4422854345818
 20
-86.52148615895658
 30
0.0
 10
359.5716483266706
 20
-86.60427140855346
 30
0.0
 10
358.7970245562229
 20
-86.69135310306227
 30
0.0
 10
358.1467801745773
 20
-86.78029780686565
 30
0.0
 10
357.6317494535986
 20
-86.86873846365638
 30
0.0
 10
357.2828272302676
 20
-86.95347236334493
 30
0.0
 10
357.096675195856
 20
-87.02357057919531
 30
0.0
 10
357.1021560767313
 20
-87.06086398670057
 30
0.0
 10
357.1042279318314
 20
-87.07496145356605
 30
0.0
  0
SPLINE
  5
2CB
330
1F
100
AcDbEntity
  8
0
  6
Continuous
 62
     7
370
    15
100
AcDbSpline
210
0.0
220
0.0
230
1.0
 70
     8
 71
     3
 72
    26
 73
    22
 74
     0
 42
0.00000001
 43
0.00000001
 12
1.0
 22
0.0
 32
0.0
 13
1.0
 23
0.0
 33
0.0
 40
0.0
 40
0.0
 40
0.0
 40
0.0
 40
0.0407733249990582
 40
0.094750913868575
 40
0.1487277626184637
 40
0.2025770482300777
 40
0.2564239356930552
 40
0.3100776007434523
 40
0.3637307047377072
 40
0.4172088469483642
 40
0.4706869200244981
 40
0.5240836338270467
 40
0.5774809354752543
 40
0.6309241812741782
 40
0.6843675556784649
 40
0.737963811842719
 40
0.791562006786829
 40
0.8453557844707317
 40
0.8991495714692006
 40
0.9530993582764821
 40
1.0
 40
1.0
 40
1.0
 40
1.0
 10
169.7855303600769
 20
-86.6313091813416
 30
0.0
 10
169.7826750204401
 20
-86.60959690120654
 30
0.0
 10
169.7760396518503
 20
-86.55914091349857
 30
0.0
 10
169.5616759804119
 20
-86.4856583959689
 30
0.0
 10
169.1877794284385
 20
-86.41268203181585
 30
0.0
 10
168.6511720889145
 20
-86.34967740398173
 30
0.0
 10
167.9812058190333
 20
-86.29787593662738
 30
0.0
 10
167.1897687668259
 20
-86.2591797994118
 30
0.0
 10
166.3056805447369
 20
-86.23407470813908
 30
0.0
 10
165.3499084205991
 20
-86.22376325128306
 30
0.0
 10
164.3527754257774
 20
-86.22789519383048
 30
0.0
 10
163.3404787591791
 20
-86.24688618310803
 30
0.0
 10
162.3414899976057
 20
-86.27961860124246
 30
0.0
 10
161.3847096759433
 20
-86.325756893651
 30
0.0
 10
160.4940384001225
 20
-86.38356584054907
 30
0.0
 10
159.6981819773774
 20
-86.45192358528055
 30
0.0
 10
159.0150711948665
 20
-86.52865897736467
 30
0.0
 10
158.4685953368469
 20
-86.61195279155085
 30
0.0
 10
158.0741089685286
 20
-86.69923047917037
 30
0.0
 10
157.8395787066316
 20
-86.78458863811278
 30
0.0
 10
157.8205409285841
 20
-86.83905570412809
 30
0.0
 10
157.8116873815995
 20
-86.86438569415519
 30
0.0
  0
SPLINE
  5
2CC
330
1F
100
AcDbEntity
  8
0
  6
Continuous
 62
     7
370
    15
100
AcDbSpline
210
0.0
220
0.0
230
1.0
 70
     8
 71
     3
 72
    27
 73
    23
 74
     0
 42
0.00000001
 43
0.00000001
 12
1.0
 22
0.0
 32
0.0
 13
1.0
 23
0.0
 33
0.0
 40
0.0
 40
0.0
 40
0.0
 40
0.0
 40
0.0314451322018315
 40
0.0853927202557685
 40
0.1393397957492898
 40
0.1933388348255325
 40
0.2473352963199273
 40
0.301251102985903
 40
0.355165136981912
 40
0.4089036367781972
 40
0.462640713541016
 40
0.5161847033293833
 40
0.5697285514668217
 40
0.6231453921775046
 40
0.6765621091125082
 40
0.7299724129813083
 40
0.783383166093201
 40
0.8369072345652431
 40
0.8904343401924614
 40
0.9441474871725256
 40
0.9978619773322899
 40
1.0
 40
1.0
 40
1.0
 40
1.0
 10
-51.40500417199323
 20
-86.86415472615668
 30
0.0
 10
-51.40236274239832
 20
-86.84732750019441
 30
0.0
 10
-51.39518964937303
 20
-86.80163131453193
 30
0.0
 10
-51.57602833914072
 20
-86.72460414149357
 30
0.0
 10
-51.9198623837294
 20
-86.63641491328421
 30
0.0
 10
-52.43098467431903
 20
-86.5514624987659
 30
0.0
 10
-53.0790887224585
 20
-86.47215698263031
 30
0.0
 10
-53.85344699446154
 20
-86.4009858175494
 30
0.0
 10
-54.72580956766405
 20
-86.33964390368486
 30
0.0
 10
-55.67517793163763
 20
-86.29024227431827
 30
0.0
 10
-56.67053890626342
 20
-86.25364677993329
 30
0.0
 10
-57.68573901801624
 20
-86.23133535311324
 30
0.0
 10
-58.69078445021147
 20
-86.2232987344982
 30
0.0
 10
-59.65729084494784
 20
-86.23029584362698
 30
0.0
 10
-60.56008534017029
 20
-86.2515066236905
 30
0.0
 10
-61.37103524698009
 20
-86.28689113005049
 30
0.0
 10
-62.07249053176943
 20
-86.33496046734417
 30
0.0
 10
-62.63784936821437
 20
-86.39493231659924
 30
0.0
 10
-63.06388830233337
 20
-86.46469024915059
 30
0.0
 10
-63.30659214226489
 20
-86.54306123323187
 30
0.0
 10
-63.41022892437639
 20
-86.59961781284744
 30
0.0
 10
-63.38174788968753
 20
-86.62980350209695
 30
0.0
 10
-63.38065764155576
 20
-86.63095900405357
 30
0.0
  0
LINE
  5
2CD
330
1F
100
AcDbEntity
  8
0
  6
Continuous
 62
     7
370
    15
100
AcDbLine
 10
151.8018702582
 20
-77.0258940159
 30
0.0
 11
175.8018667415
 21
-77.0258940159
 31
0.0
  0
LINE
  5
2CE
330
1F
100
AcDbEntity
  8
0
  6
Continuous
 62
     7
370
    15
100
AcDbLine
 10
-45.6848060175
 20
-77.0258940159
 30
0.0
 11
-45.3839441225
 21
-77.0258940159
 31
0.0
  0
LINE
  5
2CF
330
1F
100
AcDbEntity
  8
0
  6
Continuous
 62
     7
370
    15
100
AcDbLine
 10
-69.3839406058
 20
-77.0258940159
 30
0.0
 11
-45.6848060175
 21
-77.0258940159
 31
0.0
  0
LINE
  5
2D0
330
1F
100
AcDbEntity
  8
0
  6
Continuous
 62
     7
370
    15
100
AcDbLine
 10
170.8704317525
 20
-67.8627527653
 30
0.0
 11
170.8704317525
 21
-75.789023131
 31
0.0
  0
SPLINE
  5
2D1
330
1F
100
AcDbEntity
  8
0
  6
Continuous
 62
     7
370
    15
100
AcDbSpline
210
0.0
220
0.0
230
1.0
 70
     8
 71
     3
 72
    14
 73
    10
 74
     0
 42
0.00000001
 43
0.00000001
 12
1.0
 22
0.0
 32
0.0
 13
1.0
 23
0.0
 33
0.0
 40
0.0
 40
0.0
 40
0.0
 40
0.0
 40
0.1331917576286362
 40
0.2578385348814685
 40
0.3824533310255379
 40
0.5101675918436024
 40
0.6378838917279679
 40
0.8180589653913427
 40
1.0
 40
1.0
 40
1.0
 40
1.0
 10
170.8704317525368
 20
-75.78902313102195
 30
0.0
 10
170.429803062815
 20
-75.91227790534893
 30
0.0
 10
169.5768144259251
 20
-76.15087998550332
 30
0.0
 10
168.2878217787456
 20
-76.40370783452366
 30
0.0
 10
167.0038399451474
 20
-76.56349546450255
 30
0.0
 10
165.7000751365957
 20
-76.61132619254177
 30
0.0
 10
164.2073129947622
 20
-76.53422729794451
 30
0.0
 10
162.5417048064353
 20
-76.28235173949908
 30
0.0
 10
161.3416425637166
 20
-75.95399976739719
 30
0.0
 10
160.738685222004
 20
-75.78902313102195
 30
0.0
  0
LINE
  5
2D2
330
1F
100
AcDbEntity
  8
0
  6
Continuous
 62
     7
370
    15
100
AcDbLine
 10
160.738685222
 20
-67.8627527653
 30
0.0
 11
160.738685222
 21
-75.789023131
 31
0.0
  0
SPLINE
  5
2D3
330
1F
100
AcDbEntity
  8
0
  6
Continuous
 62
     7
370
    15
100
AcDbSpline
210
0.0
220
0.0
230
1.0
 70
     8
 71
     3
 72
    14
 73
    10
 74
     0
 42
0.00000001
 43
0.00000001
 12
1.0
 22
0.0
 32
0.0
 13
1.0
 23
0.0
 33
0.0
 40
0.0
 40
0.0
 40
0.0
 40
0.0
 40
0.1803116805008488
 40
0.3621153512392975
 40
0.4866235179217202
 40
0.6111288992397411
 40
0.7389508961909509
 40
0.8668083127935142
 40
1.0
 40
1.0
 40
1.0
 40
1.0
 10
160.738685222004
 20
-67.86275276530692
 30
0.0
 10
161.3362050373355
 20
-67.69915186550823
 30
0.0
 10
162.5361888498107
 20
-67.37059634914289
 30
0.0
 10
164.1908370521555
 20
-67.11952796800844
 30
0.0
 10
165.667025572782
 20
-67.04163053070214
 30
0.0
 10
166.9598285510564
 20
-67.08476382889808
 30
0.0
 10
168.2552893699268
 20
-67.24202160638535
 30
0.0
 10
169.5661872420195
 20
-67.4979542525548
 30
0.0
 10
170.4298012271208
 20
-67.73950796032696
 30
0.0
 10
170.8704317525368
 20
-67.86275276530692
 30
0.0
  0
SPLINE
  5
2D4
330
1F
100
AcDbEntity
  8
0
  6
Continuous
 62
     7
370
    15
100
AcDbSpline
210
0.0
220
0.0
230
1.0
 70
     8
 71
     3
 72
    15
 73
    11
 74
     0
 42
0.00000001
 43
0.00000001
 12
1.0
 22
0.0
 32
0.0
 13
1.0
 23
0.0
 33
0.0
 40
0.0
 40
0.0
 40
0.0
 40
0.0
 40
0.1323045753438808
 40
0.2645739775493617
 40
0.3997997284711156
 40
0.5350036744896738
 40
0.650195054612939
 40
0.7654020240546241
 40
0.8826910729327643
 40
1.0
 40
1.0
 40
1.0
 40
1.0
 10
160.738685222004
 20
-75.78902313102195
 30
0.0
 10
160.4332900129336
 20
-75.91139671513317
 30
0.0
 10
159.822580784033
 20
-76.15611135036873
 30
0.0
 10
158.8821905880303
 20
-76.41937304267249
 30
0.0
 10
157.9240245351631
 20
-76.57770992763638
 30
0.0
 10
157.0006009839201
 20
-76.6090470277282
 30
0.0
 10
156.1270656517788
 20
-76.52771647834314
 30
0.0
 10
155.3026362357151
 20
-76.36103176770828
 30
0.0
 10
154.4819746406357
 20
-76.11655769048775
 30
0.0
 10
153.9407523293585
 20
-75.89820748466619
 30
0.0
 10
153.6701182440262
 20
-75.78902313102195
 30
0.0
  0
SPLINE
  5
2D5
330
1F
100
AcDbEntity
  8
0
  6
Continuous
 62
     7
370
    15
100
AcDbSpline
210
0.0
220
0.0
230
1.0
 70
     8
 71
     3
 72
    16
 73
    12
 74
     0
 42
0.00000001
 43
0.00000001
 12
1.0
 22
0.0
 32
0.0
 13
1.0
 23
0.0
 33
0.0
 40
0.0
 40
0.0
 40
0.0
 40
0.0
 40
0.2499999999999957
 40
0.2499999999999957
 40
0.4999999999999915
 40
0.4999999999999915
 40
0.6249999999999899
 40
0.6249999999999899
 40
0.7499999999999882
 40
0.7499999999999882
 40
1.0
 40
1.0
 40
1.0
 40
1.0
 10
173.9336153098461
 20
-75.78902658417475
 30
0.0
 10
173.6835352887557
 20
-76.0339480987572
 30
0.0
 10
173.4316319718814
 20
-76.23580781879363
 30
0.0
 10
172.922571697316
 20
-76.5154490903907
 30
0.0
 10
172.6653756832239
 20
-76.59230822511903
 30
0.0
 10
172.2747359223488
 20
-76.59315238628822
 30
0.0
 10
172.1439099831448
 20
-76.57436329961811
 30
0.0
 10
171.8851224745466
 20
-76.50109580753731
 30
0.0
 10
171.7565963386173
 20
-76.44669175587396
 30
0.0
 10
171.3733061630717
 20
-76.2366126975219
 30
0.0
 10
171.1208214396015
 20
-76.03425340435454
 30
0.0
 10
170.8704296826049
 20
-75.78902658417455
 30
0.0
  0
SPLINE
  5
2D6
330
1F
100
AcDbEntity
  8
0
  6
Continuous
 62
     7
370
    15
100
AcDbSpline
210
0.0
220
0.0
230
1.0
 70
     8
 71
     3
 72
     9
 73
     5
 74
     0
 42
0.00000001
 43
0.00000001
 12
1.0
 22
0.0
 32
0.0
 13
1.0
 23
0.0
 33
0.0
 40
0.0
 40
0.0
 40
0.0
 40
0.0
 40
0.5619063865932176
 40
1.0
 40
1.0
 40
1.0
 40
1.0
 10
153.6701182440262
 20
-75.78902313102195
 30
0.0
 10
153.8023342759853
 20
-75.91374689799515
 30
0.0
 10
154.0376333135363
 20
-76.13571228217492
 30
0.0
 10
154.2781188886882
 20
-76.27951347724557
 30
0.0
 10
154.3834740832787
 20
-76.34251186240623
 30
0.0
  0
SPLINE
  5
2D7
330
1F
100
AcDbEntity
  8
0
  6
Continuous
 62
     7
370
    15
100
AcDbSpline
210
0.0
220
0.0
230
1.0
 70
     8
 71
     3
 72
    16
 73
    12
 74
     0
 42
0.00000001
 43
0.00000001
 12
1.0
 22
0.0
 32
0.0
 13
1.0
 23
0.0
 33
0.0
 40
0.0
 40
0.0
 40
0.0
 40
0.0
 40
0.2499999999999963
 40
0.2499999999999963
 40
0.4999999999999926
 40
0.4999999999999926
 40
0.6249999999999907
 40
0.6249999999999907
 40
0.7499999999999889
 40
0.7499999999999889
 40
1.0
 40
1.0
 40
1.0
 40
1.0
 10
170.8704296826049
 20
-67.86274714254509
 30
0.0
 10
171.1205097036952
 20
-67.6178256279627
 30
0.0
 10
171.3724130205695
 20
-67.4159659079262
 30
0.0
 10
171.8814732951349
 20
-67.13632463632912
 30
0.0
 10
172.1386693092271
 20
-67.05946550160077
 30
0.0
 10
172.5293090701021
 20
-67.05862134043156
 30
0.0
 10
172.6601350093061
 20
-67.07741042710167
 30
0.0
 10
172.9189225179043
 20
-67.15067791918247
 30
0.0
 10
173.0474486538336
 20
-67.20508197084585
 30
0.0
 10
173.4307388293793
 20
-67.41516102919789
 30
0.0
 10
173.6832235528496
 20
-67.61752032236518
 30
0.0
 10
173.9336153098461
 20
-67.86274714254523
 30
0.0
  0
SPLINE
  5
2D8
330
1F
100
AcDbEntity
  8
0
  6
Continuous
 62
     7
370
    15
100
AcDbSpline
210
0.0
220
0.0
230
1.0
 70
     8
 71
     3
 72
    15
 73
    11
 74
     0
 42
0.00000001
 43
0.00000001
 12
1.0
 22
0.0
 32
0.0
 13
1.0
 23
0.0
 33
0.0
 40
0.0
 40
0.0
 40
0.0
 40
0.0
 40
0.1323041099762946
 40
0.2645735119045026
 40
0.3997997400345058
 40
0.5350032055059506
 40
0.6501945853877432
 40
0.765402030619404
 40
0.8826906085002147
 40
1.0
 40
1.0
 40
1.0
 40
1.0
 10
153.6701182440262
 20
-67.86275276530692
 30
0.0
 10
153.9755107448986
 20
-67.74037911537856
 30
0.0
 10
154.5862156313875
 20
-67.49566391845907
 30
0.0
 10
155.5266050824245
 20
-67.23240247404055
 30
0.0
 10
156.4847793727144
 20
-67.07406645185404
 30
0.0
 10
157.4081952516424
 20
-67.0427287183302
 30
0.0
 10
158.2817299451707
 20
-67.12405996367733
 30
0.0
 10
159.1061681559127
 20
-67.2907428692753
 30
0.0
 10
159.9268206560427
 20
-67.53521969271591
 30
0.0
 10
160.4680476940623
 20
-67.75356861711069
 30
0.0
 10
160.738685222004
 20
-67.86275276530692
 30
0.0
  0
SPLINE
  5
2D9
330
1F
100
AcDbEntity
  8
0
  6
Continuous
 62
     7
370
    15
100
AcDbSpline
210
0.0
220
0.0
230
1.0
 70
     8
 71
     3
 72
    10
 73
     6
 74
     0
 42
0.00000001
 43
0.00000001
 12
1.0
 22
0.0
 32
0.0
 13
1.0
 23
0.0
 33
0.0
 40
0.0
 40
0.0
 40
0.0
 40
0.0
 40
0.0042670860333353
 40
0.5020793920935144
 40
1.0
 40
1.0
 40
1.0
 40
1.0
 10
154.3834293797951
 20
-67.30084487784812
 30
0.0
 10
154.3823986858699
 20
-67.30132084468072
 30
0.0
 10
154.2611238450633
 20
-67.35732466932795
 30
0.0
 10
154.0220832423059
 20
-67.54086513648528
 30
0.0
 10
153.7874484168801
 20
-67.75544910922243
 30
0.0
 10
153.6701182440262
 20
-67.8627527653069
 30
0.0
  0
LINE
  5
2DA
330
1F
100
AcDbEntity
  8
0
  6
Continuous
 62
     7
370
    15
100
AcDbLine
 10
155.5518666819
 20
-66.6258818804
 30
0.0
 11
172.0518703178
 21
-66.6258818804
 31
0.0
  0
LINE
  5
2DB
330
1F
100
AcDbEntity
  8
0
  6
Continuous
 62
     7
370
    15
100
AcDbLine
 10
-54.3207590863
 20
-67.8627527653
 30
0.0
 11
-54.3207590863
 21
-75.789023131
 31
0.0
  0
SPLINE
  5
2DC
330
1F
100
AcDbEntity
  8
0
  6
Continuous
 62
     7
370
    15
100
AcDbSpline
210
0.0
220
0.0
230
1.0
 70
     8
 71
     3
 72
    14
 73
    10
 74
     0
 42
0.00000001
 43
0.00000001
 12
1.0
 22
0.0
 32
0.0
 13
1.0
 23
0.0
 33
0.0
 40
0.0
 40
0.0
 40
0.0
 40
0.0
 40
0.133191091276474
 40
0.2578372514896997
 40
0.3824526722811928
 40
0.5101669334387418
 40
0.6378832336625974
 40
0.8180576858579469
 40
1.0
 40
1.0
 40
1.0
 40
1.0
 10
-54.32075908627699
 20
-75.78902313102195
 30
0.0
 10
-54.7613842312678
 20
-75.91227786617674
 30
0.0
 10
-55.61436602781944
 20
-76.15087987657267
 30
0.0
 10
-56.90337042240067
 20
-76.40370909319283
 30
0.0
 10
-58.18733818718775
 20
-76.56349496689243
 30
0.0
 10
-59.49110947005314
 20
-76.61132620401007
 30
0.0
 10
-60.98386613510321
 20
-76.53422783471665
 30
0.0
 10
-62.64948876362547
 20
-76.28234925611646
 30
0.0
 10
-63.84954709543675
 20
-75.95399950959342
 30
0.0
 10
-64.45250561680982
 20
-75.78902313102195
 30
0.0
  0
LINE
  5
2DD
330
1F
100
AcDbEntity
  8
0
  6
Continuous
 62
     7
370
    15
100
AcDbLine
 10
-64.4525056168
 20
-67.8627527653
 30
0.0
 11
-64.4525056168
 21
-75.789023131
 31
0.0
  0
SPLINE
  5
2DE
330
1F
100
AcDbEntity
  8
0
  6
Continuous
 62
     7
370
    15
100
AcDbSpline
210
0.0
220
0.0
230
1.0
 70
     8
 71
     3
 72
    14
 73
    10
 74
     0
 42
0.00000001
 43
0.00000001
 12
1.0
 22
0.0
 32
0.0
 13
1.0
 23
0.0
 33
0.0
 40
0.0
 40
0.0
 40
0.0
 40
0.0
 40
0.1803122910888732
 40
0.3621160213329618
 40
0.4866241881718625
 40
0.6111288813981959
 40
0.738951562568726
 40
0.8668089793319764
 40
1.0
 40
1.0
 40
1.0
 40
1.0
 10
-64.45250561680982
 20
-67.86275276530692
 30
0.0
 10
-63.85498715988869
 20
-67.69915192901452
 30
0.0
 10
-62.65500791839232
 20
-67.37059704477896
 30
0.0
 10
-61.00034468347578
 20
-67.11952801432334
 30
0.0
 10
-59.52416042950174
 20
-67.04163043556696
 30
0.0
 10
-58.23135776853803
 20
-67.08476453169068
 30
0.0
 10
-56.93589621562601
 20
-67.24202103488459
 30
0.0
 10
-55.62499821838473
 20
-67.49795338276724
 30
0.0
 10
-54.76138707931987
 20
-67.73950786654979
 30
0.0
 10
-54.32075908627699
 20
-67.86275276530692
 30
0.0
  0
SPLINE
  5
2DF
330
1F
100
AcDbEntity
  8
0
  6
Continuous
 62
     7
370
    15
100
AcDbSpline
210
0.0
220
0.0
230
1.0
 70
     8
 71
     3
 72
    16
 73
    12
 74
     0
 42
0.00000001
 43
0.00000001
 12
1.0
 22
0.0
 32
0.0
 13
1.0
 23
0.0
 33
0.0
 40
0.0
 40
0.0
 40
0.0
 40
0.0
 40
0.2500000000000043
 40
0.2500000000000043
 40
0.5000000000000087
 40
0.5000000000000087
 40
0.6250000000000102
 40
0.6250000000000102
 40
0.7500000000000119
 40
0.7500000000000119
 40
1.0
 40
1.0
 40
1.0
 40
1.0
 10
-64.45250354688137
 20
-75.78902658417475
 30
0.0
 10
-64.70258356797167
 20
-76.03394809875716
 30
0.0
 10
-64.954486884846
 20
-76.23580781879363
 30
0.0
 10
-65.46354715941133
 20
-76.51544909039073
 30
0.0
 10
-65.72074317350352
 20
-76.59230822511903
 30
0.0
 10
-66.11138293437857
 20
-76.5931523862882
 30
0.0
 10
-66.2422088735826
 20
-76.57436329961814
 30
0.0
 10
-66.50099638218072
 20
-76.50109580753725
 30
0.0
 10
-66.62952251811011
 20
-76.44669175587396
 30
0.0
 10
-67.01281269365572
 20
-76.23661269752188
 30
0.0
 10
-67.26529741712595
 20
-76.03425340435454
 30
0.0
 10
-67.51568917412243
 20
-75.78902658417455
 30
0.0
  0
SPLINE
  5
2E0
330
1F
100
AcDbEntity
  8
0
  6
Continuous
 62
     7
370
    15
100
AcDbSpline
210
0.0
220
0.0
230
1.0
 70
     8
 71
     3
 72
    15
 73
    11
 74
     0
 42
0.00000001
 43
0.00000001
 12
1.0
 22
0.0
 32
0.0
 13
1.0
 23
0.0
 33
0.0
 40
0.0
 40
0.0
 40
0.0
 40
0.0
 40
0.1323041099762946
 40
0.2645735119045026
 40
0.3997997400345058
 40
0.5350032055059506
 40
0.6501945853877432
 40
0.765402030619404
 40
0.8826906085002147
 40
1.0
 40
1.0
 40
1.0
 40
1.0
 10
-47.25219210829923
 20
-75.78902313102195
 30
0.0
 10
-47.55758460917161
 20
-75.91139678095024
 30
0.0
 10
-48.16828949566055
 20
-76.15611197786973
 30
0.0
 10
-49.10867894669751
 20
-76.41937342228836
 30
0.0
 10
-50.06685323698743
 20
-76.57770944447483
 30
0.0
 10
-50.99026911591537
 20
-76.60904717799872
 30
0.0
 10
-51.86380380944372
 20
-76.52771593265153
 30
0.0
 10
-52.6882420201857
 20
-76.36103302705352
 30
0.0
 10
-53.50889452031577
 20
-76.11655620361299
 30
0.0
 10
-54.05012155833531
 20
-75.89820727921817
 30
0.0
 10
-54.32075908627699
 20
-75.78902313102195
 30
0.0
  0
SPLINE
  5
2E1
330
1F
100
AcDbEntity
  8
0
  6
Continuous
 62
     7
370
    15
100
AcDbSpline
210
0.0
220
0.0
230
1.0
 70
     8
 71
     3
 72
    10
 73
     6
 74
     0
 42
0.00000001
 43
0.00000001
 12
1.0
 22
0.0
 32
0.0
 13
1.0
 23
0.0
 33
0.0
 40
0.0
 40
0.0
 40
0.0
 40
0.0
 40
0.0042670860333353
 40
0.5020793920935144
 40
1.0
 40
1.0
 40
1.0
 40
1.0
 10
-47.96550324406812
 20
-76.35093101848075
 30
0.0
 10
-47.96447255014293
 20
-76.35045505164817
 30
0.0
 10
-47.84319770933629
 20
-76.29445122700155
 30
0.0
 10
-47.60415710657887
 20
-76.11091075984328
 30
0.0
 10
-47.36952228115313
 20
-75.8963267871063
 30
0.0
 10
-47.25219210829925
 20
-75.78902313102192
 30
0.0
  0
SPLINE
  5
2E2
330
1F
100
AcDbEntity
  8
0
  6
Continuous
 62
     7
370
    15
100
AcDbSpline
210
0.0
220
0.0
230
1.0
 70
     8
 71
     3
 72
     9
 73
     5
 74
     0
 42
0.00000001
 43
0.00000001
 12
1.0
 22
0.0
 32
0.0
 13
1.0
 23
0.0
 33
0.0
 40
0.0
 40
0.0
 40
0.0
 40
0.0
 40
0.5619063865932176
 40
1.0
 40
1.0
 40
1.0
 40
1.0
 10
-47.25219210829923
 20
-67.86275276530692
 30
0.0
 10
-47.38440814025837
 20
-67.7380289983337
 30
0.0
 10
-47.61970717780934
 20
-67.51606361415396
 30
0.0
 10
-47.8601927529612
 20
-67.37226241908337
 30
0.0
 10
-47.96554794755171
 20
-67.30926403392264
 30
0.0
  0
SPLINE
  5
2E3
330
1F
100
AcDbEntity
  8
0
  6
Continuous
 62
     7
370
    15
100
AcDbSpline
210
0.0
220
0.0
230
1.0
 70
     8
 71
     3
 72
    15
 73
    11
 74
     0
 42
0.00000001
 43
0.00000001
 12
1.0
 22
0.0
 32
0.0
 13
1.0
 23
0.0
 33
0.0
 40
0.0
 40
0.0
 40
0.0
 40
0.0
 40
0.1323045753438808
 40
0.2645739775493617
 40
0.3997997284711156
 40
0.5350036744896738
 40
0.650195054612939
 40
0.7654020240546241
 40
0.8826910729327643
 40
1.0
 40
1.0
 40
1.0
 40
1.0
 10
-54.32075908627699
 20
-67.86275276530692
 30
0.0
 10
-54.01536387720659
 20
-67.74037918119575
 30
0.0
 10
-53.40465464830604
 20
-67.49566454596021
 30
0.0
 10
-52.46426445230334
 20
-67.23240285365637
 30
0.0
 10
-51.50609839943617
 20
-67.07406596869248
 30
0.0
 10
-50.5826748481931
 20
-67.04272886860069
 30
0.0
 10
-49.70913951605179
 20
-67.12405941798582
 30
0.0
 10
-48.88471009998816
 20
-67.29074412862046
 30
0.0
 10
-48.06404850490875
 20
-67.53521820584113
 30
0.0
 10
-47.52282619363152
 20
-67.75356841166274
 30
0.0
 10
-47.25219210829923
 20
-67.86275276530692
 30
0.0
  0
SPLINE
  5
2E4
330
1F
100
AcDbEntity
  8
0
  6
Continuous
 62
     7
370
    15
100
AcDbSpline
210
0.0
220
0.0
230
1.0
 70
     8
 71
     3
 72
    16
 73
    12
 74
     0
 42
0.00000001
 43
0.00000001
 12
1.0
 22
0.0
 32
0.0
 13
1.0
 23
0.0
 33
0.0
 40
0.0
 40
0.0
 40
0.0
 40
0.0
 40
0.2499999999999882
 40
0.2499999999999882
 40
0.4999999999999764
 40
0.4999999999999764
 40
0.6249999999999786
 40
0.6249999999999786
 40
0.7499999999999807
 40
0.7499999999999807
 40
1.0
 40
1.0
 40
1.0
 40
1.0
 10
-67.51568917412246
 20
-67.86274714254506
 30
0.0
 10
-67.26560915303217
 20
-67.61782562796267
 30
0.0
 10
-67.01370583615778
 20
-67.4159659079262
 30
0.0
 10
-66.50464556159247
 20
-67.13632463632909
 30
0.0
 10
-66.24744954750025
 20
-67.05946550160077
 30
0.0
 10
-65.85680978662522
 20
-67.05862134043156
 30
0.0
 10
-65.7259838474212
 20
-67.07741042710164
 30
0.0
 10
-65.46719633882306
 20
-67.15067791918256
 30
0.0
 10
-65.3386702028937
 20
-67.20508197084592
 30
0.0
 10
-64.95538002734813
 20
-67.41516102919792
 30
0.0
 10
-64.70289530387788
 20
-67.61752032236524
 30
0.0
 10
-64.45250354688137
 20
-67.86274714254529
 30
0.0
  0
LINE
  5
2E5
330
1F
100
AcDbEntity
  8
0
  6
Continuous
 62
     7
370
    15
100
AcDbLine
 10
-65.6339441821
 20
-66.6258818804
 30
0.0
 11
-49.1339405462
 21
-66.6258818804
 31
0.0
  0
LINE
  5
2E6
330
1F
100
AcDbEntity
  8
0
  6
Continuous
 62
     7
370
    15
100
AcDbLine
 10
153.670118244
 20
-67.8627527653
 30
0.0
 11
153.670118244
 21
-75.789023131
 31
0.0
  0
LINE
  5
2E7
330
1F
100
AcDbEntity
  8
0
  6
Continuous
 62
     7
370
    15
100
AcDbLine
 10
-47.2521921083
 20
-67.8627527653
 30
0.0
 11
-47.2521921083
 21
-75.789023131
 31
0.0
  0
LINE
  5
2E8
330
1F
100
AcDbEntity
  8
0
  6
Continuous
 62
     7
370
    15
100
AcDbLine
 10
173.9336187557
 20
-67.8627527653
 30
0.0
 11
173.9336187557
 21
-75.789023131
 31
0.0
  0
LINE
  5
2E9
330
1F
100
AcDbEntity
  8
0
  6
Continuous
 62
     7
370
    15
100
AcDbLine
 10
-67.5156926199
 20
-67.8627527653
 30
0.0
 11
-67.5156926199
 21
-75.789023131
 31
0.0
  0
LINE
  5
2EA
330
1F
100
AcDbEntity
  8
0
  6
Continuous
 62
     7
370
    15
100
AcDbLine
 10
495.045081766
 20
-87.1877483426
 30
0.0
 11
495.0028220728
 21
-87.2414595782
 31
0.0
  0
SPLINE
  5
2EB
330
1F
100
AcDbEntity
  8
0
  6
Continuous
 62
     7
370
    15
100
AcDbSpline
210
0.0
220
0.0
230
1.0
 70
     8
 71
     3
 72
    11
 73
     7
 74
     0
 42
0.00000001
 43
0.00000001
 12
1.0
 22
0.0
 32
0.0
 13
1.0
 23
0.0
 33
0.0
 40
0.0
 40
0.0
 40
0.0
 40
0.0
 40
0.2836093082920529
 40
0.5753725071464297
 40
0.8595449723949561
 40
1.0
 40
1.0
 40
1.0
 40
1.0
 10
545.2026585653763
 20
-87.18774834264228
 30
0.0
 10
545.0329871105168
 20
-87.20877543642548
 30
0.0
 10
544.6887660729154
 20
-87.25143416205373
 30
0.0
 10
544.3751303119184
 20
-87.33203719092359
 30
0.0
 10
544.2124135330308
 20
-87.37954725255
 30
0.0
 10
544.2263231312965
 20
-87.37546684998173
 30
0.0
 10
544.2309240416031
 20
-87.37411716569373
 30
0.0
  0
SPLINE
  5
2EC
330
1F
100
AcDbEntity
  8
0
  6
Continuous
 62
     7
370
    15
100
AcDbSpline
210
0.0
220
0.0
230
1.0
 70
     8
 71
     3
 72
    11
 73
     7
 74
     0
 42
0.00000001
 43
0.00000001
 12
1.0
 22
0.0
 32
0.0
 13
1.0
 23
0.0
 33
0.0
 40
0.0
 40
0.0
 40
0.0
 40
0.0
 40
0.1525329790847118
 40
0.4273511637136809
 40
0.7098051636485718
 40
1.0
 40
1.0
 40
1.0
 40
1.0
 10
-437.8129979058762
 20
-87.37411716569373
 30
0.0
 10
-437.8089940422855
 20
-87.37527633286008
 30
0.0
 10
-437.7977764303627
 20
-87.37852396783357
 30
0.0
 10
-437.9606137360099
 20
-87.33119749568095
 30
0.0
 10
-438.2693843294862
 20
-87.25196817039988
 30
0.0
 10
-438.6114086140691
 20
-87.20934699718144
 30
0.0
 10
-438.7847324296494
 20
-87.18774834264228
 30
0.0
  0
LINE
  5
2ED
330
1F
100
AcDbEntity
  8
0
  6
Continuous
 62
     7
370
    15
100
AcDbLine
 10
-388.5864456579
 20
-87.2416532933
 30
0.0
 11
-388.6271556303
 21
-87.1877483426
 31
0.0
  0
LINE
  5
2EE
330
1F
100
AcDbEntity
  8
0
  6
Continuous
 62
     7
370
    15
100
AcDbLine
 10
157.8018675164
 20
-31.5258837639
 30
0.0
 11
169.8018694833
 21
-31.5258837639
 31
0.0
  0
LINE
  5
2EF
330
1F
100
AcDbEntity
  8
0
  6
Continuous
 62
     7
370
    15
100
AcDbLine
 10
-63.3839433476
 20
-31.5258837639
 30
0.0
 11
-51.3839413806
 21
-31.5258837639
 31
0.0
  0
LINE
  5
2F0
330
1F
100
AcDbEntity
  8
0
  6
Continuous
 62
     7
370
    15
100
AcDbLine
 10
-430.418624489
 20
-119.5258832871
 30
0.0
 11
-400.572552292
 21
-119.5258832871
 31
0.0
  0
LINE
  5
2F1
330
1F
100
AcDbEntity
  8
0
  6
Continuous
 62
     7
370
    15
100
AcDbLine
 10
-388.5725577756
 20
-119.5258832871
 30
0.0
 11
-262.6654644891
 21
-119.5258832871
 31
0.0
  0
LINE
  5
2F2
330
1F
100
AcDbEntity
  8
0
  6
Continuous
 62
     7
370
    15
100
AcDbLine
 10
-250.6654699728
 20
-119.5258832871
 30
0.0
 11
-63.3839433476
 21
-119.5258832871
 31
0.0
  0
LINE
  5
2F3
330
1F
100
AcDbEntity
  8
0
  6
Continuous
 62
     7
370
    15
100
AcDbLine
 10
-51.3839413806
 20
-119.5258832871
 30
0.0
 11
157.8018675164
 21
-119.5258832871
 31
0.0
  0
LINE
  5
2F4
330
1F
100
AcDbEntity
  8
0
  6
Continuous
 62
     7
370
    15
100
AcDbLine
 10
169.8018694833
 20
-119.5258832871
 30
0.0
 11
357.0833961085
 21
-119.5258832871
 31
0.0
  0
LINE
  5
2F5
330
1F
100
AcDbEntity
  8
0
  6
Continuous
 62
     7
370
    15
100
AcDbLine
 10
369.0833906249
 20
-119.5258832871
 30
0.0
 11
494.9904839114
 21
-119.5258832871
 31
0.0
  0
LINE
  5
2F6
330
1F
100
AcDbEntity
  8
0
  6
Continuous
 62
     7
370
    15
100
AcDbLine
 10
506.9904784277
 20
-119.5258832871
 30
0.0
 11
536.8365506247
 21
-119.5258832871
 31
0.0
  0
LINE
  5
2F7
330
1F
100
AcDbEntity
  8
0
  6
Continuous
 62
     7
370
    15
100
AcDbLine
 10
351.0833839491
 20
-77.0258940159
 30
0.0
 11
375.0834027842
 21
-77.0258940159
 31
0.0
  0
LINE
  5
2F8
330
1F
100
AcDbEntity
  8
0
  6
Continuous
 62
     7
370
    15
100
AcDbLine
 10
-247.2835024282
 20
-77.0258940159
 30
0.0
 11
-244.6654578134
 21
-77.0258940159
 31
0.0
  0
LINE
  5
2F9
330
1F
100
AcDbEntity
  8
0
  6
Continuous
 62
     7
370
    15
100
AcDbLine
 10
-268.6654766485
 20
-77.0258940159
 30
0.0
 11
-247.2835024282
 21
-77.0258940159
 31
0.0
  0
SPLINE
  5
2FA
330
1F
100
AcDbEntity
  8
0
  6
Continuous
 62
     7
370
    15
100
AcDbSpline
210
0.0
220
0.0
230
1.0
 70
     8
 71
     3
 72
    10
 73
     6
 74
     0
 42
0.00000001
 43
0.00000001
 12
1.0
 22
0.0
 32
0.0
 13
1.0
 23
0.0
 33
0.0
 40
0.0
 40
0.0
 40
0.0
 40
0.0
 40
0.3564304987777356
 40
0.7127552888351165
 40
1.0
 40
1.0
 40
1.0
 40
1.0
 10
372.757331521843
 20
-67.86275276530692
 30
0.0
 10
372.6903981376526
 20
-67.74107751093742
 30
0.0
 10
372.556551220105
 20
-67.49776308815481
 30
0.0
 10
372.3653748489496
 20
-67.24354240632758
 30
0.0
 10
372.2406887407437
 20
-67.16383532989859
 30
0.0
 10
372.185037525032
 20
-67.12825962890098
 30
0.0
  0
SPLINE
  5
2FB
330
1F
100
AcDbEntity
  8
0
  6
Continuous
 62
     7
370
    15
100
AcDbSpline
210
0.0
220
0.0
230
1.0
 70
     8
 71
     3
 72
    14
 73
    10
 74
     0
 42
0.00000001
 43
0.00000001
 12
1.0
 22
0.0
 32
0.0
 13
1.0
 23
0.0
 33
0.0
 40
0.0
 40
0.0
 40
0.0
 40
0.0
 40
0.1803121316546404
 40
0.3621159524433536
 40
0.486622550896434
 40
0.6111272681580738
 40
0.7389495181054082
 40
0.8668080086379405
 40
0.9999999999999999
 40
0.9999999999999999
 40
0.9999999999999999
 40
0.9999999999999999
 10
364.6322945669632
 20
-67.86275276530692
 30
0.0
 10
365.1114677881088
 20
-67.69915187519466
 30
0.0
 10
366.0737783424138
 20
-67.37059665486666
 30
0.0
 10
367.4006944409776
 20
-67.11952910916382
 30
0.0
 10
368.5845332798151
 20
-67.04163026470755
 30
0.0
 10
369.6212448459088
 20
-67.08476420226333
 30
0.0
 10
370.66014271099
 20
-67.24202254174708
 30
0.0
 10
371.7114086028386
 20
-67.49795304734451
 30
0.0
 10
372.4039739669285
 20
-67.73950779760376
 30
0.0
 10
372.757331521843
 20
-67.86275276530692
 30
0.0
  0
SPLINE
  5
2FC
330
1F
100
AcDbEntity
  8
0
  6
Continuous
 62
     7
370
    15
100
AcDbSpline
210
0.0
220
0.0
230
1.0
 70
     8
 71
     3
 72
    16
 73
    12
 74
     0
 42
0.00000001
 43
0.00000001
 12
1.0
 22
0.0
 32
0.0
 13
1.0
 23
0.0
 33
0.0
 40
0.0
 40
0.0
 40
0.0
 40
0.0
 40
0.25
 40
0.25
 40
0.5
 40
0.5
 40
0.625
 40
0.625
 40
0.75
 40
0.75
 40
1.0
 40
1.0
 40
1.0
 40
1.0
 10
354.9583634881041
 20
-67.86274714254506
 30
0.0
 10
355.7481475085496
 20
-67.61782562796265
 30
0.0
 10
356.5436897253855
 20
-67.41596590792615
 30
0.0
 10
358.1513658145926
 20
-67.13632463632912
 30
0.0
 10
358.9636230319693
 20
-67.05946550160074
 30
0.0
 10
360.1973123108836
 20
-67.05862134043159
 30
0.0
 10
360.6104770082977
 20
-67.0774104271017
 30
0.0
 10
361.4277603646034
 20
-67.1506779191825
 30
0.0
 10
361.8336619953057
 20
-67.20508197084588
 30
0.0
 10
363.0441403634691
 20
-67.41516102919792
 30
0.0
 10
363.8415187351362
 20
-67.61752032236527
 30
0.0
 10
364.6322872566074
 20
-67.86274714254529
 30
0.0
  0
SPLINE
  5
2FD
330
1F
100
AcDbEntity
  8
0
  6
Continuous
 62
     7
370
    15
100
AcDbSpline
210
0.0
220
0.0
230
1.0
 70
     8
 71
     3
 72
    15
 73
    11
 74
     0
 42
0.00000001
 43
0.00000001
 12
1.0
 22
0.0
 32
0.0
 13
1.0
 23
0.0
 33
0.0
 40
0.0
 40
0.0
 40
0.0
 40
0.0
 40
0.1323055618115334
 40
0.264572292487508
 40
0.3997999136916707
 40
0.5350012425634062
 40
0.6501926710473223
 40
0.765401883150291
 40
0.8826876567693366
 40
1.0
 40
1.0
 40
1.0
 40
1.0
 10
353.4094850138168
 20
-67.86275276530692
 30
0.0
 10
353.4763970987518
 20
-67.74037993091098
 30
0.0
 10
353.6102016302016
 20
-67.49567017804023
 30
0.0
 10
353.8162515140558
 20
-67.23239752848859
 30
0.0
 10
354.0262499788096
 20
-67.07406894936419
 30
0.0
 10
354.228591765623
 20
-67.04272797460573
 30
0.0
 10
354.4199865461651
 20
-67.12406229789303
 30
0.0
 10
354.6006543601313
 20
-67.2907365696673
 30
0.0
 10
354.7804513306058
 20
-67.53522869732562
 30
0.0
 10
354.8990601744531
 20
-67.75356983317543
 30
0.0
 10
354.9583713129501
 20
-67.86275276530692
 30
0.0
  0
LINE
  5
2FE
330
1F
100
AcDbEntity
  8
0
  6
Continuous
 62
     7
370
    15
100
AcDbLine
 10
354.8333803729
 20
-66.6258818804
 30
0.0
 11
371.3334063605
 21
-66.6258818804
 31
0.0
  0
LINE
  5
2FF
330
1F
100
AcDbEntity
  8
0
  6
Continuous
 62
     7
370
    15
100
AcDbLine
 10
364.632294567
 20
-67.8627527653
 30
0.0
 11
364.632294567
 21
-75.789023131
 31
0.0
  0
SPLINE
  5
300
330
1F
100
AcDbEntity
  8
0
  6
Continuous
 62
     7
370
    15
100
AcDbSpline
210
0.0
220
0.0
230
1.0
 70
     8
 71
     3
 72
    16
 73
    12
 74
     0
 42
0.00000001
 43
0.00000001
 12
1.0
 22
0.0
 32
0.0
 13
1.0
 23
0.0
 33
0.0
 40
0.0
 40
0.0
 40
0.0
 40
0.0
 40
0.25
 40
0.25
 40
0.5
 40
0.5
 40
0.625
 40
0.625
 40
0.75
 40
0.75
 40
1.0
 40
1.0
 40
1.0
 40
1.0
 10
364.6322872566073
 20
-75.78902658417475
 30
0.0
 10
363.8425032361619
 20
-76.03394809875714
 30
0.0
 10
363.046961019326
 20
-76.23580781879363
 30
0.0
 10
361.4392849301187
 20
-76.51544909039073
 30
0.0
 10
360.6270277127422
 20
-76.59230822511906
 30
0.0
 10
359.393338433828
 20
-76.5931523862882
 30
0.0
 10
358.9801737364137
 20
-76.57436329961811
 30
0.0
 10
358.162890380108
 20
-76.50109580753728
 30
0.0
 10
357.7569887494057
 20
-76.44669175587393
 30
0.0
 10
356.5465103812424
 20
-76.23661269752185
 30
0.0
 10
355.7491320095754
 20
-76.03425340435449
 30
0.0
 10
354.9583634881041
 20
-75.78902658417452
 30
0.0
  0
LINE
  5
301
330
1F
100
AcDbEntity
  8
0
  6
Continuous
 62
     7
370
    15
100
AcDbLine
 10
354.958371313
 20
-67.8627527653
 30
0.0
 11
354.958371313
 21
-75.789023131
 31
0.0
  0
SPLINE
  5
302
330
1F
100
AcDbEntity
  8
0
  6
Continuous
 62
     7
370
    15
100
AcDbSpline
210
0.0
220
0.0
230
1.0
 70
     8
 71
     3
 72
    14
 73
    10
 74
     0
 42
0.00000001
 43
0.00000001
 12
1.0
 22
0.0
 32
0.0
 13
1.0
 23
0.0
 33
0.0
 40
0.0
 40
0.0
 40
0.0
 40
0.0
 40
0.1331920560997723
 40
0.2578381513536067
 40
0.3824537475520116
 40
0.5101691257010146
 40
0.6378832907366063
 40
0.8180593270778274
 40
0.9999999999999999
 40
0.9999999999999999
 40
0.9999999999999999
 40
0.9999999999999999
 10
372.757331521843
 20
-75.78902313102195
 30
0.0
 10
372.4039760787144
 20
-75.91227767085174
 30
0.0
 10
371.7199374288511
 20
-76.15087840745907
 30
0.0
 10
370.6862328396995
 20
-76.40370957929443
 30
0.0
 10
369.6565711768802
 20
-76.5634950874699
 30
0.0
 10
368.6110131535664
 20
-76.61132673928012
 30
0.0
 10
367.4139157551112
 20
-76.53422525670852
 30
0.0
 10
366.078184653646
 20
-76.28235358446523
 30
0.0
 10
365.1158211653632
 20
-75.95399998385294
 30
0.0
 10
364.6322945669632
 20
-75.78902313102195
 30
0.0
  0
SPLINE
  5
303
330
1F
100
AcDbEntity
  8
0
  6
Continuous
 62
     7
370
    15
100
AcDbSpline
210
0.0
220
0.0
230
1.0
 70
     8
 71
     3
 72
    11
 73
     7
 74
     0
 42
0.00000001
 43
0.00000001
 12
1.0
 22
0.0
 32
0.0
 13
1.0
 23
0.0
 33
0.0
 40
0.0
 40
0.0
 40
0.0
 40
0.0
 40
0.0577384924238011
 40
0.3680677411933525
 40
0.6840054119505503
 40
1.0
 40
1.0
 40
1.0
 40
1.0
 10
372.1850673273544
 20
-76.52697333682487
 30
0.0
 10
372.1962881884155
 20
-76.52268058547854
 30
0.0
 10
372.2678182338252
 20
-76.49531542187246
 30
0.0
 10
372.3995571295561
 20
-76.3558361924262
 30
0.0
 10
372.579421860064
 20
-76.11786475232793
 30
0.0
 10
372.6980247404491
 20
-75.89864358644289
 30
0.0
 10
372.757331521843
 20
-75.78902313102195
 30
0.0
  0
SPLINE
  5
304
330
1F
100
AcDbEntity
  8
0
  6
Continuous
 62
     7
370
    15
100
AcDbSpline
210
0.0
220
0.0
230
1.0
 70
     8
 71
     3
 72
    15
 73
    11
 74
     0
 42
0.00000001
 43
0.00000001
 12
1.0
 22
0.0
 32
0.0
 13
1.0
 23
0.0
 33
0.0
 40
0.0
 40
0.0
 40
0.0
 40
0.0
 40
0.1323059642425876
 40
0.264575433734065
 40
0.3998026310778782
 40
0.535003954631316
 40
0.6501957988365462
 40
0.7654045891973092
 40
0.8826907708148631
 40
1.0
 40
1.0
 40
1.0
 40
1.0
 10
354.9583713129501
 20
-75.78902313102195
 30
0.0
 10
354.8914469611123
 20
-75.91139645046584
 30
0.0
 10
354.7576167175838
 20
-76.1561093343838
 30
0.0
 10
354.5515712474189
 20
-76.41937470454535
 30
0.0
 10
354.3416109849828
 20
-76.57770787665535
 30
0.0
 10
354.1392792320468
 20
-76.60904745114367
 30
0.0
 10
353.9478167797981
 20
-76.52771450474482
 30
0.0
 10
353.7672270652708
 20
-76.36103764803143
 30
0.0
 10
353.5873569407838
 20
-76.1165525025907
 30
0.0
 10
353.4687795393079
 20
-75.89820673859116
 30
0.0
 10
353.4094850138168
 20
-75.78902313102195
 30
0.0
  0
LINE
  5
305
330
1F
100
AcDbEntity
  8
0
  6
Continuous
 62
     7
370
    15
100
AcDbLine
 10
-248.5404451772
 20
-67.8627527653
 30
0.0
 11
-248.5404451772
 21
-75.789023131
 31
0.0
  0
SPLINE
  5
306
330
1F
100
AcDbEntity
  8
0
  6
Continuous
 62
     7
370
    15
100
AcDbSpline
210
0.0
220
0.0
230
1.0
 70
     8
 71
     3
 72
    16
 73
    12
 74
     0
 42
0.00000001
 43
0.00000001
 12
1.0
 22
0.0
 32
0.0
 13
1.0
 23
0.0
 33
0.0
 40
0.0
 40
0.0
 40
0.0
 40
0.0
 40
0.25
 40
0.25
 40
0.5
 40
0.5
 40
0.625
 40
0.625
 40
0.75
 40
0.75
 40
1.0
 40
1.0
 40
1.0
 40
1.0
 10
-248.5404373523797
 20
-75.78902658417472
 30
0.0
 10
-249.3302213728252
 20
-76.03394809875711
 30
0.0
 10
-250.1257635896611
 20
-76.23580781879363
 30
0.0
 10
-251.7334396788683
 20
-76.51544909039073
 30
0.0
 10
-252.5456968962449
 20
-76.59230822511906
 30
0.0
 10
-253.7793861751592
 20
-76.59315238628814
 30
0.0
 10
-254.1925508725734
 20
-76.57436329961817
 30
0.0
 10
-255.0098342288791
 20
-76.50109580753731
 30
0.0
 10
-255.4157358595814
 20
-76.44669175587396
 30
0.0
 10
-256.6262142277448
 20
-76.23661269752188
 30
0.0
 10
-257.4235925994119
 20
-76.03425340435454
 30
0.0
 10
-258.2143611208831
 20
-75.78902658417455
 30
0.0
  0
LINE
  5
307
330
1F
100
AcDbEntity
  8
0
  6
Continuous
 62
     7
370
    15
100
AcDbLine
 10
-258.2143684312
 20
-67.8627527653
 30
0.0
 11
-258.2143684312
 21
-75.789023131
 31
0.0
  0
SPLINE
  5
308
330
1F
100
AcDbEntity
  8
0
  6
Continuous
 62
     7
370
    15
100
AcDbSpline
210
0.0
220
0.0
230
1.0
 70
     8
 71
     3
 72
    16
 73
    12
 74
     0
 42
0.00000001
 43
0.00000001
 12
1.0
 22
0.0
 32
0.0
 13
1.0
 23
0.0
 33
0.0
 40
0.0
 40
0.0
 40
0.0
 40
0.0
 40
0.25
 40
0.25
 40
0.5
 40
0.5
 40
0.625
 40
0.625
 40
0.75
 40
0.75
 40
1.0
 40
1.0
 40
1.0
 40
1.0
 10
-258.2143611208832
 20
-67.86274714254509
 30
0.0
 10
-257.4245771004376
 20
-67.6178256279627
 30
0.0
 10
-256.6290348836018
 20
-67.41596590792615
 30
0.0
 10
-255.0213587943945
 20
-67.13632463632909
 30
0.0
 10
-254.2091015770179
 20
-67.05946550160071
 30
0.0
 10
-252.9754122981038
 20
-67.05862134043156
 30
0.0
 10
-252.5622476006895
 20
-67.07741042710164
 30
0.0
 10
-251.7449642443837
 20
-67.15067791918247
 30
0.0
 10
-251.3390626136814
 20
-67.20508197084582
 30
0.0
 10
-250.1285842455181
 20
-67.41516102919783
 30
0.0
 10
-249.331205873851
 20
-67.61752032236524
 30
0.0
 10
-248.5404373523797
 20
-67.86274714254523
 30
0.0
  0
SPLINE
  5
309
330
1F
100
AcDbEntity
  8
0
  6
Continuous
 62
     7
370
    15
100
AcDbSpline
210
0.0
220
0.0
230
1.0
 70
     8
 71
     3
 72
    15
 73
    11
 74
     0
 42
0.00000001
 43
0.00000001
 12
1.0
 22
0.0
 32
0.0
 13
1.0
 23
0.0
 33
0.0
 40
0.0
 40
0.0
 40
0.0
 40
0.0
 40
0.1323059642425876
 40
0.264575433734065
 40
0.3998026310778782
 40
0.535003954631316
 40
0.6501957988365462
 40
0.7654045891973092
 40
0.8826907708148631
 40
1.0
 40
1.0
 40
1.0
 40
1.0
 10
-248.5404451772232
 20
-67.86275276530692
 30
0.0
 10
-248.4735208253853
 20
-67.74037944586303
 30
0.0
 10
-248.3396905818568
 20
-67.49566656194511
 30
0.0
 10
-248.1336451116919
 20
-67.23240119178345
 30
0.0
 10
-247.9236848492558
 20
-67.07406801967353
 30
0.0
 10
-247.7213530963198
 20
-67.0427284451853
 30
0.0
 10
-247.5298906440712
 20
-67.12406139158408
 30
0.0
 10
-247.3493009295439
 20
-67.2907382482974
 30
0.0
 10
-247.1694308050568
 20
-67.53522339373829
 30
0.0
 10
-247.050853403581
 20
-67.7535691577377
 30
0.0
 10
-246.9915588780899
 20
-67.86275276530692
 30
0.0
  0
SPLINE
  5
30A
330
1F
100
AcDbEntity
  8
0
  6
Continuous
 62
     7
370
    15
100
AcDbSpline
210
0.0
220
0.0
230
1.0
 70
     8
 71
     3
 72
    14
 73
    10
 74
     0
 42
0.00000001
 43
0.00000001
 12
1.0
 22
0.0
 32
0.0
 13
1.0
 23
0.0
 33
0.0
 40
0.0
 40
0.0
 40
0.0
 40
0.0
 40
0.1803121252307836
 40
0.3621181246115275
 40
0.4866242718385017
 40
0.6111294317805983
 40
0.7389534270485936
 40
0.8668080133830802
 40
0.9999999999999999
 40
0.9999999999999999
 40
0.9999999999999999
 40
0.9999999999999999
 10
-266.339405386116
 20
-67.86275276530692
 30
0.0
 10
-265.8602353288535
 20
-67.69915153769345
 30
0.0
 10
-264.8979253217821
 20
-67.37059365700898
 30
0.0
 10
-263.5709613742662
 20
-67.11953094056285
 30
0.0
 10
-262.3871846840669
 20
-67.041629536851
 30
0.0
 10
-261.3504040144282
 20
-67.08476600807947
 30
0.0
 10
-260.3115520252239
 20
-67.2420160454457
 30
0.0
 10
-259.260278058771
 20
-67.49795926959743
 30
0.0
 10
-258.5677249909438
 20
-67.7395086806804
 30
0.0
 10
-258.2143684312363
 20
-67.86275276530692
 30
0.0
  0
SPLINE
  5
30B
330
1F
100
AcDbEntity
  8
0
  6
Continuous
 62
     7
370
    15
100
AcDbSpline
210
0.0
220
0.0
230
1.0
 70
     8
 71
     3
 72
    11
 73
     7
 74
     0
 42
0.00000001
 43
0.00000001
 12
1.0
 22
0.0
 32
0.0
 13
1.0
 23
0.0
 33
0.0
 40
0.0
 40
0.0
 40
0.0
 40
0.0
 40
0.0577387153409498
 40
0.3680678906938215
 40
0.6840054867075175
 40
1.0
 40
1.0
 40
1.0
 40
1.0
 10
-265.7671411916275
 20
-67.12478765834281
 30
0.0
 10
-265.7783620486711
 20
-67.12908581059526
 30
0.0
 10
-265.8498918213618
 20
-67.15648530890589
 30
0.0
 10
-265.9816310895619
 20
-67.29592939948853
 30
0.0
 10
-266.1614957002206
 20
-67.53391373984583
 30
0.0
 10
-266.2800985966828
 20
-67.75313317521959
 30
0.0
 10
-266.339405386116
 20
-67.86275276530692
 30
0.0
  0
LINE
  5
30C
330
1F
100
AcDbEntity
  8
0
  6
Continuous
 62
     7
370
    15
100
AcDbLine
 10
-264.9154802248
 20
-66.6258818804
 30
0.0
 11
-248.4154542371
 21
-66.6258818804
 31
0.0
  0
SPLINE
  5
30D
330
1F
100
AcDbEntity
  8
0
  6
Continuous
 62
     7
370
    15
100
AcDbSpline
210
0.0
220
0.0
230
1.0
 70
     8
 71
     3
 72
    10
 73
     6
 74
     0
 42
0.00000001
 43
0.00000001
 12
1.0
 22
0.0
 32
0.0
 13
1.0
 23
0.0
 33
0.0
 40
0.0
 40
0.0
 40
0.0
 40
0.0
 40
0.3564306476222074
 40
0.7127555864799163
 40
1.0
 40
1.0
 40
1.0
 40
1.0
 10
-266.3394053861161
 20
-75.78902313102192
 30
0.0
 10
-266.2724719944453
 20
-75.91069793107371
 30
0.0
 10
-266.1386250619391
 20
-76.15401144535558
 30
0.0
 10
-265.9474488755348
 20
-76.40823839304464
 30
0.0
 10
-265.8227626241338
 20
-76.48793179654525
 30
0.0
 10
-265.7671113893051
 20
-76.5235013662667
 30
0.0
  0
SPLINE
  5
30E
330
1F
100
AcDbEntity
  8
0
  6
Continuous
 62
     7
370
    15
100
AcDbSpline
210
0.0
220
0.0
230
1.0
 70
     8
 71
     3
 72
    14
 73
    10
 74
     0
 42
0.00000001
 43
0.00000001
 12
1.0
 22
0.0
 32
0.0
 13
1.0
 23
0.0
 33
0.0
 40
0.0
 40
0.0
 40
0.0
 40
0.0
 40
0.1331920644539406
 40
0.2578381675259173
 40
0.3824537715405517
 40
0.5101669502011673
 40
0.637881123247339
 40
0.8180571708896915
 40
1.0
 40
1.0
 40
1.0
 40
1.0
 10
-258.2143684312363
 20
-75.78902313102195
 30
0.0
 10
-258.5677239748975
 20
-75.91227766913167
 30
0.0
 10
-259.2517628193756
 20
-76.15087840240925
 30
0.0
 10
-260.2854660207233
 20
-76.40370959798912
 30
0.0
 10
-261.3151268951725
 20
-76.56349408082203
 30
0.0
 10
-262.3606587115368
 20
-76.6113267889435
 30
0.0
 10
-263.5577566658118
 20
-76.53422536230985
 30
0.0
 10
-264.8934874465176
 20
-76.28235086153084
 30
0.0
 10
-265.8558675856111
 20
-75.95399971731742
 30
0.0
 10
-266.339405386116
 20
-75.78902313102195
 30
0.0
  0
SPLINE
  5
30F
330
1F
100
AcDbEntity
  8
0
  6
Continuous
 62
     7
370
    15
100
AcDbSpline
210
0.0
220
0.0
230
1.0
 70
     8
 71
     3
 72
    15
 73
    11
 74
     0
 42
0.00000001
 43
0.00000001
 12
1.0
 22
0.0
 32
0.0
 13
1.0
 23
0.0
 33
0.0
 40
0.0
 40
0.0
 40
0.0
 40
0.0
 40
0.1323055618115334
 40
0.264572292487508
 40
0.3997999136916707
 40
0.5350012425634062
 40
0.6501926710473223
 40
0.765401883150291
 40
0.8826876567693366
 40
1.0
 40
1.0
 40
1.0
 40
1.0
 10
-246.9915588780899
 20
-75.78902313102195
 30
0.0
 10
-247.0584709630249
 20
-75.91139596541791
 30
0.0
 10
-247.1922754944746
 20
-76.15610571828874
 30
0.0
 10
-247.3983253783288
 20
-76.41937836784024
 30
0.0
 10
-247.6083238430826
 20
-76.57770694696467
 30
0.0
 10
-247.8106656298961
 20
-76.60904792172319
 30
0.0
 10
-248.0020604104381
 20
-76.52771359843582
 30
0.0
 10
-248.1827282244043
 20
-76.36103932666164
 30
0.0
 10
-248.3625251948788
 20
-76.11654719900318
 30
0.0
 10
-248.4811340387261
 20
-75.89820606315345
 30
0.0
 10
-248.5404451772232
 20
-75.78902313102195
 30
0.0
  0
LINE
  5
310
330
1F
100
AcDbEntity
  8
0
  6
Continuous
 62
     7
370
    15
100
AcDbLine
 10
372.7573315218
 20
-67.8627527653
 30
0.0
 11
372.7573315218
 21
-75.789023131
 31
0.0
  0
LINE
  5
311
330
1F
100
AcDbEntity
  8
0
  6
Continuous
 62
     7
370
    15
100
AcDbLine
 10
-266.3394053861
 20
-67.8627527653
 30
0.0
 11
-266.3394053861
 21
-75.789023131
 31
0.0
  0
LINE
  5
312
330
1F
100
AcDbEntity
  8
0
  6
Continuous
 62
     7
370
    15
100
AcDbLine
 10
353.4094850138
 20
-67.8627527653
 30
0.0
 11
353.4094850138
 21
-75.789023131
 31
0.0
  0
LINE
  5
313
330
1F
100
AcDbEntity
  8
0
  6
Continuous
 62
     7
370
    15
100
AcDbLine
 10
-246.9915588781
 20
-67.8627527653
 30
0.0
 11
-246.9915588781
 21
-75.789023131
 31
0.0
  0
LINE
  5
314
330
1F
100
AcDbEntity
  8
0
  6
Continuous
 62
     7
370
    15
100
AcDbLine
 10
357.0833961085
 20
-31.5258837639
 30
0.0
 11
369.0833906249
 21
-31.5258837639
 31
0.0
  0
LINE
  5
315
330
1F
100
AcDbEntity
  8
0
  6
Continuous
 62
     7
370
    15
100
AcDbLine
 10
-262.6654644891
 20
-31.5258837639
 30
0.0
 11
-250.6654699728
 21
-31.5258837639
 31
0.0
  0
LINE
  5
316
330
1F
100
AcDbEntity
  8
0
  6
Continuous
 62
     7
370
    15
100
AcDbLine
 10
488.9905015543
 20
-77.0258940159
 30
0.0
 11
512.9904905871
 21
-77.0258940159
 31
0.0
  0
LINE
  5
317
330
1F
100
AcDbEntity
  8
0
  6
Continuous
 62
     7
370
    15
100
AcDbLine
 10
-389.3659552022
 20
-77.0258940159
 30
0.0
 11
-382.5725754186
 21
-77.0258940159
 31
0.0
  0
LINE
  5
318
330
1F
100
AcDbEntity
  8
0
  6
Continuous
 62
     7
370
    15
100
AcDbLine
 10
-406.5725644514
 20
-77.0258940159
 30
0.0
 11
-389.3659552022
 21
-77.0258940159
 31
0.0
  0
LINE
  5
319
330
1F
100
AcDbEntity
  8
0
  6
Continuous
 62
     7
370
    15
100
AcDbLine
 10
506.8446854666
 20
-67.8627527653
 30
0.0
 11
506.8446854666
 21
-75.789023131
 31
0.0
  0
SPLINE
  5
31A
330
1F
100
AcDbEntity
  8
0
  6
Continuous
 62
     7
370
    15
100
AcDbSpline
210
0.0
220
0.0
230
1.0
 70
     8
 71
     3
 72
    16
 73
    12
 74
     0
 42
0.00000001
 43
0.00000001
 12
1.0
 22
0.0
 32
0.0
 13
1.0
 23
0.0
 33
0.0
 40
0.0
 40
0.0
 40
0.0
 40
0.0
 40
0.250000000000008
 40
0.250000000000008
 40
0.500000000000016
 40
0.500000000000016
 40
0.6250000000000119
 40
0.6250000000000119
 40
0.7500000000000078
 40
0.7500000000000078
 40
1.0
 40
1.0
 40
1.0
 40
1.0
 10
506.8446841842985
 20
-75.78902658417475
 30
0.0
 10
505.9986235608376
 20
-76.03394809875714
 30
0.0
 10
505.1463944367463
 20
-76.23580781879363
 30
0.0
 10
503.4241622832134
 20
-76.51544909039073
 30
0.0
 10
502.5540271197333
 20
-76.59230822511908
 30
0.0
 10
501.2324304636168
 20
-76.59315238628817
 30
0.0
 10
500.7898254318145
 20
-76.57436329961811
 30
0.0
 10
499.9143059884227
 20
-76.50109580753723
 30
0.0
 10
499.4794815581409
 20
-76.44669175587396
 30
0.0
 10
498.1827497221684
 20
-76.23661269752185
 30
0.0
 10
497.3285536067718
 20
-76.03425340435454
 30
0.0
 10
496.4814383309881
 20
-75.78902658417455
 30
0.0
  0
LINE
  5
31B
330
1F
100
AcDbEntity
  8
0
  6
Continuous
 62
     7
370
    15
100
AcDbLine
 10
496.4814344958
 20
-67.8627527653
 30
0.0
 11
496.4814344958
 21
-75.789023131
 31
0.0
  0
SPLINE
  5
31C
330
1F
100
AcDbEntity
  8
0
  6
Continuous
 62
     7
370
    15
100
AcDbSpline
210
0.0
220
0.0
230
1.0
 70
     8
 71
     3
 72
    16
 73
    12
 74
     0
 42
0.00000001
 43
0.00000001
 12
1.0
 22
0.0
 32
0.0
 13
1.0
 23
0.0
 33
0.0
 40
0.0
 40
0.0
 40
0.0
 40
0.0
 40
0.2499999999999956
 40
0.2499999999999956
 40
0.4999999999999912
 40
0.4999999999999912
 40
0.6249999999999971
 40
0.6249999999999971
 40
0.750000000000003
 40
0.750000000000003
 40
1.0
 40
1.0
 40
1.0
 40
1.0
 10
496.4814383309881
 20
-67.86274714254506
 30
0.0
 10
497.327498954449
 20
-67.61782562796267
 30
0.0
 10
498.1797280785402
 20
-67.41596590792618
 30
0.0
 10
499.9019602320731
 20
-67.13632463632915
 30
0.0
 10
500.7720953955532
 20
-67.05946550160074
 30
0.0
 10
502.09369205167
 20
-67.05862134043156
 30
0.0
 10
502.5362970834723
 20
-67.07741042710161
 30
0.0
 10
503.4118165268641
 20
-67.15067791918253
 30
0.0
 10
503.8466409571458
 20
-67.20508197084585
 30
0.0
 10
505.1433727931183
 20
-67.41516102919795
 30
0.0
 10
505.997568908515
 20
-67.6175203223653
 30
0.0
 10
506.8446841842986
 20
-67.86274714254529
 30
0.0
  0
LINE
  5
31D
330
1F
100
AcDbEntity
  8
0
  6
Continuous
 62
     7
370
    15
100
AcDbLine
 10
491.0012046412
 20
-67.6504261195
 30
0.0
 11
490.6272450999
 21
-67.8627527653
 31
0.0
  0
SPLINE
  5
31E
330
1F
100
AcDbEntity
  8
0
  6
Continuous
 62
     7
370
    15
100
AcDbSpline
210
0.0
220
0.0
230
1.0
 70
     8
 71
     3
 72
    16
 73
    12
 74
     0
 42
0.00000001
 43
0.00000001
 12
1.0
 22
0.0
 32
0.0
 13
1.0
 23
0.0
 33
0.0
 40
0.0
 40
0.0
 40
0.0
 40
0.0
 40
0.2500000000000018
 40
0.2500000000000018
 40
0.5000000000000036
 40
0.5000000000000036
 40
0.625000000000001
 40
0.625000000000001
 40
0.7499999999999984
 40
0.7499999999999984
 40
1.0
 40
1.0
 40
1.0
 40
1.0
 10
511.3537396739398
 20
-67.86274940816517
 30
0.0
 10
510.9870403254591
 20
-67.61877367422883
 30
0.0
 10
510.6113714218509
 20
-67.41407926788625
 30
0.0
 10
509.8581984351025
 20
-67.13422468993494
 30
0.0
 10
509.4795737860667
 20
-67.0588157731388
 30
0.0
 10
508.9080595515302
 20
-67.05894156793951
 30
0.0
 10
508.7169656647669
 20
-67.0776329472928
 30
0.0
 10
508.3336156208406
 20
-67.15180769182678
 30
0.0
 10
508.1430940792002
 20
-67.20698392054919
 30
0.0
 10
507.5783491949183
 20
-67.41832098184628
 30
0.0
 10
507.2091102392525
 20
-67.62028417152538
 30
0.0
 10
506.8446841842985
 20
-67.86274714254544
 30
0.0
  0
SPLINE
  5
31F
330
1F
100
AcDbEntity
  8
0
  6
Continuous
 62
     7
370
    15
100
AcDbSpline
210
0.0
220
0.0
230
1.0
 70
     8
 71
     3
 72
    16
 73
    12
 74
     0
 42
0.00000001
 43
0.00000001
 12
1.0
 22
0.0
 32
0.0
 13
1.0
 23
0.0
 33
0.0
 40
0.0
 40
0.0
 40
0.0
 40
0.0
 40
0.2500000000000093
 40
0.2500000000000093
 40
0.5000000000000185
 40
0.5000000000000185
 40
0.6250000000000155
 40
0.6250000000000155
 40
0.7500000000000124
 40
0.7500000000000124
 40
1.0
 40
1.0
 40
1.0
 40
1.0
 10
490.627244562055
 20
-67.86274714254503
 30
0.0
 10
491.1051838969038
 20
-67.61782562796262
 30
0.0
 10
491.5866078154884
 20
-67.41596590792612
 30
0.0
 10
492.5594961252498
 20
-67.13632463632904
 30
0.0
 10
493.051035158896
 20
-67.05946550160071
 30
0.0
 10
493.797604623598
 20
-67.05862134043153
 30
0.0
 10
494.0476320431877
 20
-67.07741042710167
 30
0.0
 10
494.5422126545747
 20
-67.15067791918247
 30
0.0
 10
494.7878448152286
 20
-67.20508197084585
 30
0.0
 10
495.5203681521811
 20
-67.41516102919795
 30
0.0
 10
496.0029032234303
 20
-67.6175203223653
 30
0.0
 10
496.4814383309881
 20
-67.86274714254529
 30
0.0
  0
LINE
  5
320
330
1F
100
AcDbEntity
  8
0
  6
Continuous
 62
     7
370
    15
100
AcDbLine
 10
492.7404979781
 20
-66.6258818804
 30
0.0
 11
509.2404941634
 21
-66.6258818804
 31
0.0
  0
SPLINE
  5
321
330
1F
100
AcDbEntity
  8
0
  6
Continuous
 62
     7
370
    15
100
AcDbSpline
210
0.0
220
0.0
230
1.0
 70
     8
 71
     3
 72
    16
 73
    12
 74
     0
 42
0.00000001
 43
0.00000001
 12
1.0
 22
0.0
 32
0.0
 13
1.0
 23
0.0
 33
0.0
 40
0.0
 40
0.0
 40
0.0
 40
0.0
 40
0.2499999999999967
 40
0.2499999999999967
 40
0.4999999999999934
 40
0.4999999999999934
 40
0.6249999999999953
 40
0.6249999999999953
 40
0.7499999999999972
 40
0.7499999999999972
 40
1.0
 40
1.0
 40
1.0
 40
1.0
 10
511.3537393462463
 20
-75.78902453657868
 30
0.0
 10
510.987040021056
 20
-76.0330002284228
 30
0.0
 10
510.6113711423054
 20
-76.23769459137932
 30
0.0
 10
509.8581982098544
 20
-76.51754909180406
 30
0.0
 10
509.4795735881507
 20
-76.59295797564039
 30
0.0
 10
508.9080593951271
 20
-76.5928321476945
 30
0.0
 10
508.7169655222864
 20
-76.57414075998436
 30
0.0
 10
508.3336155063911
 20
-76.49996600462211
 30
0.0
 10
508.1430939805269
 20
-76.44478977401376
 30
0.0
 10
507.5783491399287
 20
-76.23345271475881
 30
0.0
 10
507.209110212114
 20
-76.0314895371384
 30
0.0
 10
506.8446841842985
 20
-75.78902658417438
 30
0.0
  0
LINE
  5
322
330
1F
100
AcDbEntity
  8
0
  6
Continuous
 62
     7
370
    15
100
AcDbLine
 10
490.6272450999
 20
-75.789023131
 30
0.0
 11
491.0012046412
 21
-76.0017074047
 31
0.0
  0
SPLINE
  5
323
330
1F
100
AcDbEntity
  8
0
  6
Continuous
 62
     7
370
    15
100
AcDbSpline
210
0.0
220
0.0
230
1.0
 70
     8
 71
     3
 72
    16
 73
    12
 74
     0
 42
0.00000001
 43
0.00000001
 12
1.0
 22
0.0
 32
0.0
 13
1.0
 23
0.0
 33
0.0
 40
0.0
 40
0.0
 40
0.0
 40
0.0
 40
0.2499999999999973
 40
0.2499999999999973
 40
0.4999999999999947
 40
0.4999999999999947
 40
0.6249999999999922
 40
0.6249999999999922
 40
0.7499999999999898
 40
0.7499999999999898
 40
1.0
 40
1.0
 40
1.0
 40
1.0
 10
496.4814383309881
 20
-75.78902658417472
 30
0.0
 10
496.0034989961395
 20
-76.03394809875711
 30
0.0
 10
495.5220750775547
 20
-76.23580781879355
 30
0.0
 10
494.5491867677932
 20
-76.5154490903907
 30
0.0
 10
494.0576477341471
 20
-76.592308225119
 30
0.0
 10
493.311078269445
 20
-76.59315238628822
 30
0.0
 10
493.0610508498555
 20
-76.57436329961808
 30
0.0
 10
492.5664702384686
 20
-76.50109580753723
 30
0.0
 10
492.3208380778147
 20
-76.44669175587396
 30
0.0
 10
491.5883147408618
 20
-76.2366126975219
 30
0.0
 10
491.1057796696124
 20
-76.03425340435452
 30
0.0
 10
490.627244562055
 20
-75.78902658417452
 30
0.0
  0
LINE
  5
324
330
1F
100
AcDbEntity
  8
0
  6
Continuous
 62
     7
370
    15
100
AcDbLine
 10
-384.2093189641
 20
-67.8627527653
 30
0.0
 11
-384.5833381101
 21
-67.639935702
 31
0.0
  0
SPLINE
  5
325
330
1F
100
AcDbEntity
  8
0
  6
Continuous
 62
     7
370
    15
100
AcDbSpline
210
0.0
220
0.0
230
1.0
 70
     8
 71
     3
 72
    16
 73
    12
 74
     0
 42
0.00000001
 43
0.00000001
 12
1.0
 22
0.0
 32
0.0
 13
1.0
 23
0.0
 33
0.0
 40
0.0
 40
0.0
 40
0.0
 40
0.0
 40
0.250000000000007
 40
0.250000000000007
 40
0.5000000000000141
 40
0.5000000000000141
 40
0.6250000000000144
 40
0.6250000000000144
 40
0.7500000000000147
 40
0.7500000000000147
 40
1.0
 40
1.0
 40
1.0
 40
1.0
 10
-390.0635121952628
 20
-67.86274714254509
 30
0.0
 10
-389.5855728604141
 20
-67.61782562796267
 30
0.0
 10
-389.1041489418293
 20
-67.41596590792615
 30
0.0
 10
-388.1312606320678
 20
-67.13632463632912
 30
0.0
 10
-387.6397215984218
 20
-67.05946550160077
 30
0.0
 10
-386.8931521337197
 20
-67.05862134043159
 30
0.0
 10
-386.64312471413
 20
-67.07741042710164
 30
0.0
 10
-386.1485441027431
 20
-67.15067791918244
 30
0.0
 10
-385.9029119420894
 20
-67.20508197084582
 30
0.0
 10
-385.1703886051365
 20
-67.41516102919792
 30
0.0
 10
-384.6878535338873
 20
-67.61752032236524
 30
0.0
 10
-384.2093184263296
 20
-67.86274714254526
 30
0.0
  0
SPLINE
  5
326
330
1F
100
AcDbEntity
  8
0
  6
Continuous
 62
     7
370
    15
100
AcDbSpline
210
0.0
220
0.0
230
1.0
 70
     8
 71
     3
 72
    16
 73
    12
 74
     0
 42
0.00000001
 43
0.00000001
 12
1.0
 22
0.0
 32
0.0
 13
1.0
 23
0.0
 33
0.0
 40
0.0
 40
0.0
 40
0.0
 40
0.0
 40
0.2500000000000036
 40
0.2500000000000036
 40
0.5000000000000071
 40
0.5000000000000071
 40
0.6250000000000092
 40
0.6250000000000092
 40
0.7500000000000113
 40
0.7500000000000113
 40
1.0
 40
1.0
 40
1.0
 40
1.0
 10
-400.4267580485733
 20
-67.86274714254509
 30
0.0
 10
-399.5806974251125
 20
-67.61782562796267
 30
0.0
 10
-398.7284683010212
 20
-67.41596590792618
 30
0.0
 10
-397.0062361474883
 20
-67.13632463632912
 30
0.0
 10
-396.1361009840081
 20
-67.05946550160077
 30
0.0
 10
-394.8145043278914
 20
-67.05862134043159
 30
0.0
 10
-394.3718992960892
 20
-67.07741042710167
 30
0.0
 10
-393.4963798526972
 20
-67.1506779191825
 30
0.0
 10
-393.0615554224156
 20
-67.20508197084588
 30
0.0
 10
-391.764823586443
 20
-67.41516102919792
 30
0.0
 10
-390.9106274710462
 20
-67.61752032236524
 30
0.0
 10
-390.0635121952627
 20
-67.86274714254526
 30
0.0
  0
SPLINE
  5
327
330
1F
100
AcDbEntity
  8
0
  6
Continuous
 62
     7
370
    15
100
AcDbSpline
210
0.0
220
0.0
230
1.0
 70
     8
 71
     3
 72
    16
 73
    12
 74
     0
 42
0.00000001
 43
0.00000001
 12
1.0
 22
0.0
 32
0.0
 13
1.0
 23
0.0
 33
0.0
 40
0.0
 40
0.0
 40
0.0
 40
0.0
 40
0.2499999999999999
 40
0.2499999999999999
 40
0.4999999999999998
 40
0.4999999999999998
 40
0.6250000000000032
 40
0.6250000000000032
 40
0.7500000000000068
 40
0.7500000000000068
 40
1.0
 40
1.0
 40
1.0
 40
1.0
 10
-400.4267580485732
 20
-67.86274714254542
 30
0.0
 10
-400.7934574277653
 20
-67.61877166455355
 30
0.0
 10
-401.1691263575319
 20
-67.41407758801756
 30
0.0
 10
-401.9222993461908
 20
-67.13422379626485
 30
0.0
 10
-402.3009239977901
 20
-67.0588153234638
 30
0.0
 10
-402.8724382364765
 20
-67.05894179392554
 30
0.0
 10
-403.0635321246523
 20
-67.0776333994197
 30
0.0
 10
-403.4468821710124
 20
-67.15180858384143
 30
0.0
 10
-403.6374036599055
 20
-67.20698500864408
 30
0.0
 10
-404.2021484615162
 20
-67.41832261627428
 30
0.0
 10
-404.5713873704393
 20
-67.62028609973261
 30
0.0
 10
-404.9358133855368
 20
-67.86274930658435
 30
0.0
  0
LINE
  5
328
330
1F
100
AcDbEntity
  8
0
  6
Continuous
 62
     7
370
    15
100
AcDbLine
 10
-402.8225680276
 20
-66.6258818804
 30
0.0
 11
-386.3225718423
 21
-66.6258818804
 31
0.0
  0
LINE
  5
329
330
1F
100
AcDbEntity
  8
0
  6
Continuous
 62
     7
370
    15
100
AcDbLine
 10
-390.0635083601
 20
-67.8627527653
 30
0.0
 11
-390.0635083601
 21
-75.789023131
 31
0.0
  0
SPLINE
  5
32A
330
1F
100
AcDbEntity
  8
0
  6
Continuous
 62
     7
370
    15
100
AcDbSpline
210
0.0
220
0.0
230
1.0
 70
     8
 71
     3
 72
    16
 73
    12
 74
     0
 42
0.00000001
 43
0.00000001
 12
1.0
 22
0.0
 32
0.0
 13
1.0
 23
0.0
 33
0.0
 40
0.0
 40
0.0
 40
0.0
 40
0.0
 40
0.2499999999999886
 40
0.2499999999999886
 40
0.4999999999999771
 40
0.4999999999999771
 40
0.6249999999999789
 40
0.6249999999999789
 40
0.7499999999999808
 40
0.7499999999999808
 40
1.0
 40
1.0
 40
1.0
 40
1.0
 10
-390.0635121952627
 20
-75.78902658417472
 30
0.0
 10
-390.9095728187236
 20
-76.03394809875711
 30
0.0
 10
-391.7618019428148
 20
-76.2358078187936
 30
0.0
 10
-393.4840340963478
 20
-76.51544909039067
 30
0.0
 10
-394.3541692598278
 20
-76.59230822511906
 30
0.0
 10
-395.6757659159447
 20
-76.59315238628822
 30
0.0
 10
-396.1183709477467
 20
-76.57436329961811
 30
0.0
 10
-396.9938903911388
 20
-76.50109580753725
 30
0.0
 10
-397.4287148214204
 20
-76.44669175587393
 30
0.0
 10
-398.7254466573931
 20
-76.23661269752185
 30
0.0
 10
-399.5796427727896
 20
-76.03425340435454
 30
0.0
 10
-400.4267580485733
 20
-75.78902658417452
 30
0.0
  0
LINE
  5
32B
330
1F
100
AcDbEntity
  8
0
  6
Continuous
 62
     7
370
    15
100
AcDbLine
 10
-400.4267593309
 20
-67.8627527653
 30
0.0
 11
-400.4267593309
 21
-75.789023131
 31
0.0
  0
SPLINE
  5
32C
330
1F
100
AcDbEntity
  8
0
  6
Continuous
 62
     7
370
    15
100
AcDbSpline
210
0.0
220
0.0
230
1.0
 70
     8
 71
     3
 72
    16
 73
    12
 74
     0
 42
0.00000001
 43
0.00000001
 12
1.0
 22
0.0
 32
0.0
 13
1.0
 23
0.0
 33
0.0
 40
0.0
 40
0.0
 40
0.0
 40
0.0
 40
0.2500000000000017
 40
0.2500000000000017
 40
0.5000000000000034
 40
0.5000000000000034
 40
0.6250000000000043
 40
0.6250000000000043
 40
0.7500000000000051
 40
0.7500000000000051
 40
1.0
 40
1.0
 40
1.0
 40
1.0
 10
-400.4267580485732
 20
-75.78902658417441
 30
0.0
 10
-400.7934574077295
 20
-76.03300204883593
 30
0.0
 10
-401.1691263165988
 20
-76.23769611647974
 30
0.0
 10
-401.9222992636679
 20
-76.51754990680537
 30
0.0
 10
-402.3009238942137
 20
-76.59295838706196
 30
0.0
 10
-402.8724381009055
 20
-76.59283194093275
 30
0.0
 10
-403.0635319783491
 20
-76.57414034567184
 30
0.0
 10
-403.4468820031318
 20
-76.49996518529869
 30
0.0
 10
-403.6374034838568
 20
-76.44478877346073
 30
0.0
 10
-404.2021482581933
 20
-76.23345120752387
 30
0.0
 10
-404.571387149289
 20
-76.03148775485235
 30
0.0
 10
-404.9358131465975
 20
-75.78902457910874
 30
0.0
  0
SPLINE
  5
32D
330
1F
100
AcDbEntity
  8
0
  6
Continuous
 62
     7
370
    15
100
AcDbSpline
210
0.0
220
0.0
230
1.0
 70
     8
 71
     3
 72
    16
 73
    12
 74
     0
 42
0.00000001
 43
0.00000001
 12
1.0
 22
0.0
 32
0.0
 13
1.0
 23
0.0
 33
0.0
 40
0.0
 40
0.0
 40
0.0
 40
0.0
 40
0.2500000000000049
 40
0.2500000000000049
 40
0.5000000000000099
 40
0.5000000000000099
 40
0.6250000000000112
 40
0.6250000000000112
 40
0.7500000000000125
 40
0.7500000000000125
 40
1.0
 40
1.0
 40
1.0
 40
1.0
 10
-384.2093184263296
 20
-75.78902658417469
 30
0.0
 10
-384.6872577611782
 20
-76.03394809875711
 30
0.0
 10
-385.168681679763
 20
-76.2358078187936
 30
0.0
 10
-386.1415699895243
 20
-76.51544909039076
 30
0.0
 10
-386.6331090231707
 20
-76.592308225119
 30
0.0
 10
-387.3796784878726
 20
-76.59315238628817
 30
0.0
 10
-387.6297059074622
 20
-76.57436329961811
 30
0.0
 10
-388.1242865188493
 20
-76.50109580753723
 30
0.0
 10
-388.369918679503
 20
-76.4466917558739
 30
0.0
 10
-389.1024420164559
 20
-76.23661269752179
 30
0.0
 10
-389.5849770877051
 20
-76.03425340435446
 30
0.0
 10
-390.0635121952628
 20
-75.7890265841745
 30
0.0
  0
LINE
  5
32E
330
1F
100
AcDbEntity
  8
0
  6
Continuous
 62
     7
370
    15
100
AcDbLine
 10
-384.5833381101
 20
-76.0118401944
 30
0.0
 11
-384.2093189641
 21
-75.789023131
 31
0.0
  0
LINE
  5
32F
330
1F
100
AcDbEntity
  8
0
  6
Continuous
 62
     7
370
    15
100
AcDbLine
 10
490.6272450999
 20
-67.8627527653
 30
0.0
 11
490.6272450999
 21
-75.789023131
 31
0.0
  0
LINE
  5
330
330
1F
100
AcDbEntity
  8
0
  6
Continuous
 62
     7
370
    15
100
AcDbLine
 10
-384.2093189641
 20
-67.8627527653
 30
0.0
 11
-384.2093189641
 21
-75.789023131
 31
0.0
  0
LINE
  5
331
330
1F
100
AcDbEntity
  8
0
  6
Continuous
 62
     7
370
    15
100
AcDbLine
 10
511.3537470416
 20
-67.8627527653
 30
0.0
 11
511.3537470416
 21
-75.789023131
 31
0.0
  0
LINE
  5
332
330
1F
100
AcDbEntity
  8
0
  6
Continuous
 62
     7
370
    15
100
AcDbLine
 10
-404.9358209058
 20
-67.8627527653
 30
0.0
 11
-404.9358209058
 21
-75.789023131
 31
0.0
  0
LINE
  5
333
330
1F
100
AcDbEntity
  8
0
  6
Continuous
 62
     7
370
    15
100
AcDbLine
 10
494.9904839114
 20
-31.5258837639
 30
0.0
 11
506.9904784277
 21
-31.5258837639
 31
0.0
  0
LINE
  5
334
330
1F
100
AcDbEntity
  8
0
  6
Continuous
 62
     7
370
    15
100
AcDbLine
 10
-400.572552292
 20
-31.5258837639
 30
0.0
 11
-388.5725577756
 21
-31.5258837639
 31
0.0
  0
LINE
  5
335
330
1F
100
AcDbEntity
  8
0
  6
Continuous
 62
     7
370
    15
100
AcDbLine
 10
538.208977373
 20
-77.0258940159
 30
0.0
 11
562.2089664057
 21
-77.0258940159
 31
0.0
  0
LINE
  5
336
330
1F
100
AcDbEntity
  8
0
  6
Continuous
 62
     7
370
    15
100
AcDbLine
 10
-443.7910457536
 20
-77.0258940159
 30
0.0
 11
-431.7910512373
 21
-77.0258940159
 31
0.0
  0
LINE
  5
337
330
1F
100
AcDbEntity
  8
0
  6
Continuous
 62
     7
370
    15
100
AcDbLine
 10
-455.79104027
 20
-77.0258940159
 30
0.0
 11
-443.7910457536
 21
-77.0258940159
 31
0.0
  0
SPLINE
  5
338
330
1F
100
AcDbEntity
  8
0
  6
Continuous
 62
     7
370
    15
100
AcDbSpline
210
0.0
220
0.0
230
1.0
 70
    24
 71
     3
 72
    11
 73
     7
 74
     0
 42
0.00000001
 43
0.00000001
 12
1.0
 22
0.0
 32
0.0
 13
1.0
 23
0.0
 33
0.0
 40
0.0
 40
0.0
 40
0.0
 40
0.0
 40
0.0201953211289525
 40
0.2756639111421182
 40
0.6360651439407129
 40
0.9999999999999999
 40
0.9999999999999999
 40
0.9999999999999999
 40
0.9999999999999999
 10
541.2089685514908
 20
-67.06360349048087
 30
0.0
 10
541.2089685514908
 20
-67.06223241896267
 30
0.0
 10
541.208968551491
 20
-67.04351744361
 30
0.0
 10
541.2089685514904
 20
-67.12867091710362
 30
0.0
 10
541.208968551491
 20
-67.36622465782366
 30
0.0
 10
541.2089685514908
 20
-67.69670598608316
 30
0.0
 10
541.2089685514908
 20
-67.86275276530692
 30
0.0
  0
SPLINE
  5
339
330
1F
100
AcDbEntity
  8
0
  6
Continuous
 62
     7
370
    15
100
AcDbSpline
210
0.0
220
0.0
230
1.0
 70
    24
 71
     3
 72
    11
 73
     7
 74
     0
 42
0.00000001
 43
0.00000001
 12
1.0
 22
0.0
 32
0.0
 13
1.0
 23
0.0
 33
0.0
 40
0.0
 40
0.0
 40
0.0
 40
0.0
 40
0.3606723902692929
 40
0.7243284646391005
 40
0.9733770250149549
 40
1.0
 40
1.0
 40
1.0
 40
1.0
 10
559.2089454248886
 20
-67.86275276530692
 30
0.0
 10
559.2089454248886
 20
-67.69816139064932
 30
0.0
 10
559.2089454248887
 20
-67.36761704926076
 30
0.0
 10
559.2089454248885
 20
-67.12998081481173
 30
0.0
 10
559.2089454248887
 20
-67.04536571786745
 30
0.0
 10
559.2089454248887
 20
-67.062894158218
 30
0.0
 10
559.2089454248887
 20
-67.06458696711964
 30
0.0
  0
SPLINE
  5
33A
330
1F
100
AcDbEntity
  8
0
  6
Continuous
 62
     7
370
    15
100
AcDbSpline
210
0.0
220
0.0
230
1.0
 70
     8
 71
     3
 72
    15
 73
    11
 74
     0
 42
0.00000001
 43
0.00000001
 12
1.0
 22
0.0
 32
0.0
 13
1.0
 23
0.0
 33
0.0
 40
0.0
 40
0.0
 40
0.0
 40
0.0
 40
0.1323061386748736
 40
0.2645726155290154
 40
0.3998019070107767
 40
0.535005429291268
 40
0.6501936210376262
 40
0.7654019104584864
 40
0.8826912438550922
 40
1.0
 40
1.0
 40
1.0
 40
1.0
 10
550.2089718893509
 20
-67.86275276530692
 30
0.0
 10
550.5978097767276
 20
-67.74038012982867
 30
0.0
 10
551.3753689883442
 20
-67.49567154289574
 30
0.0
 10
552.5727410975107
 20
-67.23239538936137
 30
0.0
 10
553.7927017517059
 20
-67.0740694294161
 30
0.0
 10
554.9684636594615
 20
-67.0427271061693
 30
0.0
 10
556.0806790071038
 20
-67.1240625925573
 30
0.0
 10
557.1303454782989
 20
-67.29074283589756
 30
0.0
 10
558.1752842444957
 20
-67.53521769838083
 30
0.0
 10
558.8643726811825
 20
-67.75356838379822
 30
0.0
 10
559.2089454248887
 20
-67.8627527653069
 30
0.0
  0
SPLINE
  5
33B
330
1F
100
AcDbEntity
  8
0
  6
Continuous
 62
     7
370
    15
100
AcDbSpline
210
0.0
220
0.0
230
1.0
 70
     8
 71
     3
 72
    16
 73
    12
 74
     0
 42
0.00000001
 43
0.00000001
 12
1.0
 22
0.0
 32
0.0
 13
1.0
 23
0.0
 33
0.0
 40
0.0
 40
0.0
 40
0.0
 40
0.0
 40
0.2500000000000068
 40
0.2500000000000068
 40
0.5000000000000135
 40
0.5000000000000135
 40
0.6250000000000101
 40
0.6250000000000101
 40
0.7500000000000068
 40
0.7500000000000068
 40
1.0
 40
1.0
 40
1.0
 40
1.0
 10
541.2089630678634
 20
-67.86274714254506
 30
0.0
 10
541.9437276116106
 20
-67.61782562796265
 30
0.0
 10
542.6838492130267
 20
-67.41596590792618
 30
0.0
 10
544.1795282310869
 20
-67.13632463632909
 30
0.0
 10
544.9352004000357
 20
-67.05946550160074
 30
0.0
 10
546.0829460072918
 20
-67.05862134043156
 30
0.0
 10
546.4673280187394
 20
-67.07741042710161
 30
0.0
 10
547.2276761859122
 20
-67.15067791918253
 30
0.0
 10
547.6053011045843
 20
-67.20508197084585
 30
0.0
 10
548.7314527648795
 20
-67.41516102919792
 30
0.0
 10
549.4732826073233
 20
-67.61752032236531
 30
0.0
 10
550.2089630678635
 20
-67.86274714254529
 30
0.0
  0
LINE
  5
33C
330
1F
100
AcDbEntity
  8
0
  6
Continuous
 62
     7
370
    15
100
AcDbLine
 10
541.9589737967
 20
-66.6258818804
 30
0.0
 11
558.4589401797
 21
-66.6258818804
 31
0.0
  0
LINE
  5
33D
330
1F
100
AcDbEntity
  8
0
  6
Continuous
 62
     7
370
    15
100
AcDbLine
 10
550.2089718894
 20
-67.8627527653
 30
0.0
 11
550.2089718894
 21
-75.789023131
 31
0.0
  0
SPLINE
  5
33E
330
1F
100
AcDbEntity
  8
0
  6
Continuous
 62
     7
370
    15
100
AcDbSpline
210
0.0
220
0.0
230
1.0
 70
     8
 71
     3
 72
    16
 73
    12
 74
     0
 42
0.00000001
 43
0.00000001
 12
1.0
 22
0.0
 32
0.0
 13
1.0
 23
0.0
 33
0.0
 40
0.0
 40
0.0
 40
0.0
 40
0.0
 40
0.2500000000000068
 40
0.2500000000000068
 40
0.5000000000000135
 40
0.5000000000000135
 40
0.6250000000000101
 40
0.6250000000000101
 40
0.7500000000000068
 40
0.7500000000000068
 40
1.0
 40
1.0
 40
1.0
 40
1.0
 10
550.2089630678634
 20
-75.78902658417472
 30
0.0
 10
549.4741985241162
 20
-76.03394809875708
 30
0.0
 10
548.7340769227
 20
-76.23580781879357
 30
0.0
 10
547.2383979046397
 20
-76.51544909039073
 30
0.0
 10
546.482725735691
 20
-76.592308225119
 30
0.0
 10
545.3349801284352
 20
-76.59315238628817
 30
0.0
 10
544.9505981169875
 20
-76.57436329961803
 30
0.0
 10
544.1902499498145
 20
-76.50109580753723
 30
0.0
 10
543.8126250311427
 20
-76.4466917558739
 30
0.0
 10
542.6864733708472
 20
-76.23661269752182
 30
0.0
 10
541.9446435284032
 20
-76.03425340435452
 30
0.0
 10
541.2089630678634
 20
-75.7890265841745
 30
0.0
  0
LINE
  5
33F
330
1F
100
AcDbEntity
  8
0
  6
Continuous
 62
     7
370
    15
100
AcDbLine
 10
541.2089685515
 20
-67.8627527653
 30
0.0
 11
541.2089685515
 21
-75.789023131
 31
0.0
  0
LINE
  5
340
330
1F
100
AcDbEntity
  8
0
  6
Continuous
 62
     7
370
    15
100
AcDbLine
 10
559.2089454249
 20
-67.8627527653
 30
0.0
 11
559.2089454249
 21
-75.789023131
 31
0.0
  0
SPLINE
  5
341
330
1F
100
AcDbEntity
  8
0
  6
Continuous
 62
     7
370
    15
100
AcDbSpline
210
0.0
220
0.0
230
1.0
 70
     8
 71
     3
 72
    15
 73
    11
 74
     0
 42
0.00000001
 43
0.00000001
 12
1.0
 22
0.0
 32
0.0
 13
1.0
 23
0.0
 33
0.0
 40
0.0
 40
0.0
 40
0.0
 40
0.0
 40
0.1323061434687505
 40
0.2645750717055955
 40
0.3997994825017945
 40
0.5350030096811443
 40
0.6501912056011412
 40
0.7654019235864683
 40
0.8826912396046188
 40
1.0
 40
1.0
 40
1.0
 40
1.0
 10
559.2089454248886
 20
-75.78902313102195
 30
0.0
 10
558.8201088616394
 20
-75.91139637828664
 30
0.0
 10
558.0425451075589
 20
-76.15610845152118
 30
0.0
 10
556.8451600932766
 20
-76.41937277217534
 30
0.0
 10
555.6252371762872
 20
-76.57770982937029
 30
0.0
 10
554.449481100047
 20
-76.60904855758338
 30
0.0
 10
553.3372639428161
 20
-76.52771149582954
 30
0.0
 10
552.2875762248214
 20
-76.3610358340118
 30
0.0
 10
551.2426336922857
 20
-76.11655789896102
 30
0.0
 10
550.55354486176
 20
-75.89820741957325
 30
0.0
 10
550.2089718893509
 20
-75.78902313102195
 30
0.0
  0
SPLINE
  5
342
330
1F
100
AcDbEntity
  8
0
  6
Continuous
 62
     7
370
    15
100
AcDbSpline
210
0.0
220
0.0
230
1.0
 70
    24
 71
     3
 72
    11
 73
     7
 74
     0
 42
0.00000001
 43
0.00000001
 12
1.0
 22
0.0
 32
0.0
 13
1.0
 23
0.0
 33
0.0
 40
0.0
 40
0.0
 40
0.0
 40
0.0
 40
0.0201953211289525
 40
0.2756639111421182
 40
0.6360651439407129
 40
0.9999999999999999
 40
0.9999999999999999
 40
0.9999999999999999
 40
0.9999999999999999
 10
559.2089454248886
 20
-76.588172405848
 30
0.0
 10
559.2089454248886
 20
-76.5895434773662
 30
0.0
 10
559.2089454248891
 20
-76.60825845271872
 30
0.0
 10
559.2089454248882
 20
-76.52310497922544
 30
0.0
 10
559.2089454248887
 20
-76.28555123850514
 30
0.0
 10
559.2089454248886
 20
-75.9550699102457
 30
0.0
 10
559.2089454248886
 20
-75.78902313102195
 30
0.0
  0
SPLINE
  5
343
330
1F
100
AcDbEntity
  8
0
  6
Continuous
 62
     7
370
    15
100
AcDbSpline
210
0.0
220
0.0
230
1.0
 70
    24
 71
     3
 72
    11
 73
     7
 74
     0
 42
0.00000001
 43
0.00000001
 12
1.0
 22
0.0
 32
0.0
 13
1.0
 23
0.0
 33
0.0
 40
0.0
 40
0.0
 40
0.0
 40
0.0
 40
0.3606723902692929
 40
0.7243284646391005
 40
0.9733770250149549
 40
1.0
 40
1.0
 40
1.0
 40
1.0
 10
541.2089685514908
 20
-75.78902313102195
 30
0.0
 10
541.2089685514908
 20
-75.95361450567958
 30
0.0
 10
541.2089685514907
 20
-76.28415884706816
 30
0.0
 10
541.2089685514907
 20
-76.5217950815171
 30
0.0
 10
541.2089685514907
 20
-76.60641017846167
 30
0.0
 10
541.2089685514908
 20
-76.58888173811081
 30
0.0
 10
541.2089685514908
 20
-76.58718892920918
 30
0.0
  0
SPLINE
  5
344
330
1F
100
AcDbEntity
  8
0
  6
Continuous
 62
     7
370
    15
100
AcDbSpline
210
0.0
220
0.0
230
1.0
 70
    24
 71
     3
 72
    11
 73
     7
 74
     0
 42
0.00000001
 43
0.00000001
 12
1.0
 22
0.0
 32
0.0
 13
1.0
 23
0.0
 33
0.0
 40
0.0
 40
0.0
 40
0.0
 40
0.0
 40
0.2663452949506276
 40
0.5156024271238601
 40
0.7647977923378179
 40
0.9999999999999999
 40
0.9999999999999999
 40
0.9999999999999999
 40
0.9999999999999999
 10
-434.7910424157639
 20
-67.86275276530692
 30
0.0
 10
-434.7910424157639
 20
-67.73935034545559
 30
0.0
 10
-434.7910424157639
 20
-67.50046274956209
 30
0.0
 10
-434.791042415764
 20
-67.24967266679874
 30
0.0
 10
-434.7910424157638
 20
-67.0866700786987
 30
0.0
 10
-434.791042415764
 20
-67.07114283751625
 30
0.0
 10
-434.7910424157639
 20
-67.06360349048087
 30
0.0
  0
SPLINE
  5
345
330
1F
100
AcDbEntity
  8
0
  6
Continuous
 62
     7
370
    15
100
AcDbSpline
210
0.0
220
0.0
230
1.0
 70
     8
 71
     3
 72
    16
 73
    12
 74
     0
 42
0.00000001
 43
0.00000001
 12
1.0
 22
0.0
 32
0.0
 13
1.0
 23
0.0
 33
0.0
 40
0.0
 40
0.0
 40
0.0
 40
0.0
 40
0.2499999999999932
 40
0.2499999999999932
 40
0.4999999999999865
 40
0.4999999999999865
 40
0.6249999999999898
 40
0.6249999999999898
 40
0.7499999999999932
 40
0.7499999999999932
 40
1.0
 40
1.0
 40
1.0
 40
1.0
 10
-443.7910369321365
 20
-67.86274714254509
 30
0.0
 10
-443.0562723883895
 20
-67.61782562796262
 30
0.0
 10
-442.3161507869731
 20
-67.41596590792615
 30
0.0
 10
-440.8204717689128
 20
-67.13632463632909
 30
0.0
 10
-440.0647995999642
 20
-67.0594655016008
 30
0.0
 10
-438.9170539927082
 20
-67.05862134043161
 30
0.0
 10
-438.5326719812606
 20
-67.07741042710164
 30
0.0
 10
-437.7723238140877
 20
-67.15067791918247
 30
0.0
 10
-437.3946988954157
 20
-67.20508197084588
 30
0.0
 10
-436.2685472351205
 20
-67.41516102919792
 30
0.0
 10
-435.5267173926765
 20
-67.61752032236524
 30
0.0
 10
-434.7910369321364
 20
-67.86274714254526
 30
0.0
  0
SPLINE
  5
346
330
1F
100
AcDbEntity
  8
0
  6
Continuous
 62
     7
370
    15
100
AcDbSpline
210
0.0
220
0.0
230
1.0
 70
     8
 71
     3
 72
    15
 73
    11
 74
     0
 42
0.00000001
 43
0.00000001
 12
1.0
 22
0.0
 32
0.0
 13
1.0
 23
0.0
 33
0.0
 40
0.0
 40
0.0
 40
0.0
 40
0.0
 40
0.1323061434687505
 40
0.2645750717055955
 40
0.3997994825017945
 40
0.5350030096811443
 40
0.6501912056011412
 40
0.7654019235864683
 40
0.8826912396046188
 40
1.0
 40
1.0
 40
1.0
 40
1.0
 10
-452.7910192891617
 20
-67.86275276530692
 30
0.0
 10
-452.4021827259124
 20
-67.7403795180422
 30
0.0
 10
-451.6246189718319
 20
-67.4956674448077
 30
0.0
 10
-450.4272339575496
 20
-67.23240312415355
 30
0.0
 10
-449.2073110405602
 20
-67.07406606695857
 30
0.0
 10
-448.03155496432
 20
-67.0427273387456
 30
0.0
 10
-446.9193378070892
 20
-67.12406440049925
 30
0.0
 10
-445.8696500890944
 20
-67.29074006231708
 30
0.0
 10
-444.8247075565588
 20
-67.53521799736784
 30
0.0
 10
-444.135618726033
 20
-67.75356847675562
 30
0.0
 10
-443.791045753624
 20
-67.86275276530692
 30
0.0
  0
SPLINE
  5
347
330
1F
100
AcDbEntity
  8
0
  6
Continuous
 62
     7
370
    15
100
AcDbSpline
210
0.0
220
0.0
230
1.0
 70
    24
 71
     3
 72
    11
 73
     7
 74
     0
 42
0.00000001
 43
0.00000001
 12
1.0
 22
0.0
 32
0.0
 13
1.0
 23
0.0
 33
0.0
 40
0.0
 40
0.0
 40
0.0
 40
0.0
 40
0.2223611642039907
 40
0.4779727696918462
 40
0.7336525977343564
 40
1.0
 40
1.0
 40
1.0
 40
1.0
 10
-452.7910192891617
 20
-67.06458696711967
 30
0.0
 10
-452.7910192891617
 20
-67.07076226235436
 30
0.0
 10
-452.7910192891616
 20
-67.08403626628204
 30
0.0
 10
-452.7910192891613
 20
-67.24377722969957
 30
0.0
 10
-452.7910192891621
 20
-67.4974939778367
 30
0.0
 10
-452.7910192891617
 20
-67.73935238536346
 30
0.0
 10
-452.7910192891617
 20
-67.86275276530692
 30
0.0
  0
LINE
  5
348
330
1F
100
AcDbEntity
  8
0
  6
Continuous
 62
     7
370
    15
100
AcDbLine
 10
-452.041014044
 20
-66.6258818804
 30
0.0
 11
-435.541047661
 21
-66.6258818804
 31
0.0
  0
LINE
  5
349
330
1F
100
AcDbEntity
  8
0
  6
Continuous
 62
     7
370
    15
100
AcDbLine
 10
-443.7910457536
 20
-67.8627527653
 30
0.0
 11
-443.7910457536
 21
-75.789023131
 31
0.0
  0
SPLINE
  5
34A
330
1F
100
AcDbEntity
  8
0
  6
Continuous
 62
     7
370
    15
100
AcDbSpline
210
0.0
220
0.0
230
1.0
 70
     8
 71
     3
 72
    15
 73
    11
 74
     0
 42
0.00000001
 43
0.00000001
 12
1.0
 22
0.0
 32
0.0
 13
1.0
 23
0.0
 33
0.0
 40
0.0
 40
0.0
 40
0.0
 40
0.0
 40
0.1323061386748736
 40
0.2645726155290154
 40
0.3998019070107767
 40
0.535005429291268
 40
0.6501936210376262
 40
0.7654019104584864
 40
0.8826912438550922
 40
1.0
 40
1.0
 40
1.0
 40
1.0
 10
-443.791045753624
 20
-75.78902313102195
 30
0.0
 10
-444.1798836410006
 20
-75.91139576650028
 30
0.0
 10
-444.9574428526174
 20
-76.15610435343307
 30
0.0
 10
-446.1548149617838
 20
-76.41938050696753
 30
0.0
 10
-447.3747756159789
 20
-76.5777064669127
 30
0.0
 10
-448.5505375237345
 20
-76.60904879015965
 30
0.0
 10
-449.6627528713768
 20
-76.52771330377153
 30
0.0
 10
-450.7124193425719
 20
-76.36103306043141
 30
0.0
 10
-451.7573581087687
 20
-76.11655819794802
 30
0.0
 10
-452.4464465454555
 20
-75.89820751253059
 30
0.0
 10
-452.7910192891618
 20
-75.78902313102192
 30
0.0
  0
LINE
  5
34B
330
1F
100
AcDbEntity
  8
0
  6
Continuous
 62
     7
370
    15
100
AcDbLine
 10
-452.7910192892
 20
-67.8627527653
 30
0.0
 11
-452.7910192892
 21
-75.789023131
 31
0.0
  0
LINE
  5
34C
330
1F
100
AcDbEntity
  8
0
  6
Continuous
 62
     7
370
    15
100
AcDbLine
 10
-434.7910424158
 20
-67.8627527653
 30
0.0
 11
-434.7910424158
 21
-75.789023131
 31
0.0
  0
SPLINE
  5
34D
330
1F
100
AcDbEntity
  8
0
  6
Continuous
 62
     7
370
    15
100
AcDbSpline
210
0.0
220
0.0
230
1.0
 70
     8
 71
     3
 72
    16
 73
    12
 74
     0
 42
0.00000001
 43
0.00000001
 12
1.0
 22
0.0
 32
0.0
 13
1.0
 23
0.0
 33
0.0
 40
0.0
 40
0.0
 40
0.0
 40
0.0
 40
0.2499999999999929
 40
0.2499999999999929
 40
0.4999999999999858
 40
0.4999999999999858
 40
0.6249999999999893
 40
0.6249999999999893
 40
0.7499999999999929
 40
0.7499999999999929
 40
1.0
 40
1.0
 40
1.0
 40
1.0
 10
-434.7910369321364
 20
-75.78902658417469
 30
0.0
 10
-435.5258014758838
 20
-76.03394809875714
 30
0.0
 10
-436.2659230772998
 20
-76.2358078187936
 30
0.0
 10
-437.76160209536
 20
-76.51544909039067
 30
0.0
 10
-438.5172742643088
 20
-76.592308225119
 30
0.0
 10
-439.6650198715649
 20
-76.59315238628817
 30
0.0
 10
-440.0494018830124
 20
-76.57436329961806
 30
0.0
 10
-440.8097500501854
 20
-76.50109580753723
 30
0.0
 10
-441.1873749688573
 20
-76.4466917558739
 30
0.0
 10
-442.3135266291527
 20
-76.23661269752179
 30
0.0
 10
-443.0553564715966
 20
-76.03425340435446
 30
0.0
 10
-443.7910369321365
 20
-75.7890265841745
 30
0.0
  0
SPLINE
  5
34E
330
1F
100
AcDbEntity
  8
0
  6
Continuous
 62
     7
370
    15
100
AcDbSpline
210
0.0
220
0.0
230
1.0
 70
    24
 71
     3
 72
    11
 73
     7
 74
     0
 42
0.00000001
 43
0.00000001
 12
1.0
 22
0.0
 32
0.0
 13
1.0
 23
0.0
 33
0.0
 40
0.0
 40
0.0
 40
0.0
 40
0.0
 40
0.2663452949506276
 40
0.5156024271238601
 40
0.7647977923378179
 40
0.9999999999999999
 40
0.9999999999999999
 40
0.9999999999999999
 40
0.9999999999999999
 10
-452.7910192891617
 20
-75.78902313102195
 30
0.0
 10
-452.7910192891617
 20
-75.9124255508733
 30
0.0
 10
-452.7910192891617
 20
-76.15131314676682
 30
0.0
 10
-452.791019289162
 20
-76.40210322952997
 30
0.0
 10
-452.7910192891617
 20
-76.56510581763021
 30
0.0
 10
-452.7910192891618
 20
-76.58063305881261
 30
0.0
 10
-452.7910192891617
 20
-76.588172405848
 30
0.0
  0
SPLINE
  5
34F
330
1F
100
AcDbEntity
  8
0
  6
Continuous
 62
     7
370
    15
100
AcDbSpline
210
0.0
220
0.0
230
1.0
 70
    24
 71
     3
 72
    11
 73
     7
 74
     0
 42
0.00000001
 43
0.00000001
 12
1.0
 22
0.0
 32
0.0
 13
1.0
 23
0.0
 33
0.0
 40
0.0
 40
0.0
 40
0.0
 40
0.0
 40
0.2223611642039907
 40
0.4779727696918462
 40
0.7336525977343564
 40
1.0
 40
1.0
 40
1.0
 40
1.0
 10
-434.7910424157639
 20
-76.5871889292092
 30
0.0
 10
-434.7910424157639
 20
-76.58101363397446
 30
0.0
 10
-434.7910424157638
 20
-76.56773963004682
 30
0.0
 10
-434.7910424157635
 20
-76.40799866662945
 30
0.0
 10
-434.7910424157641
 20
-76.15428191849202
 30
0.0
 10
-434.791042415764
 20
-75.91242351096538
 30
0.0
 10
-434.7910424157639
 20
-75.78902313102195
 30
0.0
  0
LINE
  5
350
330
1F
100
AcDbEntity
  8
0
  6
Continuous
 62
     7
370
    15
100
AcDbLine
 10
544.20895973
 20
-31.5258837639
 30
0.0
 11
556.2089840487
 21
-31.5258837639
 31
0.0
  0
LINE
  5
351
330
1F
100
AcDbEntity
  8
0
  6
Continuous
 62
     7
370
    15
100
AcDbLine
 10
-449.791057913
 20
-31.5258837639
 30
0.0
 11
-437.7910335943
 21
-31.5258837639
 31
0.0
  0
LINE
  5
352
330
1F
100
AcDbEntity
  8
0
  6
Continuous
 62
     7
370
     0
100
AcDbLine
 10
-457.7910145208
 20
-82.7768928706
 30
0.0
 11
564.2089406565
 21
-82.7768928706
 31
0.0
  0
LINE
  5
353
330
1F
100
AcDbEntity
  8
0
  6
Continuous
 62
     7
370
     0
100
AcDbLine
 10
-455.0524791166
 20
-85.7654772102
 30
0.0
 11
561.4704052523
 21
-85.7654772102
 31
0.0
  0
LINE
  5
354
330
1F
100
AcDbEntity
  8
0
  6
Continuous
 62
     7
370
     0
100
AcDbLine
 10
-250.6654699728
 20
-87.1877483426
 30
0.0
 11
-63.3839433476
 21
-87.1877483426
 31
0.0
  0
LINE
  5
355
330
1F
100
AcDbEntity
  8
0
  6
Continuous
 62
     7
370
     0
100
AcDbLine
 10
-388.6271556303
 20
-87.1877483426
 30
0.0
 11
-262.6654644891
 21
-87.1877483426
 31
0.0
  0
LINE
  5
356
330
1F
100
AcDbEntity
  8
0
  6
Continuous
 62
     7
370
     0
100
AcDbLine
 10
-438.7847324296
 20
-87.1877483426
 30
0.0
 11
-400.572552292
 21
-87.1877483426
 31
0.0
  0
LINE
  5
357
330
1F
100
AcDbEntity
  8
0
  6
Continuous
 62
     7
370
     0
100
AcDbLine
 10
506.9904784277
 20
-87.1877483426
 30
0.0
 11
545.2026585654
 21
-87.1877483426
 31
0.0
  0
LINE
  5
358
330
1F
100
AcDbEntity
  8
0
  6
Continuous
 62
     7
370
     0
100
AcDbLine
 10
369.0833906249
 20
-87.1877483426
 30
0.0
 11
495.045081766
 21
-87.1877483426
 31
0.0
  0
LINE
  5
359
330
1F
100
AcDbEntity
  8
0
  6
Continuous
 62
     7
370
     0
100
AcDbLine
 10
169.8018694833
 20
-87.1877483426
 30
0.0
 11
357.0833961085
 21
-87.1877483426
 31
0.0
  0
LINE
  5
35A
330
1F
100
AcDbEntity
  8
0
  6
Continuous
 62
     7
370
     0
100
AcDbLine
 10
-51.3839413806
 20
-87.1877483426
 30
0.0
 11
157.8018675164
 21
-87.1877483426
 31
0.0
  0
LINE
  5
35B
330
1F
100
AcDbEntity
  8
0
  6
Continuous
 62
     7
370
     0
100
AcDbLine
 10
-434.2384775564
 20
-91.9070429503
 30
0.0
 11
-400.572552292
 21
-91.9070429503
 31
0.0
  0
LINE
  5
35C
330
1F
100
AcDbEntity
  8
0
  6
Continuous
 62
     7
370
     0
100
AcDbLine
 10
-388.5725577756
 20
-91.9070429503
 30
0.0
 11
-262.6654644891
 21
-91.9070429503
 31
0.0
  0
LINE
  5
35D
330
1F
100
AcDbEntity
  8
0
  6
Continuous
 62
     7
370
     0
100
AcDbLine
 10
-250.6654699728
 20
-91.9070429503
 30
0.0
 11
-63.3839433476
 21
-91.9070429503
 31
0.0
  0
LINE
  5
35E
330
1F
100
AcDbEntity
  8
0
  6
Continuous
 62
     7
370
     0
100
AcDbLine
 10
-51.3839413806
 20
-91.9070429503
 30
0.0
 11
157.8018675164
 21
-91.9070429503
 31
0.0
  0
LINE
  5
35F
330
1F
100
AcDbEntity
  8
0
  6
Continuous
 62
     7
370
     0
100
AcDbLine
 10
169.8018694833
 20
-91.9070429503
 30
0.0
 11
357.0833961085
 21
-91.9070429503
 31
0.0
  0
LINE
  5
360
330
1F
100
AcDbEntity
  8
0
  6
Continuous
 62
     7
370
     0
100
AcDbLine
 10
369.0833906249
 20
-91.9070429503
 30
0.0
 11
494.9904839114
 21
-91.9070429503
 31
0.0
  0
LINE
  5
361
330
1F
100
AcDbEntity
  8
0
  6
Continuous
 62
     7
370
     0
100
AcDbLine
 10
506.9904784277
 20
-91.9070429503
 30
0.0
 11
540.6564036921
 21
-91.9070429503
 31
0.0
  0
LINE
  5
362
330
1F
100
AcDbEntity
  8
0
  6
Continuous
 62
     7
370
     0
100
AcDbLine
 10
-432.9151948377
 20
-117.1567253171
 30
0.0
 11
-400.572552292
 21
-117.1567253171
 31
0.0
  0
LINE
  5
363
330
1F
100
AcDbEntity
  8
0
  6
Continuous
 62
     7
370
     0
100
AcDbLine
 10
-388.5725577756
 20
-117.1567253171
 30
0.0
 11
-262.6654644891
 21
-117.1567253171
 31
0.0
  0
LINE
  5
364
330
1F
100
AcDbEntity
  8
0
  6
Continuous
 62
     7
370
     0
100
AcDbLine
 10
-250.6654699728
 20
-117.1567253171
 30
0.0
 11
-63.3839433476
 21
-117.1567253171
 31
0.0
  0
LINE
  5
365
330
1F
100
AcDbEntity
  8
0
  6
Continuous
 62
     7
370
     0
100
AcDbLine
 10
-51.3839413806
 20
-117.1567253171
 30
0.0
 11
157.8018675164
 21
-117.1567253171
 31
0.0
  0
LINE
  5
366
330
1F
100
AcDbEntity
  8
0
  6
Continuous
 62
     7
370
     0
100
AcDbLine
 10
169.8018694833
 20
-117.1567253171
 30
0.0
 11
357.0833961085
 21
-117.1567253171
 31
0.0
  0
LINE
  5
367
330
1F
100
AcDbEntity
  8
0
  6
Continuous
 62
     7
370
     0
100
AcDbLine
 10
369.0833906249
 20
-117.1567253171
 30
0.0
 11
494.9904839114
 21
-117.1567253171
 31
0.0
  0
LINE
  5
368
330
1F
100
AcDbEntity
  8
0
  6
Continuous
 62
     7
370
     0
100
AcDbLine
 10
506.9904784277
 20
-117.1567253171
 30
0.0
 11
539.3331209734
 21
-117.1567253171
 31
0.0
  0
LINE
  5
369
330
1F
100
AcDbEntity
  8
FORMAT
  6
CENTERX2
370
     0
100
AcDbLine
 10
53.2089630679
 20
-23.4186274063
 30
0.0
 11
53.2089630679
 21
-211.5258868634
 31
0.0
  0
ENDSEC
  0
SECTION
  2
OBJECTS
  0
DICTIONARY
  5
C
330
0
100
AcDbDictionary
281
     1
  3
ACAD_GROUP
350
D
  3
ACAD_LAYOUT
350
1A
  3
ACAD_MLINESTYLE
350
17
  3
ACAD_PLOTSETTINGS
350
19
  3
ACAD_PLOTSTYLENAME
350
E
  0
DICTIONARY
  5
D
102
{ACAD_REACTORS
330
C
102
}
330
C
100
AcDbDictionary
281
     1
  0
DICTIONARY
  5
1A
102
{ACAD_REACTORS
330
C
102
}
330
C
100
AcDbDictionary
281
     1
  3
Layout1
350
1E
  3
Layout2
350
26
  3
Model
350
22
  0
DICTIONARY
  5
17
102
{ACAD_REACTORS
330
C
102
}
330
C
100
AcDbDictionary
281
     1
  3
Standard
350
18
  0
DICTIONARY
  5
19
102
{ACAD_REACTORS
330
C
102
}
330
C
100
AcDbDictionary
281
     1
  0
ACDBDICTIONARYWDFLT
  5
E
102
{ACAD_REACTORS
330
C
102
}
330
C
100
AcDbDictionary
281
     1
  3
Normal
350
F
100
AcDbDictionaryWithDefault
340
F
  0
LAYOUT
  5
1E
102
{ACAD_REACTORS
330
1A
102
}
330
1A
100
AcDbPlotSettings
  1

  2
none_device
  4

  6

 40
0.0
 41
0.0
 42
0.0
 43
0.0
 44
0.0
 45
0.0
 46
0.0
 47
0.0
 48
0.0
 49
0.0
140
0.0
141
0.0
142
1.0
143
1.0
 70
   688
 72
     0
 73
     0
 74
     5
  7

 75
    16
147
1.0
148
0.0
149
0.0
100
AcDbLayout
  1
Layout1
 70
     1
 71
     1
 10
0.0
 20
0.0
 11
420.0
 21
297.0
 12
0.0
 22
0.0
 32
0.0
 14
1.0000000000E+20
 24
1.0000000000E+20
 34
1.0000000000E+20
 15
-1.0000000000E+20
 25
-1.0000000000E+20
 35
-1.0000000000E+20
146
0.0
 13
0.0
 23
0.0
 33
0.0
 16
1.0
 26
0.0
 36
0.0
 17
0.0
 27
1.0
 37
0.0
 76
     0
330
1B
  0
LAYOUT
  5
26
102
{ACAD_REACTORS
330
1A
102
}
330
1A
100
AcDbPlotSettings
  1

  2
none_device
  4

  6

 40
0.0
 41
0.0
 42
0.0
 43
0.0
 44
0.0
 45
0.0
 46
0.0
 47
0.0
 48
0.0
 49
0.0
140
0.0
141
0.0
142
1.0
143
1.0
 70
   688
 72
     0
 73
     0
 74
     5
  7

 75
    16
147
1.0
148
0.0
149
0.0
100
AcDbLayout
  1
Layout2
 70
     1
 71
     2
 10
0.0
 20
0.0
 11
0.0
 21
0.0
 12
0.0
 22
0.0
 32
0.0
 14
0.0
 24
0.0
 34
0.0
 15
0.0
 25
0.0
 35
0.0
146
0.0
 13
0.0
 23
0.0
 33
0.0
 16
1.0
 26
0.0
 36
0.0
 17
0.0
 27
1.0
 37
0.0
 76
     0
330
23
  0
LAYOUT
  5
22
102
{ACAD_REACTORS
330
1A
102
}
330
1A
100
AcDbPlotSettings
  1

  2
none_device
  4

  6

 40
0.0
 41
0.0
 42
0.0
 43
0.0
 44
0.0
 45
0.0
 46
0.0
 47
0.0
 48
0.0
 49
0.0
140
0.0
141
0.0
142
1.0
143
1.0
 70
  1712
 72
     0
 73
     0
 74
     0
  7

 75
     0
147
1.0
148
0.0
149
0.0
100
AcDbLayout
  1
Model
 70
     1
 71
     0
 10
0.0
 20
0.0
 11
841.0
 21
594.0
 12
0.0
 22
0.0
 32
0.0
 14
0.0
 24
0.0
 34
0.0
 15
841.0
 25
594.0
 35
0.0
146
0.0
 13
0.0
 23
0.0
 33
0.0
 16
1.0
 26
0.0
 36
0.0
 17
0.0
 27
1.0
 37
0.0
 76
     0
330
1F
331
29
  0
MLINESTYLE
  5
18
102
{ACAD_REACTORS
330
17
102
}
330
17
100
AcDbMlineStyle
  2
Standard
 70
     0
  3

 62
   256
 51
90.0
 52
90.0
 71
     2
 49
0.5
 62
   256
  6
BYLAYER
 49
-0.5
 62
   256
  6
BYLAYER
  0
ACDBPLACEHOLDER
  5
F
102
{ACAD_REACTORS
330
E
102
}
330
E
  0
ENDSEC
  0
EOF
