  0
SECTION
  2
HEADER
  9
$ACADVER
  1
AC1009
  9
$DWGCODEPAGE
  3
ansi_1252
  9
$INSBASE
 10
0.0
 20
0.0
 30
0.0
  9
$EXTMIN
 10
0.0
 20
0.0
 30
0.0
  9
$EXTMAX
 10
841.0
 20
594.0
 30
0.0
  9
$LIMMIN
 10
0.0
 20
0.0
  9
$LIMMAX
 10
841.0
 20
594.0
  9
$ORTHOMODE
 70
     0
  9
$REGENMODE
 70
     1
  9
$FILLMODE
 70
     1
  9
$QTEXTMODE
 70
     0
  9
$MIRRTEXT
 70
     1
  9
$DRAGMODE
 70
     2
  9
$LTSCALE
 40
1.0
  9
$OSMODE
 70
    37
  9
$ATTMODE
 70
     1
  9
$TEXTSIZE
 40
2.5
  9
$TRACEWID
 40
1.0
  9
$TEXTSTYLE
  7
STANDARD
  9
$CLAYER
  8
0
  9
$CELTYPE
  6
BYLAYER
  9
$CECOLOR
 62
   256
  9
$DIMSCALE
 40
1.0
  9
$DIMASZ
 40
2.5
  9
$DIMEXO
 40
1.0
  9
$DIMDLI
 40
3.75
  9
$DIMRND
 40
0.0
  9
$DIMDLE
 40
0.0
  9
$DIMEXE
 40
1.0
  9
$DIMTP
 40
0.0
  9
$DIMTM
 40
0.0
  9
$DIMTXT
 40
2.5
  9
$DIMCEN
 40
2.5
  9
$DIMTSZ
 40
0.0
  9
$DIMTOL
 70
     0
  9
$DIMLIM
 70
     0
  9
$DIMTIH
 70
     1
  9
$DIMTOH
 70
     1
  9
$DIMSE1
 70
     0
  9
$DIMSE2
 70
     0
  9
$DIMTAD
 70
     1
  9
$DIMZIN
 70
     0
  9
$DIMBLK
  1

  9
$DIMASO
 70
     1
  9
$DIMSHO
 70
     1
  9
$DIMPOST
  1

  9
$DIMAPOST
  1

  9
$DIMALT
 70
     0
  9
$DIMALTD
 70
     3
  9
$DIMALTF
 40
0.0393700787
  9
$DIMLFAC
 40
1.0
  9
$DIMTOFL
 70
     1
  9
$DIMTVP
 40
0.0
  9
$DIMTIX
 70
     0
  9
$DIMSOXD
 70
     0
  9
$DIMSAH
 70
     0
  9
$DIMBLK1
  1

  9
$DIMBLK2
  1

  9
$DIMSTYLE
  2
ISO-25
  9
$DIMCLRD
 70
     0
  9
$DIMCLRE
 70
     0
  9
$DIMCLRT
 70
     0
  9
$DIMTFAC
 40
1.0
  9
$DIMGAP
 40
1.524
  9
$LUNITS
 70
     2
  9
$LUPREC
 70
     2
  9
$SKETCHINC
 40
1.0
  9
$FILLETRAD
 40
10.0
  9
$AUNITS
 70
     0
  9
$AUPREC
 70
     2
  9
$MENU
  1
.
  9
$ELEVATION
 40
0.0
  9
$PELEVATION
 40
0.0
  9
$THICKNESS
 40
0.0
  9
$LIMCHECK
 70
     0
  9
$CHAMFERA
 40
10.0
  9
$CHAMFERB
 40
10.0
  9
$SKPOLY
 70
     0
  9
$TDCREATE
 40
2458095.488372153
  9
$TDUPDATE
 40
2458095.488373241
  9
$TDINDWG
 40
0.0000000116
  9
$TDUSRTIMER
 40
0.0000000116
  9
$USRTIMER
 70
     1
  9
$ANGBASE
 50
0.0
  9
$ANGDIR
 70
     0
  9
$PDMODE
 70
     0
  9
$PDSIZE
 40
-1.0
  9
$PLINEWID
 40
0.0
  9
$COORDS
 70
     1
  9
$SPLFRAME
 70
     0
  9
$SPLINETYPE
 70
     6
  9
$SPLINESEGS
 70
     8
  9
$ATTDIA
 70
     0
  9
$ATTREQ
 70
     1
  9
$HANDLING
 70
     1
  9
$HANDSEED
  5
79E
  9
$SURFTAB1
 70
     6
  9
$SURFTAB2
 70
     6
  9
$SURFTYPE
 70
     6
  9
$SURFU
 70
     6
  9
$SURFV
 70
     6
  9
$UCSNAME
  2

  9
$UCSORG
 10
0.0
 20
0.0
 30
0.0
  9
$UCSXDIR
 10
1.0
 20
0.0
 30
0.0
  9
$UCSYDIR
 10
0.0
 20
1.0
 30
0.0
  9
$PUCSNAME
  2

  9
$PUCSORG
 10
0.0
 20
0.0
 30
0.0
  9
$PUCSXDIR
 10
1.0
 20
0.0
 30
0.0
  9
$PUCSYDIR
 10
0.0
 20
1.0
 30
0.0
  9
$USERI1
 70
     0
  9
$USERI2
 70
     0
  9
$USERI3
 70
     0
  9
$USERI4
 70
     0
  9
$USERI5
 70
     0
  9
$USERR1
 40
0.0
  9
$USERR2
 40
0.0
  9
$USERR3
 40
0.0
  9
$USERR4
 40
0.0
  9
$USERR5
 40
0.0
  9
$WORLDVIEW
 70
     1
  9
$SHADEDGE
 70
     3
  9
$SHADEDIF
 70
    70
  9
$TILEMODE
 70
     1
  9
$MAXACTVP
 70
    64
  9
$PLIMCHECK
 70
     0
  9
$PEXTMIN
 10
1.0000000000E+20
 20
1.0000000000E+20
 30
1.0000000000E+20
  9
$PEXTMAX
 10
-1.0000000000E+20
 20
-1.0000000000E+20
 30
-1.0000000000E+20
  9
$PLIMMIN
 10
0.0
 20
0.0
  9
$PLIMMAX
 10
420.0
 20
297.0
  9
$UNITMODE
 70
     0
  9
$VISRETAIN
 70
     1
  9
$PLINEGEN
 70
     0
  9
$PSLTSCALE
 70
     1
  0
ENDSEC
  0
SECTION
  2
TABLES
  0
TABLE
  2
VPORT
 70
     1
  0
VPORT
  2
*ACTIVE
 70
     0
 10
0.0
 20
0.0
 11
1.0
 21
1.0
 12
420.5
 22
297.0
 13
0.0
 23
0.0
 14
10.0
 24
10.0
 15
10.0
 25
10.0
 16
0.0
 26
0.0
 36
1.0
 17
0.0
 27
0.0
 37
0.0
 40
594.0
 41
1.4158249158
 42
50.0
 43
0.0
 44
0.0
 50
0.0
 51
0.0
 71
     0
 72
  2000
 73
     1
 74
     3
 75
     0
 76
     0
 77
     0
 78
     0
  0
ENDTAB
  0
TABLE
  2
LTYPE
 70
     6
  0
LTYPE
  2
CONTINUOUS
 70
     0
  3
Solid line
 72
    65
 73
     0
 40
0.0
  0
LTYPE
  2
HIDDEN
 70
     0
  3
Hidden __ __ __ __ __ __ __ __ __ __ __ __ __ __
 72
    65
 73
     2
 40
1.905
 49
1.27
 49
-0.635
  0
LTYPE
  2
PHANTOM
 70
     0
  3
Phantom ______  __  __  ______  __  __  ______
 72
    65
 73
     6
 40
12.7
 49
6.35
 49
-1.27
 49
1.27
 49
-1.27
 49
1.27
 49
-1.27
  0
LTYPE
  2
CENTER
 70
     0
  3
Center ____ _ ____ _ ____ _ ____ _ ____ _ ____
 72
    65
 73
     4
 40
10.16
 49
6.35
 49
-1.27
 49
1.27
 49
-1.27
  0
LTYPE
  2
CENTERX2
 70
     0
  3
Center (2x) ________  __  ________  __  _____
 72
    65
 73
     4
 40
20.32
 49
12.7
 49
-2.54
 49
2.54
 49
-2.54
  0
LTYPE
  2
DOT2
 70
     0
  3
Dot (.5x) ........................................
 72
    65
 73
     2
 40
0.635
 49
0.0
 49
-0.635
  0
ENDTAB
  0
TABLE
  2
LAYER
 70
     3
  0
LAYER
  2
0
 70
     0
 62
     7
  6
CONTINUOUS
  0
LAYER
  2
FORMAT
 70
     0
 62
     7
  6
CONTINUOUS
  0
LAYER
  2
PROTOTYPE
 70
     0
 62
     7
  6
CONTINUOUS
  0
ENDTAB
  0
TABLE
  2
STYLE
 70
     1
  0
STYLE
  2
STANDARD
 70
     0
 40
0.0
 41
1.0
 50
0.0
 71
     0
 42
2.5
  3
txt
  4

  0
ENDTAB
  0
TABLE
  2
VIEW
 70
     0
  0
ENDTAB
  0
TABLE
  2
UCS
 70
     0
  0
ENDTAB
  0
TABLE
  2
APPID
 70
     1
  0
APPID
  2
ACAD
 70
     0
  0
ENDTAB
  0
TABLE
  2
DIMSTYLE
 70
     1
  0
DIMSTYLE
  2
ISO-25
 70
     0
  3

  4

  5

  6

  7

 40
1.0
 41
2.5
 42
0.625
 43
3.75
 44
1.25
 45
0.0
 46
0.0
 47
0.0
 48
0.0
140
2.5
141
2.5
142
0.0
143
0.0393700787
144
1.0
145
0.0
146
1.0
147
0.625
 71
     0
 72
     0
 73
     0
 74
     0
 75
     0
 76
     0
 77
     1
 78
     8
170
     0
171
     3
172
     1
173
     0
174
     0
175
     0
176
     0
177
     0
178
     0
  0
ENDTAB
  0
ENDSEC
  0
SECTION
  2
BLOCKS
  0
BLOCK
  8
0
  2
$MODEL_SPACE
 70
     0
 10
0.0
 20
0.0
 30
0.0
  3
$MODEL_SPACE
  1

  0
ENDBLK
  5
21
  8
0
  0
BLOCK
 67
     1
  8
0
  2
$PAPER_SPACE
 70
     0
 10
0.0
 20
0.0
 30
0.0
  3
$PAPER_SPACE
  1

  0
ENDBLK
  5
1D
 67
     1
  8
0
  0
BLOCK
  8
0
  2
SW_CENTERMARKSYMBOL_0
 70
     0
 10
0.0
 20
0.0
 30
0.0
  3
SW_CENTERMARKSYMBOL_0
  1

  0
ARC
  5
268
  8
FORMAT
 62
     0
 10
38.8908729653
 20
-38.8908729653
 30
0.0
 40
55.00000000000001
 50
135.0
 51
137.6043536142
  0
ARC
  5
269
  8
FORMAT
 62
     0
 10
38.8908729653
 20
-38.8908729653
 30
0.0
 40
55.00000000000004
 50
132.3956463858
 51
135.0
  0
ARC
  5
26A
  8
FORMAT
 62
     0
 10
38.8908729653
 20
-38.8908729653
 30
0.0
 40
55.0
 50
225.0
 51
227.6043536142
  0
ARC
  5
26B
  8
FORMAT
 62
     0
 10
38.8908729653
 20
-38.8908729653
 30
0.0
 40
55.00000000000001
 50
222.3956463858
 51
225.0
  0
ARC
  5
26C
  8
FORMAT
 62
     0
 10
38.8908729653
 20
-38.8908729653
 30
0.0
 40
55.0
 50
315.0
 51
317.6043536142
  0
ARC
  5
26D
  8
FORMAT
 62
     0
 10
38.8908729653
 20
-38.8908729653
 30
0.0
 40
55.00000000000004
 50
312.3956463858
 51
315.0
  0
ARC
  5
26E
  8
FORMAT
 62
     0
 10
38.8908729653
 20
-38.8908729653
 30
0.0
 40
55.00000000000004
 50
45.0
 51
47.6043536142
  0
ARC
  5
26F
  8
FORMAT
 62
     0
 10
38.8908729653
 20
-38.8908729653
 30
0.0
 40
55.0
 50
42.3956463858
 51
45.0
  0
ARC
  5
270
  8
FORMAT
 62
     0
 10
38.8908729653
 20
-38.8908729653
 30
0.0
 40
55.00000000000001
 50
140.2087072285
 51
219.7912927715
  0
ARC
  5
271
  8
FORMAT
 62
     0
 10
38.8908729653
 20
-38.8908729653
 30
0.0
 40
55.00000000000006
 50
230.2087072285
 51
309.7912927715
  0
ARC
  5
272
  8
FORMAT
 62
     0
 10
38.8908729653
 20
-38.8908729653
 30
0.0
 40
55.00000000000001
 50
50.2087072285
 51
129.7912927715
  0
ARC
  5
273
  8
FORMAT
 62
     0
 10
38.8908729653
 20
-38.8908729653
 30
0.0
 40
55.00000000000001
 50
320.2087072285
 51
39.7912927715
  0
LINE
  5
274
  8
FORMAT
 62
     0
 10
0.0
 20
0.0
 30
0.0
 11
-1.767766953
 21
1.767766953
 31
0.0
  0
LINE
  5
275
  8
FORMAT
 62
     0
 10
0.0
 20
0.0
 30
0.0
 11
1.767766953
 21
-1.767766953
 31
0.0
  0
LINE
  5
276
  8
FORMAT
 62
     0
 10
-3.5355339059
 20
3.5355339059
 30
0.0
 11
-8.4852813742
 21
8.4852813742
 31
0.0
  0
LINE
  5
277
  8
FORMAT
 62
     0
 10
3.5355339059
 20
-3.5355339059
 30
0.0
 11
8.4852813742
 21
-8.4852813742
 31
0.0
  0
LINE
  5
278
  8
FORMAT
 62
     0
 10
0.0
 20
-77.7817459305
 30
0.0
 11
-1.767766953
 21
-79.5495128835
 31
0.0
  0
LINE
  5
279
  8
FORMAT
 62
     0
 10
0.0
 20
-77.7817459305
 30
0.0
 11
1.767766953
 21
-76.0139789776
 31
0.0
  0
LINE
  5
27A
  8
FORMAT
 62
     0
 10
-3.5355339059
 20
-81.3172798365
 30
0.0
 11
-8.4852813742
 21
-86.2670273048
 31
0.0
  0
LINE
  5
27B
  8
FORMAT
 62
     0
 10
3.5355339059
 20
-74.2462120246
 30
0.0
 11
8.4852813742
 21
-69.2964645563
 31
0.0
  0
LINE
  5
27C
  8
FORMAT
 62
     0
 10
77.7817459305
 20
-77.7817459305
 30
0.0
 11
79.5495128835
 21
-79.5495128835
 31
0.0
  0
LINE
  5
27D
  8
FORMAT
 62
     0
 10
77.7817459305
 20
-77.7817459305
 30
0.0
 11
76.0139789776
 21
-76.0139789776
 31
0.0
  0
LINE
  5
27E
  8
FORMAT
 62
     0
 10
81.3172798365
 20
-81.3172798365
 30
0.0
 11
86.2670273048
 21
-86.2670273048
 31
0.0
  0
LINE
  5
27F
  8
FORMAT
 62
     0
 10
74.2462120246
 20
-74.2462120246
 30
0.0
 11
69.2964645563
 21
-69.2964645563
 31
0.0
  0
LINE
  5
280
  8
FORMAT
 62
     0
 10
38.8908729653
 20
-38.8908729653
 30
0.0
 11
38.8908729653
 21
-36.3908729653
 31
0.0
  0
LINE
  5
281
  8
FORMAT
 62
     0
 10
38.8908729653
 20
-38.8908729653
 30
0.0
 11
36.3908729653
 21
-38.8908729653
 31
0.0
  0
LINE
  5
282
  8
FORMAT
 62
     0
 10
38.8908729653
 20
-38.8908729653
 30
0.0
 11
38.8908729653
 21
-41.3908729653
 31
0.0
  0
LINE
  5
283
  8
FORMAT
 62
     0
 10
38.8908729653
 20
-38.8908729653
 30
0.0
 11
41.3908729653
 21
-38.8908729653
 31
0.0
  0
LINE
  5
284
  8
FORMAT
 62
     0
 10
38.8908729653
 20
-33.8908729653
 30
0.0
 11
38.8908729653
 21
159.4543710228
 31
0.0
  0
LINE
  5
285
  8
FORMAT
 62
     0
 10
33.8908729653
 20
-38.8908729653
 30
0.0
 11
-38.9420110845
 21
-38.8908729653
 31
0.0
  0
LINE
  5
286
  8
FORMAT
 62
     0
 10
38.8908729653
 20
-43.8908729653
 30
0.0
 11
38.8908729653
 21
-118.9649515835
 31
0.0
  0
LINE
  5
287
  8
FORMAT
 62
     0
 10
43.8908729653
 20
-38.8908729653
 30
0.0
 11
116.3582701184
 21
-38.8908729653
 31
0.0
  0
LINE
  5
288
  8
FORMAT
 62
     0
 10
77.7817459305
 20
0.0
 30
0.0
 11
79.5495128835
 21
1.767766953
 31
0.0
  0
LINE
  5
289
  8
FORMAT
 62
     0
 10
77.7817459305
 20
0.0
 30
0.0
 11
76.0139789776
 21
-1.767766953
 31
0.0
  0
LINE
  5
28A
  8
FORMAT
 62
     0
 10
81.3172798365
 20
3.5355339059
 30
0.0
 11
86.2670273048
 21
8.4852813742
 31
0.0
  0
LINE
  5
28B
  8
FORMAT
 62
     0
 10
74.2462120246
 20
-3.5355339059
 30
0.0
 11
69.2964645563
 21
-8.4852813742
 31
0.0
  0
ENDBLK
  5
267
  8
0
  0
ENDSEC
  0
SECTION
  2
ENTITIES
  0
ARC
  5
46
  8
0
  6
CONTINUOUS
 62
     7
 10
167.8900673746
 20
300.0870203429
 30
0.0
 40
3.0
 50
180.0
 51
270.0
  0
ARC
  5
47
  8
0
  6
CONTINUOUS
 62
     7
 10
167.8900673746
 20
444.0870203429
 30
0.0
 40
3.0
 50
90.0
 51
180.0
  0
ARC
  5
48
  8
0
  6
CONTINUOUS
 62
     7
 10
295.8900673746
 20
444.0870203429
 30
0.0
 40
3.0
 50
0.0
 51
90.0
  0
ARC
  5
49
  8
0
  6
CONTINUOUS
 62
     7
 10
295.8900673746
 20
300.0870203429
 30
0.0
 40
3.0
 50
270.0
 51
0.0
  0
ARC
  5
4A
  8
0
  6
CONTINUOUS
 62
     7
 10
174.8900673746
 20
444.0870203429
 30
0.0
 40
3.0
 50
0.0
 51
90.0
  0
ARC
  5
4B
  8
0
  6
CONTINUOUS
 62
     7
 10
288.8900673746
 20
444.0870203429
 30
0.0
 40
3.0
 50
90.0
 51
180.0
  0
LINE
  5
4C
  8
0
  6
CONTINUOUS
 62
     7
 10
174.8900673448
 20
447.0870233231
 30
0.0
 11
167.8900643347
 21
447.0870233231
 31
0.0
  0
LINE
  5
4D
  8
0
  6
CONTINUOUS
 62
     7
 10
295.8900704144
 20
447.0870233231
 30
0.0
 11
288.8900674044
 21
447.0870233231
 31
0.0
  0
LINE
  5
4E
  8
0
  6
CONTINUOUS
 62
     7
 10
167.8900643347
 20
297.0870173626
 30
0.0
 11
173.8900690435
 21
297.0870173626
 31
0.0
  0
LINE
  5
4F
  8
0
  6
CONTINUOUS
 62
     7
 10
289.8900657056
 20
297.0870173626
 30
0.0
 11
295.8900704144
 21
297.0870173626
 31
0.0
  0
LINE
  5
50
  8
0
  6
CONTINUOUS
 62
     7
 10
267.4752510248
 20
460.3295958691
 30
0.0
 11
266.8900675236
 21
477.0870170646
 31
0.0
  0
LINE
  5
51
  8
0
  6
CONTINUOUS
 62
     7
 10
196.8900672256
 20
477.0870170646
 30
0.0
 11
196.3048837243
 21
460.3295958691
 31
0.0
  0
LINE
  5
52
  8
0
  6
CONTINUOUS
 62
     7
 10
277.7569218634
 20
452.0870185547
 30
0.0
 11
277.3900664507
 21
459.0870178395
 31
0.0
  0
LINE
  5
53
  8
0
  6
CONTINUOUS
 62
     7
 10
186.3900682985
 20
459.0870178395
 30
0.0
 11
186.0232128857
 21
452.0870185547
 31
0.0
  0
LINE
  5
54
  8
0
  6
CONTINUOUS
 62
     7
 10
196.3424942552
 20
461.406584745
 30
0.0
 11
186.3900682985
 21
459.6517047935
 31
0.0
  0
LINE
  5
55
  8
0
  6
CONTINUOUS
 62
     7
 10
277.3900664507
 20
459.6517047935
 30
0.0
 11
267.437640494
 21
461.406584745
 31
0.0
  0
LINE
  5
56
  8
0
  6
CONTINUOUS
 62
     7
 10
186.3900682985
 20
459.6517047935
 30
0.0
 11
186.3900682985
 21
459.0870178395
 31
0.0
  0
LINE
  5
57
  8
0
  6
CONTINUOUS
 62
     7
 10
277.3900664507
 20
459.0870178395
 30
0.0
 11
277.3900664507
 21
459.6517047935
 31
0.0
  0
LINE
  5
58
  8
0
  6
CONTINUOUS
 62
     7
 10
186.8206112741
 20
452.0870185547
 30
0.0
 11
187.2173323392
 21
444.5170647555
 31
0.0
  0
LINE
  5
59
  8
0
  6
CONTINUOUS
 62
     7
 10
276.56280241
 20
444.5170647555
 30
0.0
 11
276.959523475
 21
452.0870185547
 31
0.0
  0
LINE
  5
5A
  8
0
  6
CONTINUOUS
 62
     7
 10
187.2173323392
 20
444.5170647555
 30
0.0
 11
195.889372295
 21
442.9879522973
 31
0.0
  0
LINE
  5
5B
  8
0
  6
CONTINUOUS
 62
     7
 10
267.8907624541
 20
442.9879522973
 30
0.0
 11
276.56280241
 21
444.5170647555
 31
0.0
  0
LINE
  5
5C
  8
0
  6
CONTINUOUS
 62
     7
 10
298.8900690435
 20
327.587019568
 30
0.0
 11
301.8900676726
 21
330.5870219224
 31
0.0
  0
LINE
  5
5D
  8
0
  6
CONTINUOUS
 62
     7
 10
301.8900676726
 20
413.5870187634
 30
0.0
 11
298.8900690435
 21
416.5870211177
 31
0.0
  0
LINE
  5
5E
  8
0
  6
CONTINUOUS
 62
     7
 10
164.8900657056
 20
416.5870211177
 30
0.0
 11
161.8900670766
 21
413.5870187634
 31
0.0
  0
LINE
  5
5F
  8
0
  6
CONTINUOUS
 62
     7
 10
161.8900670766
 20
330.5870219224
 30
0.0
 11
164.8900657056
 21
327.587019568
 31
0.0
  0
ARC
  5
60
  8
0
  6
CONTINUOUS
 62
     7
 10
183.8900673746
 20
335.141002028
 30
0.0
 40
6.000000000000028
 50
171.5289677063
 51
180.0
  0
ARC
  5
61
  8
0
  6
CONTINUOUS
 62
     7
 10
183.8900673746
 20
409.0330386578
 30
0.0
 40
6.000000000000028
 50
180.0
 51
188.470906913
  0
ARC
  5
62
  8
0
  6
CONTINUOUS
 62
     7
 10
279.8900673746
 20
409.0330386578
 30
0.0
 40
6.000000000000022
 50
351.5289677063
 51
0.0
  0
ARC
  5
63
  8
0
  6
CONTINUOUS
 62
     7
 10
279.8900673746
 20
335.141002028
 30
0.0
 40
6.000000000000036
 50
0.0
 51
8.470906913
  0
LINE
  5
64
  8
0
  6
CONTINUOUS
 62
     7
 10
200.8900678812
 20
484.7870207482
 30
0.0
 11
200.8900678812
 21
483.7870187216
 31
0.0
  0
LINE
  5
65
  8
0
  6
CONTINUOUS
 62
     7
 10
262.8900668679
 20
483.7870187216
 30
0.0
 11
262.8900668679
 21
484.7870207482
 31
0.0
  0
LINE
  5
66
  8
0
  6
CONTINUOUS
 62
     7
 10
266.032699412
 20
483.7870187216
 30
0.0
 11
262.8900668679
 21
483.7870187216
 31
0.0
  0
LINE
  5
67
  8
0
  6
CONTINUOUS
 62
     7
 10
200.8900678812
 20
483.7870187216
 30
0.0
 11
197.7474353372
 21
483.7870187216
 31
0.0
  0
LINE
  5
68
  8
0
  6
CONTINUOUS
 62
     7
 10
266.2670499741
 20
477.0870170646
 30
0.0
 11
266.0330793916
 21
483.7870187216
 31
0.0
  0
LINE
  5
69
  8
0
  6
CONTINUOUS
 62
     7
 10
197.7470553576
 20
483.7870187216
 30
0.0
 11
197.5130847751
 21
477.0870170646
 31
0.0
  0
ARC
  5
6A
  8
0
  6
CONTINUOUS
 62
     7
 10
203.66000703
 20
488.7870203429
 30
0.0
 40
4.0
 50
270.0
 51
356.0
  0
ARC
  5
6B
  8
0
  6
CONTINUOUS
 62
     7
 10
260.1201277191
 20
488.7870203429
 30
0.0
 40
4.0
 50
184.0
 51
270.0
  0
LINE
  5
6C
  8
0
  6
CONTINUOUS
 62
     7
 10
210.4416395633
 20
528.4265316182
 30
0.0
 11
207.6502627789
 21
488.5079971605
 31
0.0
  0
LINE
  5
6D
  8
0
  6
CONTINUOUS
 62
     7
 10
256.1298719703
 20
488.5079971605
 30
0.0
 11
253.3384951858
 21
528.4265316182
 31
0.0
  0
ARC
  5
6E
  8
0
  6
CONTINUOUS
 62
     7
 10
251.3433672589
 20
528.2870203429
 30
0.0
 40
2.0
 50
4.0
 51
90.0
  0
ARC
  5
6F
  8
0
  6
CONTINUOUS
 62
     7
 10
212.4367674903
 20
528.2870203429
 30
0.0
 40
2.000000000000009
 50
90.0
 51
176.0
  0
LINE
  5
70
  8
0
  6
CONTINUOUS
 62
     7
 10
222.890067762
 20
535.8571744614
 30
0.0
 11
222.890067762
 21
530.287016099
 31
0.0
  0
LINE
  5
71
  8
0
  6
CONTINUOUS
 62
     7
 10
240.8900669871
 20
530.287016099
 30
0.0
 11
240.8900669871
 21
535.8571744614
 31
0.0
  0
LINE
  5
72
  8
0
  6
CONTINUOUS
 62
     7
 10
177.4881444036
 20
372.0870203429
 30
0.0
 11
165.2919947265
 21
372.0870203429
 31
0.0
  0
ARC
  5
73
  8
0
  6
CONTINUOUS
 62
     7
 10
167.8789496656
 20
370.5768377421
 30
0.0
 40
2.995494507467074
 50
89.7874056877
 51
149.7249667036
  0
LINE
  5
74
  8
0
  6
CONTINUOUS
 62
     7
 10
167.8900643347
 20
373.5723116293
 30
0.0
 11
174.8900673448
 21
373.5723116293
 31
0.0
  0
ARC
  5
75
  8
0
  6
CONTINUOUS
 62
     7
 10
174.9045218807
 20
370.5826668728
 30
0.0
 40
2.989679699143245
 50
30.2107538622
 51
90.2770153378
  0
LINE
  5
76
  8
0
  6
CONTINUOUS
 62
     7
 10
164.8900657056
 20
300.0870234423
 30
0.0
 11
164.8900657056
 21
444.0870172434
 31
0.0
  0
ARC
  5
77
  8
0
  6
CONTINUOUS
 62
     7
 10
167.8756080445
 20
373.5913577843
 30
0.0
 40
2.989663679114629
 50
210.2105771654
 51
270.2770504434
  0
LINE
  5
78
  8
0
  6
CONTINUOUS
 62
     7
 10
298.8900690435
 20
300.0870234423
 30
0.0
 11
298.8900690435
 21
444.0870172434
 31
0.0
  0
ARC
  5
79
  8
0
  6
CONTINUOUS
 62
     7
 10
295.9045267047
 20
373.5913577843
 30
0.0
 40
2.989663679114629
 50
269.7229495566
 51
329.7894228346
  0
ARC
  5
7A
  8
0
  6
CONTINUOUS
 62
     7
 10
295.9011850836
 20
370.5768377421
 30
0.0
 40
2.995494507467147
 50
30.2750332964
 51
90.2125943123
  0
LINE
  5
7B
  8
0
  6
CONTINUOUS
 62
     7
 10
295.8900704144
 20
373.5723116293
 30
0.0
 11
288.8900674044
 21
373.5723116293
 31
0.0
  0
LINE
  5
7C
  8
0
  6
CONTINUOUS
 62
     7
 10
286.2919903456
 20
372.0870203429
 30
0.0
 11
298.4881400226
 21
372.0870203429
 31
0.0
  0
ARC
  5
7D
  8
0
  6
CONTINUOUS
 62
     7
 10
288.8756128684
 20
370.5826668728
 30
0.0
 40
2.989679699143228
 50
89.7229846622
 51
149.7892461378
  0
LINE
  5
7E
  8
0
  6
CONTINUOUS
 62
     7
 10
177.8900659739
 20
315.4486491435
 30
0.0
 11
177.8900659739
 21
444.0870172434
 31
0.0
  0
ARC
  5
7F
  8
0
  6
CONTINUOUS
 62
     7
 10
174.9011827545
 20
373.597214625
 30
0.0
 40
2.995506191522716
 50
269.7873923516
 51
329.7248384484
  0
LINE
  5
80
  8
0
  6
CONTINUOUS
 62
     7
 10
174.8900673448
 20
370.6017290565
 30
0.0
 11
167.8900643347
 21
370.6017290565
 31
0.0
  0
LINE
  5
81
  8
0
  6
CONTINUOUS
 62
     7
 10
288.8900674044
 20
370.6017290565
 30
0.0
 11
295.8900704144
 21
370.6017290565
 31
0.0
  0
ARC
  5
82
  8
0
  6
CONTINUOUS
 62
     7
 10
288.8789519946
 20
373.597214625
 30
0.0
 40
2.995506191522717
 50
210.2751615516
 51
270.2126076484
  0
LINE
  5
83
  8
0
  6
CONTINUOUS
 62
     7
 10
285.8900687753
 20
315.4486491435
 30
0.0
 11
285.8900687753
 21
444.0870172434
 31
0.0
  0
ARC
  5
84
  8
0
  6
CONTINUOUS
 62
     7
 10
184.4950484254
 20
294.9724999578
 30
0.0
 40
20.99197072377198
 50
120.3441103068
 51
126.0410571633
  0
ARC
  5
85
  8
0
  6
CONTINUOUS
 62
     7
 10
174.0791300236
 20
309.4100248374
 30
0.0
 40
3.190310311053245
 50
127.3390189048
 51
178.39799278
  0
ARC
  5
86
  8
0
  6
CONTINUOUS
 62
     7
 10
289.7010047256
 20
309.4100248374
 30
0.0
 40
3.19031031105333
 50
1.60200722
 51
52.6609810952
  0
ARC
  5
87
  8
0
  6
CONTINUOUS
 62
     7
 10
279.2850863237
 20
294.9724999578
 30
0.0
 40
20.99197072377201
 50
53.9589428367
 51
59.6558896932
  0
LINE
  5
88
  8
0
  6
CONTINUOUS
 62
     7
 10
202.5297842084
 20
452.0870185547
 30
0.0
 11
261.2503505407
 21
452.0870185547
 31
0.0
  0
LINE
  5
89
  8
0
  6
CONTINUOUS
 62
     7
 10
202.6163916199
 20
459.0870178395
 30
0.0
 11
261.1637431292
 21
459.0870178395
 31
0.0
  0
LINE
  5
8A
  8
0
  6
CONTINUOUS
 62
     7
 10
261.1637431292
 20
459.6517047935
 30
0.0
 11
202.6163916199
 21
459.6517047935
 31
0.0
  0
POLYLINE
  5
8B
  8
0
  6
CONTINUOUS
 62
     7
 66
     1
 10
0.0
 20
0.0
 30
0.0
  0
VERTEX
  5
35F
  8
0
  6
CONTINUOUS
 62
     7
 10
220.7635705455
 20
461.9335941129
 30
0.0
  0
VERTEX
  5
360
  8
0
  6
CONTINUOUS
 62
     7
 10
220.5273917972
 20
461.8147499018
 30
0.0
  0
VERTEX
  5
361
  8
0
  6
CONTINUOUS
 62
     7
 10
220.2550106777
 20
461.6975299173
 30
0.0
  0
VERTEX
  5
362
  8
0
  6
CONTINUOUS
 62
     7
 10
219.9476099669
 20
461.5824557
 30
0.0
  0
VERTEX
  5
363
  8
0
  6
CONTINUOUS
 62
     7
 10
219.5230041726
 20
461.4445529037
 30
0.0
  0
VERTEX
  5
364
  8
0
  6
CONTINUOUS
 62
     7
 10
219.0466345383
 20
461.3103157931
 30
0.0
  0
VERTEX
  5
365
  8
0
  6
CONTINUOUS
 62
     7
 10
218.5219981803
 20
461.180563932
 30
0.0
  0
VERTEX
  5
366
  8
0
  6
CONTINUOUS
 62
     7
 10
217.9525922148
 20
461.0561019831
 30
0.0
  0
VERTEX
  5
367
  8
0
  6
CONTINUOUS
 62
     7
 10
217.3419146894
 20
460.9377495103
 30
0.0
  0
VERTEX
  5
368
  8
0
  6
CONTINUOUS
 62
     7
 10
216.6950124412
 20
460.8264080339
 30
0.0
  0
VERTEX
  5
369
  8
0
  6
CONTINUOUS
 62
     7
 10
216.0087450503
 20
460.7211983853
 30
0.0
  0
VERTEX
  5
36A
  8
0
  6
CONTINUOUS
 62
     7
 10
215.2880410759
 20
460.6227091604
 30
0.0
  0
VERTEX
  5
36B
  8
0
  6
CONTINUOUS
 62
     7
 10
214.5378290771
 20
460.5315587574
 30
0.0
  0
VERTEX
  5
36C
  8
0
  6
CONTINUOUS
 62
     7
 10
213.7630357503
 20
460.4483432227
 30
0.0
  0
VERTEX
  5
36D
  8
0
  6
CONTINUOUS
 62
     7
 10
212.9745799212
 20
460.3740832859
 30
0.0
  0
VERTEX
  5
36E
  8
0
  6
CONTINUOUS
 62
     7
 10
212.1639679282
 20
460.3076092058
 30
0.0
  0
VERTEX
  5
36F
  8
0
  6
CONTINUOUS
 62
     7
 10
211.3369069158
 20
460.2492860609
 30
0.0
  0
VERTEX
  5
370
  8
0
  6
CONTINUOUS
 62
     7
 10
210.4991021662
 20
460.1994640284
 30
0.0
  0
VERTEX
  5
371
  8
0
  6
CONTINUOUS
 62
     7
 10
209.6562589614
 20
460.1584858351
 30
0.0
  0
VERTEX
  5
372
  8
0
  6
CONTINUOUS
 62
     7
 10
208.8189683019
 20
460.1267687135
 30
0.0
  0
VERTEX
  5
373
  8
0
  6
CONTINUOUS
 62
     7
 10
207.978792405
 20
460.1037240677
 30
0.0
  0
VERTEX
  5
374
  8
0
  6
CONTINUOUS
 62
     7
 10
207.1414700805
 20
460.0894413047
 30
0.0
  0
VERTEX
  5
375
  8
0
  6
CONTINUOUS
 62
     7
 10
206.312740138
 20
460.0840023809
 30
0.0
  0
VERTEX
  5
376
  8
0
  6
CONTINUOUS
 62
     7
 10
205.4983395247
 20
460.087481802
 30
0.0
  0
VERTEX
  5
377
  8
0
  6
CONTINUOUS
 62
     7
 10
204.7407216488
 20
460.0990451031
 30
0.0
  0
VERTEX
  5
378
  8
0
  6
CONTINUOUS
 62
     7
 10
203.9990871309
 20
460.1185432725
 30
0.0
  0
VERTEX
  5
379
  8
0
  6
CONTINUOUS
 62
     7
 10
203.277992001
 20
460.145857101
 30
0.0
  0
SEQEND
  5
79D
  8
0
  6
CONTINUOUS
 62
     7
  0
POLYLINE
  5
8C
  8
0
  6
CONTINUOUS
 62
     7
 66
     1
 10
0.0
 20
0.0
 30
0.0
  0
VERTEX
  5
37A
  8
0
  6
CONTINUOUS
 62
     7
 10
243.0165642037
 20
461.9335941129
 30
0.0
  0
VERTEX
  5
37B
  8
0
  6
CONTINUOUS
 62
     7
 10
239.0602653942
 20
461.9911423975
 30
0.0
  0
VERTEX
  5
37C
  8
0
  6
CONTINUOUS
 62
     7
 10
235.1035286302
 20
462.0238802486
 30
0.0
  0
VERTEX
  5
37D
  8
0
  6
CONTINUOUS
 62
     7
 10
231.5186378874
 20
462.032008832
 30
0.0
  0
VERTEX
  5
37E
  8
0
  6
CONTINUOUS
 62
     7
 10
227.9337592519
 20
462.0196334177
 30
0.0
  0
VERTEX
  5
37F
  8
0
  6
CONTINUOUS
 62
     7
 10
224.3485431282
 20
461.9867912584
 30
0.0
  0
VERTEX
  5
380
  8
0
  6
CONTINUOUS
 62
     7
 10
220.7635705455
 20
461.9335941129
 30
0.0
  0
SEQEND
  5
79C
  8
0
  6
CONTINUOUS
 62
     7
  0
POLYLINE
  5
8D
  8
0
  6
CONTINUOUS
 62
     7
 66
     1
 10
0.0
 20
0.0
 30
0.0
  0
VERTEX
  5
381
  8
0
  6
CONTINUOUS
 62
     7
 10
243.0165642037
 20
461.9335941129
 30
0.0
  0
VERTEX
  5
382
  8
0
  6
CONTINUOUS
 62
     7
 10
243.252742952
 20
461.8147499018
 30
0.0
  0
VERTEX
  5
383
  8
0
  6
CONTINUOUS
 62
     7
 10
243.5251240714
 20
461.6975299173
 30
0.0
  0
VERTEX
  5
384
  8
0
  6
CONTINUOUS
 62
     7
 10
243.8325247823
 20
461.5824557
 30
0.0
  0
VERTEX
  5
385
  8
0
  6
CONTINUOUS
 62
     7
 10
244.2571305765
 20
461.4445529037
 30
0.0
  0
VERTEX
  5
386
  8
0
  6
CONTINUOUS
 62
     7
 10
244.7335002108
 20
461.3103157931
 30
0.0
  0
VERTEX
  5
387
  8
0
  6
CONTINUOUS
 62
     7
 10
245.2581365688
 20
461.180563932
 30
0.0
  0
VERTEX
  5
388
  8
0
  6
CONTINUOUS
 62
     7
 10
245.8275425343
 20
461.0561019831
 30
0.0
  0
VERTEX
  5
389
  8
0
  6
CONTINUOUS
 62
     7
 10
246.4382200597
 20
460.9377495103
 30
0.0
  0
VERTEX
  5
38A
  8
0
  6
CONTINUOUS
 62
     7
 10
247.085122308
 20
460.8264080339
 30
0.0
  0
VERTEX
  5
38B
  8
0
  6
CONTINUOUS
 62
     7
 10
247.7713896989
 20
460.7211983853
 30
0.0
  0
VERTEX
  5
38C
  8
0
  6
CONTINUOUS
 62
     7
 10
248.4920936732
 20
460.6227091604
 30
0.0
  0
VERTEX
  5
38D
  8
0
  6
CONTINUOUS
 62
     7
 10
249.242305672
 20
460.5315587574
 30
0.0
  0
VERTEX
  5
38E
  8
0
  6
CONTINUOUS
 62
     7
 10
250.0170989989
 20
460.4483432227
 30
0.0
  0
VERTEX
  5
38F
  8
0
  6
CONTINUOUS
 62
     7
 10
250.8055548279
 20
460.3740832859
 30
0.0
  0
VERTEX
  5
390
  8
0
  6
CONTINUOUS
 62
     7
 10
251.616166821
 20
460.3076092058
 30
0.0
  0
VERTEX
  5
391
  8
0
  6
CONTINUOUS
 62
     7
 10
252.4432278334
 20
460.2492860609
 30
0.0
  0
VERTEX
  5
392
  8
0
  6
CONTINUOUS
 62
     7
 10
253.281032583
 20
460.1994640284
 30
0.0
  0
VERTEX
  5
393
  8
0
  6
CONTINUOUS
 62
     7
 10
254.1238757877
 20
460.1584858351
 30
0.0
  0
VERTEX
  5
394
  8
0
  6
CONTINUOUS
 62
     7
 10
254.9611664473
 20
460.1267687135
 30
0.0
  0
VERTEX
  5
395
  8
0
  6
CONTINUOUS
 62
     7
 10
255.8013423442
 20
460.1037240677
 30
0.0
  0
VERTEX
  5
396
  8
0
  6
CONTINUOUS
 62
     7
 10
256.6386646687
 20
460.0894413047
 30
0.0
  0
VERTEX
  5
397
  8
0
  6
CONTINUOUS
 62
     7
 10
257.4673946111
 20
460.0840023809
 30
0.0
  0
VERTEX
  5
398
  8
0
  6
CONTINUOUS
 62
     7
 10
258.2817952244
 20
460.087481802
 30
0.0
  0
VERTEX
  5
399
  8
0
  6
CONTINUOUS
 62
     7
 10
259.0394131004
 20
460.0990451031
 30
0.0
  0
VERTEX
  5
39A
  8
0
  6
CONTINUOUS
 62
     7
 10
259.7810476183
 20
460.1185432725
 30
0.0
  0
VERTEX
  5
39B
  8
0
  6
CONTINUOUS
 62
     7
 10
260.5021427481
 20
460.145857101
 30
0.0
  0
SEQEND
  5
79B
  8
0
  6
CONTINUOUS
 62
     7
  0
LINE
  5
8E
  8
0
  6
CONTINUOUS
 62
     7
 10
260.0939775913
 20
444.5170647555
 30
0.0
 11
203.6861571579
 21
444.5170647555
 31
0.0
  0
ARC
  5
8F
  8
0
  6
CONTINUOUS
 62
     7
 10
206.9094879497
 20
389.0062900695
 30
0.0
 40
54.70423536360998
 50
87.9287316876
 51
92.2184723259
  0
ARC
  5
90
  8
0
  6
CONTINUOUS
 62
     7
 10
256.8706467994
 20
389.0062900695
 30
0.0
 40
54.70423536361044
 50
87.7815276741
 51
92.0712683124
  0
POLYLINE
  5
91
  8
0
  6
CONTINUOUS
 62
     7
 66
     1
 10
0.0
 20
0.0
 30
0.0
  0
VERTEX
  5
39C
  8
0
  6
CONTINUOUS
 62
     7
 10
208.8866400628
 20
443.6747840696
 30
0.0
  0
VERTEX
  5
39D
  8
0
  6
CONTINUOUS
 62
     7
 10
214.6350591539
 20
443.4993005448
 30
0.0
  0
VERTEX
  5
39E
  8
0
  6
CONTINUOUS
 62
     7
 10
220.3847681268
 20
443.3729610496
 30
0.0
  0
VERTEX
  5
39F
  8
0
  6
CONTINUOUS
 62
     7
 10
226.1370936504
 20
443.2967565113
 30
0.0
  0
VERTEX
  5
3A0
  8
0
  6
CONTINUOUS
 62
     7
 10
231.8898673746
 20
443.271268075
 30
0.0
  0
VERTEX
  5
3A1
  8
0
  6
CONTINUOUS
 62
     7
 10
237.640997777
 20
443.2967416101
 30
0.0
  0
VERTEX
  5
3A2
  8
0
  6
CONTINUOUS
 62
     7
 10
243.3916804476
 20
443.3728939944
 30
0.0
  0
VERTEX
  5
3A3
  8
0
  6
CONTINUOUS
 62
     7
 10
249.1432334392
 20
443.4992558413
 30
0.0
  0
VERTEX
  5
3A4
  8
0
  6
CONTINUOUS
 62
     7
 10
254.8934946864
 20
443.6747840696
 30
0.0
  0
SEQEND
  5
79A
  8
0
  6
CONTINUOUS
 62
     7
  0
LINE
  5
92
  8
0
  6
CONTINUOUS
 62
     7
 10
202.6163916199
 20
459.0870178395
 30
0.0
 11
193.9505784868
 21
459.0870178395
 31
0.0
  0
LINE
  5
93
  8
0
  6
CONTINUOUS
 62
     7
 10
202.5297842084
 20
452.0870185547
 30
0.0
 11
193.5990451931
 21
452.0870185547
 31
0.0
  0
LINE
  5
94
  8
0
  6
CONTINUOUS
 62
     7
 10
261.1637431292
 20
459.0870178395
 30
0.0
 11
269.8295562624
 21
459.0870178395
 31
0.0
  0
LINE
  5
95
  8
0
  6
CONTINUOUS
 62
     7
 10
261.2503505407
 20
452.0870185547
 30
0.0
 11
270.1810895561
 21
452.0870185547
 31
0.0
  0
LINE
  5
96
  8
0
  6
CONTINUOUS
 62
     7
 10
193.9505784868
 20
459.6517047935
 30
0.0
 11
202.6163916199
 21
459.6517047935
 31
0.0
  0
LINE
  5
97
  8
0
  6
CONTINUOUS
 62
     7
 10
269.8295562624
 20
459.6517047935
 30
0.0
 11
261.1637431292
 21
459.6517047935
 31
0.0
  0
ARC
  5
98
  8
0
  6
CONTINUOUS
 62
     7
 10
265.06405806
 20
377.1689328196
 30
0.0
 40
83.10223242803853
 50
88.9866095822
 51
93.1468462551
  0
ARC
  5
99
  8
0
  6
CONTINUOUS
 62
     7
 10
198.7160766892
 20
377.1689328196
 30
0.0
 40
83.10223242803853
 50
86.8531537449
 51
91.0133904178
  0
LINE
  5
9A
  8
0
  6
CONTINUOUS
 62
     7
 10
269.287437117
 20
444.5170647555
 30
0.0
 11
260.0939775913
 21
444.5170647555
 31
0.0
  0
LINE
  5
9B
  8
0
  6
CONTINUOUS
 62
     7
 10
194.4926976322
 20
444.5170647555
 30
0.0
 11
203.6861571579
 21
444.5170647555
 31
0.0
  0
ARC
  5
9C
  8
0
  6
CONTINUOUS
 62
     7
 10
199.5289703674
 20
547.2589920845
 30
0.0
 40
103.7230746447381
 50
270.165907503
 51
272.9084419128
  0
ARC
  5
9D
  8
0
  6
CONTINUOUS
 62
     7
 10
264.2511643818
 20
547.2589920845
 30
0.0
 40
103.7230746447381
 50
267.0915580872
 51
269.834092497
  0
LINE
  5
9E
  8
0
  6
CONTINUOUS
 62
     7
 10
266.8900675236
 20
477.0870170646
 30
0.0
 11
243.3549267335
 21
477.0870170646
 31
0.0
  0
POLYLINE
  5
9F
  8
0
  6
CONTINUOUS
 62
     7
 66
     1
 10
0.0
 20
0.0
 30
0.0
  0
VERTEX
  5
3A5
  8
0
  6
CONTINUOUS
 62
     7
 10
266.5338105618
 20
460.2581671529
 30
0.0
  0
VERTEX
  5
3A6
  8
0
  6
CONTINUOUS
 62
     7
 10
266.8031937538
 20
460.2484813982
 30
0.0
  0
VERTEX
  5
3A7
  8
0
  6
CONTINUOUS
 62
     7
 10
267.0283614753
 20
460.2464548402
 30
0.0
  0
VERTEX
  5
3A8
  8
0
  6
CONTINUOUS
 62
     7
 10
267.21083737
 20
460.2522513919
 30
0.0
  0
VERTEX
  5
3A9
  8
0
  6
CONTINUOUS
 62
     7
 10
267.3460877596
 20
460.2659306579
 30
0.0
  0
VERTEX
  5
3AA
  8
0
  6
CONTINUOUS
 62
     7
 10
267.4295975922
 20
460.2859727197
 30
0.0
  0
VERTEX
  5
3AB
  8
0
  6
CONTINUOUS
 62
     7
 10
267.4706726431
 20
460.3129065686
 30
0.0
  0
VERTEX
  5
3AC
  8
0
  6
CONTINUOUS
 62
     7
 10
267.4699201344
 20
460.3294096046
 30
0.0
  0
SEQEND
  5
799
  8
0
  6
CONTINUOUS
 62
     7
  0
LINE
  5
A0
  8
0
  6
CONTINUOUS
 62
     7
 10
243.0314299746
 20
462.3369908982
 30
0.0
 11
243.0165642037
 21
461.9335941129
 31
0.0
  0
LINE
  5
A1
  8
0
  6
CONTINUOUS
 62
     7
 10
242.8791941239
 20
462.9148132258
 30
0.0
 11
243.0314299746
 21
462.3369908982
 31
0.0
  0
LINE
  5
A2
  8
0
  6
CONTINUOUS
 62
     7
 10
220.7487047746
 20
462.3369908982
 30
0.0
 11
220.7635705455
 21
461.9335941129
 31
0.0
  0
POLYLINE
  5
A3
  8
0
  6
CONTINUOUS
 62
     7
 66
     1
 10
0.0
 20
0.0
 30
0.0
  0
VERTEX
  5
3AD
  8
0
  6
CONTINUOUS
 62
     7
 10
197.2463241874
 20
460.2581671529
 30
0.0
  0
VERTEX
  5
3AE
  8
0
  6
CONTINUOUS
 62
     7
 10
196.9769409953
 20
460.2484813982
 30
0.0
  0
VERTEX
  5
3AF
  8
0
  6
CONTINUOUS
 62
     7
 10
196.7517732738
 20
460.2464548402
 30
0.0
  0
VERTEX
  5
3B0
  8
0
  6
CONTINUOUS
 62
     7
 10
196.5692973791
 20
460.2522513919
 30
0.0
  0
VERTEX
  5
3B1
  8
0
  6
CONTINUOUS
 62
     7
 10
196.4340469896
 20
460.2659306579
 30
0.0
  0
VERTEX
  5
3B2
  8
0
  6
CONTINUOUS
 62
     7
 10
196.3505371569
 20
460.2859727197
 30
0.0
  0
VERTEX
  5
3B3
  8
0
  6
CONTINUOUS
 62
     7
 10
196.3094621061
 20
460.3129065686
 30
0.0
  0
VERTEX
  5
3B4
  8
0
  6
CONTINUOUS
 62
     7
 10
196.3102146147
 20
460.3294096046
 30
0.0
  0
SEQEND
  5
798
  8
0
  6
CONTINUOUS
 62
     7
  0
LINE
  5
A4
  8
0
  6
CONTINUOUS
 62
     7
 10
196.8900672256
 20
477.0870170646
 30
0.0
 11
220.4252080156
 21
477.0870170646
 31
0.0
  0
LINE
  5
A5
  8
0
  6
CONTINUOUS
 62
     7
 10
220.9009406252
 20
462.9148132258
 30
0.0
 11
220.7487047746
 21
462.3369908982
 31
0.0
  0
LINE
  5
A6
  8
0
  6
CONTINUOUS
 62
     7
 10
227.0043528734
 20
442.1893171125
 30
0.0
 11
231.8900673746
 21
430.2057660275
 31
0.0
  0
LINE
  5
A7
  8
0
  6
CONTINUOUS
 62
     7
 10
231.8900673746
 20
430.2057660275
 30
0.0
 11
236.7757818757
 21
442.1893171125
 31
0.0
  0
LINE
  5
A8
  8
0
  6
CONTINUOUS
 62
     7
 10
236.7757818757
 20
442.1893171125
 30
0.0
 11
249.8900665997
 21
442.1893171125
 31
0.0
  0
LINE
  5
A9
  8
0
  6
CONTINUOUS
 62
     7
 10
249.8900665997
 20
442.1893171125
 30
0.0
 11
249.8900665997
 21
438.6370516472
 31
0.0
  0
LINE
  5
AA
  8
0
  6
CONTINUOUS
 62
     7
 10
249.8900665997
 20
438.6370516472
 30
0.0
 11
239.2144584193
 21
438.6370516472
 31
0.0
  0
LINE
  5
AB
  8
0
  6
CONTINUOUS
 62
     7
 10
239.2144584193
 20
438.6370516472
 30
0.0
 11
233.6831319009
 21
425.0699541622
 31
0.0
  0
LINE
  5
AC
  8
0
  6
CONTINUOUS
 62
     7
 10
233.6831319009
 20
425.0699541622
 30
0.0
 11
230.0970028483
 21
425.0699541622
 31
0.0
  0
LINE
  5
AD
  8
0
  6
CONTINUOUS
 62
     7
 10
230.0970028483
 20
425.0699541622
 30
0.0
 11
224.5656763299
 21
438.6370516472
 31
0.0
  0
LINE
  5
AE
  8
0
  6
CONTINUOUS
 62
     7
 10
224.5656763299
 20
438.6370516472
 30
0.0
 11
213.8900681494
 21
438.6370516472
 31
0.0
  0
LINE
  5
AF
  8
0
  6
CONTINUOUS
 62
     7
 10
213.8900681494
 20
438.6370516472
 30
0.0
 11
213.8900681494
 21
442.1893171125
 31
0.0
  0
LINE
  5
B0
  8
0
  6
CONTINUOUS
 62
     7
 10
213.8900681494
 20
442.1893171125
 30
0.0
 11
227.0043528734
 21
442.1893171125
 31
0.0
  0
LINE
  5
B1
  8
0
  6
CONTINUOUS
 62
     7
 10
217.2625874265
 20
433.8436312132
 30
0.0
 11
213.8900681494
 21
433.8436312132
 31
0.0
  0
LINE
  5
B2
  8
0
  6
CONTINUOUS
 62
     7
 10
213.8900681494
 20
437.2675008231
 30
0.0
 11
223.6433037652
 21
437.2675008231
 31
0.0
  0
LINE
  5
B3
  8
0
  6
CONTINUOUS
 62
     7
 10
223.6433037652
 20
437.2675008231
 30
0.0
 11
228.6162631682
 21
425.0699541622
 31
0.0
  0
LINE
  5
B4
  8
0
  6
CONTINUOUS
 62
     7
 10
228.6162631682
 20
425.0699541622
 30
0.0
 11
224.7755941099
 21
425.0699541622
 31
0.0
  0
LINE
  5
B5
  8
0
  6
CONTINUOUS
 62
     7
 10
224.7755941099
 20
425.0699541622
 30
0.0
 11
224.0078392534
 21
426.9530846828
 31
0.0
  0
LINE
  5
B6
  8
0
  6
CONTINUOUS
 62
     7
 10
224.0078392534
 20
426.9530846828
 30
0.0
 11
218.4241413234
 21
426.9530846828
 31
0.0
  0
LINE
  5
B7
  8
0
  6
CONTINUOUS
 62
     7
 10
218.4241413234
 20
426.9530846828
 30
0.0
 11
217.7002829595
 21
425.0699541622
 31
0.0
  0
LINE
  5
B8
  8
0
  6
CONTINUOUS
 62
     7
 10
217.7002829595
 20
425.0699541622
 30
0.0
 11
213.8900681494
 21
425.0699541622
 31
0.0
  0
LINE
  5
B9
  8
0
  6
CONTINUOUS
 62
     7
 10
213.8900681494
 20
425.0699541622
 30
0.0
 11
217.2625874265
 21
433.8436312132
 31
0.0
  0
LINE
  5
BA
  8
0
  6
CONTINUOUS
 62
     7
 10
220.9447984679
 20
434.4660303646
 30
0.0
 11
222.6817169322
 21
430.2057660275
 31
0.0
  0
LINE
  5
BB
  8
0
  6
CONTINUOUS
 62
     7
 10
219.3071915864
 20
430.2057660275
 30
0.0
 11
220.9447984679
 21
434.4660303646
 31
0.0
  0
LINE
  5
BC
  8
0
  6
CONTINUOUS
 62
     7
 10
222.6817169322
 20
430.2057660275
 30
0.0
 11
219.3071915864
 21
430.2057660275
 31
0.0
  0
LINE
  5
BD
  8
0
  6
CONTINUOUS
 62
     7
 10
213.8900681494
 20
433.8436312132
 30
0.0
 11
213.8900681494
 21
437.2675008231
 31
0.0
  0
LINE
  5
BE
  8
0
  6
CONTINUOUS
 62
     7
 10
249.8900665997
 20
437.2675008231
 30
0.0
 11
249.8900665997
 21
433.8436312132
 31
0.0
  0
LINE
  5
BF
  8
0
  6
CONTINUOUS
 62
     7
 10
249.8900665997
 20
433.8436312132
 30
0.0
 11
248.8614953219
 21
433.8436312132
 31
0.0
  0
ARC
  5
C0
  8
0
  6
CONTINUOUS
 62
     7
 10
243.8211197404
 20
435.775353173
 30
0.0
 40
5.397863997229223
 50
281.9580428817
 51
339.0306892666
  0
LINE
  5
C1
  8
0
  6
CONTINUOUS
 62
     7
 10
244.9395320474
 20
430.4946250372
 30
0.0
 11
249.0329238682
 21
425.0699541622
 31
0.0
  0
LINE
  5
C2
  8
0
  6
CONTINUOUS
 62
     7
 10
249.0329238682
 20
425.0699541622
 30
0.0
 11
244.5788988008
 21
425.0699541622
 31
0.0
  0
LINE
  5
C3
  8
0
  6
CONTINUOUS
 62
     7
 10
244.5788988008
 20
425.0699541622
 30
0.0
 11
240.959883584
 21
429.8659711235
 31
0.0
  0
LINE
  5
C4
  8
0
  6
CONTINUOUS
 62
     7
 10
240.959883584
 20
429.8659711235
 30
0.0
 11
239.0045406392
 21
425.0699541622
 31
0.0
  0
LINE
  5
C5
  8
0
  6
CONTINUOUS
 62
     7
 10
239.0045406392
 20
425.0699541622
 30
0.0
 11
235.163871581
 21
425.0699541622
 31
0.0
  0
LINE
  5
C6
  8
0
  6
CONTINUOUS
 62
     7
 10
243.9775000422
 20
437.2675008231
 30
0.0
 11
242.1639700516
 21
432.8193216675
 31
0.0
  0
ARC
  5
C7
  8
0
  6
CONTINUOUS
 62
     7
 10
242.0077047849
 20
437.2703712837
 30
0.0
 40
4.453791813674103
 50
272.0106863134
 51
359.9630729731
  0
LINE
  5
C8
  8
0
  6
CONTINUOUS
 62
     7
 10
246.4614956735
 20
437.2675008231
 30
0.0
 11
249.8900665997
 21
437.2675008231
 31
0.0
  0
LINE
  5
C9
  8
0
  6
CONTINUOUS
 62
     7
 10
235.163871581
 20
425.0699541622
 30
0.0
 11
240.1368309839
 21
437.2675008231
 31
0.0
  0
LINE
  5
CA
  8
0
  6
CONTINUOUS
 62
     7
 10
240.1368309839
 20
437.2675008231
 30
0.0
 11
243.9775000422
 21
437.2675008231
 31
0.0
  0
ARC
  5
CB
  8
0
  6
CONTINUOUS
 62
     7
 10
264.1018934809
 20
442.6283583668
 30
0.0
 40
0.9204758912224844
 50
68.490134958
 51
99.4463727987
  0
LINE
  5
CC
  8
0
  6
CONTINUOUS
 62
     7
 10
263.3707634269
 20
423.0870193892
 30
0.0
 11
254.8934946864
 21
423.0870193892
 31
0.0
  0
LINE
  5
CD
  8
0
  6
CONTINUOUS
 62
     7
 10
200.4093713223
 20
423.0870193892
 30
0.0
 11
208.8866400628
 21
423.0870193892
 31
0.0
  0
ARC
  5
CE
  8
0
  6
CONTINUOUS
 62
     7
 10
199.6782412683
 20
442.6283583668
 30
0.0
 40
0.9204758912224505
 50
80.5536272013
 51
111.509865042
  0
LINE
  5
CF
  8
0
  6
CONTINUOUS
 62
     7
 10
254.8934946864
 20
423.0870193892
 30
0.0
 11
208.8866400628
 21
423.0870193892
 31
0.0
  0
LINE
  5
D0
  8
0
  6
CONTINUOUS
 62
     7
 10
254.8934946864
 20
420.0004897171
 30
0.0
 11
254.8934946864
 21
423.0870193892
 31
0.0
  0
LINE
  5
D1
  8
0
  6
CONTINUOUS
 62
     7
 10
254.8934946864
 20
420.0004897171
 30
0.0
 11
263.3707634269
 21
423.0870193892
 31
0.0
  0
LINE
  5
D2
  8
0
  6
CONTINUOUS
 62
     7
 10
249.4309972136
 20
417.9595596247
 30
0.0
 11
254.8934946864
 21
420.0004897171
 31
0.0
  0
LINE
  5
D3
  8
0
  6
CONTINUOUS
 62
     7
 10
247.3900671213
 20
420.0004897171
 30
0.0
 11
249.4309972136
 21
417.9595596247
 31
0.0
  0
LINE
  5
D4
  8
0
  6
CONTINUOUS
 62
     7
 10
216.3900676279
 20
420.0004897171
 30
0.0
 11
247.3900671213
 21
420.0004897171
 31
0.0
  0
LINE
  5
D5
  8
0
  6
CONTINUOUS
 62
     7
 10
216.3900676279
 20
420.0004897171
 30
0.0
 11
214.3491375356
 21
417.9595596247
 31
0.0
  0
LINE
  5
D6
  8
0
  6
CONTINUOUS
 62
     7
 10
214.3491375356
 20
417.9595596247
 30
0.0
 11
208.8866400628
 21
420.0004897171
 31
0.0
  0
LINE
  5
D7
  8
0
  6
CONTINUOUS
 62
     7
 10
208.8866400628
 20
420.0004897171
 30
0.0
 11
208.8866400628
 21
423.0870193892
 31
0.0
  0
LINE
  5
D8
  8
0
  6
CONTINUOUS
 62
     7
 10
208.8866400628
 20
420.0004897171
 30
0.0
 11
200.4093713223
 21
423.0870193892
 31
0.0
  0
LINE
  5
D9
  8
0
  6
CONTINUOUS
 62
     7
 10
269.8295562624
 20
459.0870178395
 30
0.0
 11
277.3900664507
 21
459.0870178395
 31
0.0
  0
LINE
  5
DA
  8
0
  6
CONTINUOUS
 62
     7
 10
270.1810895561
 20
452.0870185547
 30
0.0
 11
277.7569218634
 21
452.0870185547
 31
0.0
  0
LINE
  5
DB
  8
0
  6
CONTINUOUS
 62
     7
 10
193.9505784868
 20
459.0870178395
 30
0.0
 11
186.3900682985
 21
459.0870178395
 31
0.0
  0
LINE
  5
DC
  8
0
  6
CONTINUOUS
 62
     7
 10
193.5990451931
 20
452.0870185547
 30
0.0
 11
186.0232128857
 21
452.0870185547
 31
0.0
  0
LINE
  5
DD
  8
0
  6
CONTINUOUS
 62
     7
 10
186.3900682985
 20
459.6517047935
 30
0.0
 11
193.9505784868
 21
459.6517047935
 31
0.0
  0
LINE
  5
DE
  8
0
  6
CONTINUOUS
 62
     7
 10
277.3900664507
 20
459.6517047935
 30
0.0
 11
269.8295562624
 21
459.6517047935
 31
0.0
  0
LINE
  5
DF
  8
0
  6
CONTINUOUS
 62
     7
 10
187.2173323392
 20
444.5170647555
 30
0.0
 11
194.4926976322
 21
444.5170647555
 31
0.0
  0
LINE
  5
E0
  8
0
  6
CONTINUOUS
 62
     7
 10
276.56280241
 20
444.5170647555
 30
0.0
 11
269.287437117
 21
444.5170647555
 31
0.0
  0
ARC
  5
E1
  8
0
  6
CONTINUOUS
 62
     7
 10
197.7104446613
 20
444.2042020562
 30
0.0
 40
1.781993634798426
 50
296.5695860599
 51
336.1873592395
  0
POLYLINE
  5
E2
  8
0
  6
CONTINUOUS
 62
     7
 66
     1
 10
0.0
 20
0.0
 30
0.0
  0
VERTEX
  5
3B5
  8
0
  6
CONTINUOUS
 62
     7
 10
198.5075025915
 20
442.6104015761
 30
0.0
  0
VERTEX
  5
3B6
  8
0
  6
CONTINUOUS
 62
     7
 10
198.2944755911
 20
442.618947392
 30
0.0
  0
VERTEX
  5
3B7
  8
0
  6
CONTINUOUS
 62
     7
 10
198.1262936352
 20
442.6256976181
 30
0.0
  0
VERTEX
  5
3B8
  8
0
  6
CONTINUOUS
 62
     7
 10
198.0028859435
 20
442.6306522542
 30
0.0
  0
VERTEX
  5
3B9
  8
0
  6
CONTINUOUS
 62
     7
 10
197.9245542644
 20
442.6337963992
 30
0.0
  0
SEQEND
  5
797
  8
0
  6
CONTINUOUS
 62
     7
  0
LINE
  5
E3
  8
0
  6
CONTINUOUS
 62
     7
 10
197.9245542644
 20
442.6337963992
 30
0.0
 11
195.8900689243
 21
442.9924747997
 31
0.0
  0
POLYLINE
  5
E4
  8
0
  6
CONTINUOUS
 62
     7
 66
     1
 10
0.0
 20
0.0
 30
0.0
  0
VERTEX
  5
3BA
  8
0
  6
CONTINUOUS
 62
     7
 10
265.2726321577
 20
442.6104015761
 30
0.0
  0
VERTEX
  5
3BB
  8
0
  6
CONTINUOUS
 62
     7
 10
265.4856591581
 20
442.618947392
 30
0.0
  0
VERTEX
  5
3BC
  8
0
  6
CONTINUOUS
 62
     7
 10
265.6538411139
 20
442.6256976181
 30
0.0
  0
VERTEX
  5
3BD
  8
0
  6
CONTINUOUS
 62
     7
 10
265.7772488056
 20
442.6306522542
 30
0.0
  0
VERTEX
  5
3BE
  8
0
  6
CONTINUOUS
 62
     7
 10
265.8555804847
 20
442.6337963992
 30
0.0
  0
SEQEND
  5
796
  8
0
  6
CONTINUOUS
 62
     7
  0
ARC
  5
E5
  8
0
  6
CONTINUOUS
 62
     7
 10
266.0696900879
 20
444.2042020562
 30
0.0
 40
1.781993634798439
 50
203.8126407605
 51
243.4304139401
  0
LINE
  5
E6
  8
0
  6
CONTINUOUS
 62
     7
 10
265.8555804847
 20
442.6337963992
 30
0.0
 11
267.8900658249
 21
442.9924747997
 31
0.0
  0
LINE
  5
E7
  8
0
  6
CONTINUOUS
 62
     7
 10
220.7487047746
 20
462.3369908982
 30
0.0
 11
243.0314299746
 21
462.3369908982
 31
0.0
  0
ARC
  5
E8
  8
0
  6
CONTINUOUS
 62
     7
 10
277.5938631003
 20
450.3616464449
 30
0.0
 40
58.06607835034008
 50
152.9972286284
 51
167.5147888241
  0
ARC
  5
E9
  8
0
  6
CONTINUOUS
 62
     7
 10
231.8900673746
 20
538.4391260599
 30
0.0
 40
62.00763604972122
 50
264.417362705
 51
275.582637295
  0
ARC
  5
EA
  8
0
  6
CONTINUOUS
 62
     7
 10
186.1862716489
 20
450.3616464449
 30
0.0
 40
58.06607835034008
 50
12.4852111759
 51
27.0027713716
  0
LINE
  5
EB
  8
0
  6
CONTINUOUS
 62
     7
 10
225.8578836082
 20
476.7255968504
 30
0.0
 11
225.8454611621
 21
477.0870170646
 31
0.0
  0
LINE
  5
EC
  8
0
  6
CONTINUOUS
 62
     7
 10
220.4252080156
 20
477.0870170646
 30
0.0
 11
225.8454611621
 21
477.0870170646
 31
0.0
  0
LINE
  5
ED
  8
0
  6
CONTINUOUS
 62
     7
 10
237.9222511409
 20
476.7255968504
 30
0.0
 11
237.9346735871
 21
477.0870170646
 31
0.0
  0
LINE
  5
EE
  8
0
  6
CONTINUOUS
 62
     7
 10
243.3549267335
 20
477.0870170646
 30
0.0
 11
237.9346735871
 21
477.0870170646
 31
0.0
  0
LINE
  5
EF
  8
0
  6
CONTINUOUS
 62
     7
 10
285.8900687753
 20
312.7809054308
 30
0.0
 11
285.8900687753
 21
315.4486491435
 31
0.0
  0
LINE
  5
F0
  8
0
  6
CONTINUOUS
 62
     7
 10
177.8900659739
 20
312.7809054308
 30
0.0
 11
177.8900659739
 21
315.4486491435
 31
0.0
  0
LINE
  5
F1
  8
0
  6
CONTINUOUS
 62
     7
 10
199.5100936948
 20
423.0870193892
 30
0.0
 11
200.4093713223
 21
423.0870193892
 31
0.0
  0
LINE
  5
F2
  8
0
  6
CONTINUOUS
 62
     7
 10
199.2682329475
 20
430.5313601249
 30
0.0
 11
199.5100936948
 21
423.0870193892
 31
0.0
  0
ARC
  5
F3
  8
0
  6
CONTINUOUS
 62
     7
 10
112.539229449
 20
427.7251480083
 30
0.0
 40
86.7743906592448
 50
1.8532213011
 51
3.6861127294
  0
POLYLINE
  5
F4
  8
0
  6
CONTINUOUS
 62
     7
 66
     1
 10
0.0
 20
0.0
 30
0.0
  0
VERTEX
  5
3BF
  8
0
  6
CONTINUOUS
 62
     7
 10
199.1341038703
 20
433.3039111548
 30
0.0
  0
VERTEX
  5
3C0
  8
0
  6
CONTINUOUS
 62
     7
 10
198.7937389969
 20
438.4749791675
 30
0.0
  0
VERTEX
  5
3C1
  8
0
  6
CONTINUOUS
 62
     7
 10
198.5075025915
 20
442.6104015761
 30
0.0
  0
SEQEND
  5
795
  8
0
  6
CONTINUOUS
 62
     7
  0
POLYLINE
  5
F5
  8
0
  6
CONTINUOUS
 62
     7
 66
     1
 10
0.0
 20
0.0
 30
0.0
  0
VERTEX
  5
3C2
  8
0
  6
CONTINUOUS
 62
     7
 10
264.6460308789
 20
433.3039111548
 30
0.0
  0
VERTEX
  5
3C3
  8
0
  6
CONTINUOUS
 62
     7
 10
264.9863957523
 20
438.4749791675
 30
0.0
  0
VERTEX
  5
3C4
  8
0
  6
CONTINUOUS
 62
     7
 10
265.2726321577
 20
442.6104015761
 30
0.0
  0
SEQEND
  5
794
  8
0
  6
CONTINUOUS
 62
     7
  0
ARC
  5
F6
  8
0
  6
CONTINUOUS
 62
     7
 10
351.2409053002
 20
427.7251480083
 30
0.0
 40
86.77439065924474
 50
176.3138872706
 51
178.1467786989
  0
LINE
  5
F7
  8
0
  6
CONTINUOUS
 62
     7
 10
264.5119018017
 20
430.5313601249
 30
0.0
 11
264.2700410544
 21
423.0870193892
 31
0.0
  0
LINE
  5
F8
  8
0
  6
CONTINUOUS
 62
     7
 10
264.2700410544
 20
423.0870193892
 30
0.0
 11
263.3707634269
 21
423.0870193892
 31
0.0
  0
LINE
  5
F9
  8
0
  6
CONTINUOUS
 62
     7
 10
260.9837780802
 20
422.1026561313
 30
0.0
 11
264.2700410544
 21
423.0870193892
 31
0.0
  0
POLYLINE
  5
FA
  8
0
  6
CONTINUOUS
 62
     7
 66
     1
 10
0.0
 20
0.0
 30
0.0
  0
VERTEX
  5
3C5
  8
0
  6
CONTINUOUS
 62
     7
 10
260.9837780802
 20
422.1026561313
 30
0.0
  0
VERTEX
  5
3C6
  8
0
  6
CONTINUOUS
 62
     7
 10
260.8624993919
 20
422.0658204609
 30
0.0
  0
VERTEX
  5
3C7
  8
0
  6
CONTINUOUS
 62
     7
 10
260.725723496
 20
422.0233223491
 30
0.0
  0
SEQEND
  5
793
  8
0
  6
CONTINUOUS
 62
     7
  0
LINE
  5
FB
  8
0
  6
CONTINUOUS
 62
     7
 10
260.725723496
 20
422.0233223491
 30
0.0
 11
249.7218287646
 21
418.0577657276
 31
0.0
  0
LINE
  5
FC
  8
0
  6
CONTINUOUS
 62
     7
 10
249.4309972136
 20
417.9595596247
 30
0.0
 11
249.7218287646
 21
418.0577657276
 31
0.0
  0
LINE
  5
FD
  8
0
  6
CONTINUOUS
 62
     7
 10
214.3491375356
 20
417.9595596247
 30
0.0
 11
214.0583059846
 21
418.0577657276
 31
0.0
  0
LINE
  5
FE
  8
0
  6
CONTINUOUS
 62
     7
 10
203.0544112532
 20
422.0233223491
 30
0.0
 11
214.0583059846
 21
418.0577657276
 31
0.0
  0
POLYLINE
  5
FF
  8
0
  6
CONTINUOUS
 62
     7
 66
     1
 10
0.0
 20
0.0
 30
0.0
  0
VERTEX
  5
3C8
  8
0
  6
CONTINUOUS
 62
     7
 10
202.7963566689
 20
422.1026561313
 30
0.0
  0
VERTEX
  5
3C9
  8
0
  6
CONTINUOUS
 62
     7
 10
202.9176353573
 20
422.0658204609
 30
0.0
  0
VERTEX
  5
3CA
  8
0
  6
CONTINUOUS
 62
     7
 10
203.0544112532
 20
422.0233223491
 30
0.0
  0
SEQEND
  5
792
  8
0
  6
CONTINUOUS
 62
     7
  0
LINE
  5
100
  8
0
  6
CONTINUOUS
 62
     7
 10
202.7963566689
 20
422.1026561313
 30
0.0
 11
199.5100936948
 21
423.0870193892
 31
0.0
  0
LINE
  5
101
  8
0
  6
CONTINUOUS
 62
     7
 10
247.3900671213
 20
420.0004897171
 30
0.0
 11
247.3900671213
 21
364.4425840207
 31
0.0
  0
LINE
  5
102
  8
0
  6
CONTINUOUS
 62
     7
 10
247.3900671213
 20
364.4425840207
 30
0.0
 11
216.3900676279
 21
364.4425840207
 31
0.0
  0
LINE
  5
103
  8
0
  6
CONTINUOUS
 62
     7
 10
216.3900676279
 20
420.0004897171
 30
0.0
 11
216.3900676279
 21
364.4425840207
 31
0.0
  0
LINE
  5
104
  8
0
  6
CONTINUOUS
 62
     7
 10
249.7218287646
 20
418.0577657276
 30
0.0
 11
249.7218287646
 21
362.7259777018
 31
0.0
  0
LINE
  5
105
  8
0
  6
CONTINUOUS
 62
     7
 10
249.7218287646
 20
362.7259777018
 30
0.0
 11
247.3900671213
 21
364.4425840207
 31
0.0
  0
LINE
  5
106
  8
0
  6
CONTINUOUS
 62
     7
 10
214.0583059846
 20
362.7259777018
 30
0.0
 11
216.3900676279
 21
364.4425840207
 31
0.0
  0
LINE
  5
107
  8
0
  6
CONTINUOUS
 62
     7
 10
214.0583059846
 20
418.0577657276
 30
0.0
 11
214.0583059846
 21
362.7259777018
 31
0.0
  0
LINE
  5
108
  8
0
  6
CONTINUOUS
 62
     7
 10
249.7218287646
 20
362.7259777018
 30
0.0
 11
251.9377729951
 21
362.509866161
 31
0.0
  0
LINE
  5
109
  8
0
  6
CONTINUOUS
 62
     7
 10
251.9377729951
 20
362.509866161
 30
0.0
 11
252.7889943777
 21
360.3223077112
 31
0.0
  0
LINE
  5
10A
  8
0
  6
CONTINUOUS
 62
     7
 10
252.7889943777
 20
360.3223077112
 30
0.0
 11
210.9911403714
 21
360.3223077112
 31
0.0
  0
LINE
  5
10B
  8
0
  6
CONTINUOUS
 62
     7
 10
211.8423617541
 20
362.509866161
 30
0.0
 11
210.9911403714
 21
360.3223077112
 31
0.0
  0
LINE
  5
10C
  8
0
  6
CONTINUOUS
 62
     7
 10
214.0583059846
 20
362.7259777018
 30
0.0
 11
211.8423617541
 21
362.509866161
 31
0.0
  0
LINE
  5
10D
  8
0
  6
CONTINUOUS
 62
     7
 10
292.89006806
 20
309.4992152505
 30
0.0
 11
292.89006806
 21
300.0870234423
 31
0.0
  0
LINE
  5
10E
  8
0
  6
CONTINUOUS
 62
     7
 10
170.8900666891
 20
309.4992152505
 30
0.0
 11
170.8900666891
 21
300.0870234423
 31
0.0
  0
LINE
  5
10F
  8
0
  6
CONTINUOUS
 62
     7
 10
177.8900659739
 20
300.0870234423
 30
0.0
 11
177.8900659739
 21
312.7809054308
 31
0.0
  0
LINE
  5
110
  8
0
  6
CONTINUOUS
 62
     7
 10
285.8900687753
 20
300.0870234423
 30
0.0
 11
285.8900687753
 21
312.7809054308
 31
0.0
  0
LINE
  5
111
  8
0
  6
CONTINUOUS
 62
     7
 10
301.8900676726
 20
413.5870187634
 30
0.0
 11
301.8900676726
 21
330.5870219224
 31
0.0
  0
LINE
  5
112
  8
0
  6
CONTINUOUS
 62
     7
 10
161.8900670766
 20
413.5870187634
 30
0.0
 11
161.8900670766
 21
330.5870219224
 31
0.0
  0
ARC
  5
113
  8
0
  6
CONTINUOUS
 62
     7
 10
289.8900673746
 20
300.0870203429
 30
0.0
 40
3.000000000000057
 50
270.0
 51
0.0
  0
LINE
  5
114
  8
0
  6
CONTINUOUS
 62
     7
 10
289.8900657056
 20
297.0870173626
 30
0.0
 11
288.8900674044
 21
297.0870173626
 31
0.0
  0
ARC
  5
115
  8
0
  6
CONTINUOUS
 62
     7
 10
174.8900673746
 20
300.0870203429
 30
0.0
 40
3.0
 50
270.0
 51
0.0
  0
ARC
  5
116
  8
0
  6
CONTINUOUS
 62
     7
 10
288.8900673746
 20
300.0870203429
 30
0.0
 40
3.0
 50
180.0
 51
270.0
  0
ARC
  5
117
  8
0
  6
CONTINUOUS
 62
     7
 10
173.8900673746
 20
300.0870203429
 30
0.0
 40
3.0
 50
180.0
 51
270.0
  0
LINE
  5
118
  8
0
  6
CONTINUOUS
 62
     7
 10
173.8900690435
 20
297.0870173626
 30
0.0
 11
174.8900673448
 21
297.0870173626
 31
0.0
  0
LINE
  5
119
  8
0
  6
CONTINUOUS
 62
     7
 10
211.8423617541
 20
362.509866161
 30
0.0
 11
203.2854686587
 21
420.2502592557
 31
0.0
  0
POLYLINE
  5
11A
  8
0
  6
CONTINUOUS
 62
     7
 66
     1
 10
0.0
 20
0.0
 30
0.0
  0
VERTEX
  5
3CB
  8
0
  6
CONTINUOUS
 62
     7
 10
203.2854686587
 20
420.2502592557
 30
0.0
  0
VERTEX
  5
3CC
  8
0
  6
CONTINUOUS
 62
     7
 10
203.1619752853
 20
421.1354552858
 30
0.0
  0
VERTEX
  5
3CD
  8
0
  6
CONTINUOUS
 62
     7
 10
203.0544112532
 20
422.0233223491
 30
0.0
  0
SEQEND
  5
791
  8
0
  6
CONTINUOUS
 62
     7
  0
LINE
  5
11B
  8
0
  6
CONTINUOUS
 62
     7
 10
251.9377729951
 20
362.509866161
 30
0.0
 11
260.4946660905
 21
420.2502592557
 31
0.0
  0
POLYLINE
  5
11C
  8
0
  6
CONTINUOUS
 62
     7
 66
     1
 10
0.0
 20
0.0
 30
0.0
  0
VERTEX
  5
3CE
  8
0
  6
CONTINUOUS
 62
     7
 10
260.4946660905
 20
420.2502592557
 30
0.0
  0
VERTEX
  5
3CF
  8
0
  6
CONTINUOUS
 62
     7
 10
260.6181594639
 20
421.1354552858
 30
0.0
  0
VERTEX
  5
3D0
  8
0
  6
CONTINUOUS
 62
     7
 10
260.725723496
 20
422.0233223491
 30
0.0
  0
SEQEND
  5
790
  8
0
  6
CONTINUOUS
 62
     7
  0
LINE
  5
11D
  8
0
  6
CONTINUOUS
 62
     7
 10
201.5907316564
 20
399.3153068327
 30
0.0
 11
198.2776633559
 21
422.8890127593
 31
0.0
  0
LINE
  5
11E
  8
0
  6
CONTINUOUS
 62
     7
 10
210.9911403714
 20
360.3223077112
 30
0.0
 11
210.956063038
 21
359.9891168156
 31
0.0
  0
LINE
  5
11F
  8
0
  6
CONTINUOUS
 62
     7
 10
210.956063038
 20
359.9891168156
 30
0.0
 11
209.3870545833
 21
366.2768289537
 31
0.0
  0
POLYLINE
  5
120
  8
0
  6
CONTINUOUS
 62
     7
 66
     1
 10
0.0
 20
0.0
 30
0.0
  0
VERTEX
  5
3D1
  8
0
  6
CONTINUOUS
 62
     7
 10
209.3870545833
 20
366.2768289537
 30
0.0
  0
VERTEX
  5
3D2
  8
0
  6
CONTINUOUS
 62
     7
 10
209.3141785918
 20
366.9589049273
 30
0.0
  0
VERTEX
  5
3D3
  8
0
  6
CONTINUOUS
 62
     7
 10
209.2381938456
 20
367.6450032831
 30
0.0
  0
VERTEX
  5
3D4
  8
0
  6
CONTINUOUS
 62
     7
 10
209.1591524987
 20
368.3346530047
 30
0.0
  0
VERTEX
  5
3D5
  8
0
  6
CONTINUOUS
 62
     7
 10
209.0771067052
 20
369.0273802818
 30
0.0
  0
VERTEX
  5
3D6
  8
0
  6
CONTINUOUS
 62
     7
 10
208.992114207
 20
369.7227099069
 30
0.0
  0
VERTEX
  5
3D7
  8
0
  6
CONTINUOUS
 62
     7
 10
208.9042346089
 20
370.4201643445
 30
0.0
  0
VERTEX
  5
3D8
  8
0
  6
CONTINUOUS
 62
     7
 10
208.8135256528
 20
371.1192650112
 30
0.0
  0
VERTEX
  5
3D9
  8
0
  6
CONTINUOUS
 62
     7
 10
208.7200506686
 20
371.8195320139
 30
0.0
  0
VERTEX
  5
3DA
  8
0
  6
CONTINUOUS
 62
     7
 10
208.623874849
 20
372.5204846155
 30
0.0
  0
VERTEX
  5
3DB
  8
0
  6
CONTINUOUS
 62
     7
 10
208.5250633864
 20
373.221641788
 30
0.0
  0
VERTEX
  5
3DC
  8
0
  6
CONTINUOUS
 62
     7
 10
208.4236833363
 20
373.9225220957
 30
0.0
  0
VERTEX
  5
3DD
  8
0
  6
CONTINUOUS
 62
     7
 10
208.3198036163
 20
374.6226445396
 30
0.0
  0
VERTEX
  5
3DE
  8
0
  6
CONTINUOUS
 62
     7
 10
208.2134987323
 20
375.3215285574
 30
0.0
  0
VERTEX
  5
3DF
  8
0
  6
CONTINUOUS
 62
     7
 10
208.1048394649
 20
376.0186940522
 30
0.0
  0
VERTEX
  5
3E0
  8
0
  6
CONTINUOUS
 62
     7
 10
207.9939003198
 20
376.7136632555
 30
0.0
  0
VERTEX
  5
3E1
  8
0
  6
CONTINUOUS
 62
     7
 10
207.8807595282
 20
377.4059586317
 30
0.0
  0
VERTEX
  5
3E2
  8
0
  6
CONTINUOUS
 62
     7
 10
207.7654915957
 20
378.0951047406
 30
0.0
  0
VERTEX
  5
3E3
  8
0
  6
CONTINUOUS
 62
     7
 10
207.6481766163
 20
378.7806289361
 30
0.0
  0
VERTEX
  5
3E4
  8
0
  6
CONTINUOUS
 62
     7
 10
207.5288965462
 20
379.4620604345
 30
0.0
  0
VERTEX
  5
3E5
  8
0
  6
CONTINUOUS
 62
     7
 10
207.4077314793
 20
380.1389317118
 30
0.0
  0
VERTEX
  5
3E6
  8
0
  6
CONTINUOUS
 62
     7
 10
207.2847670971
 20
380.8107775726
 30
0.0
  0
VERTEX
  5
3E7
  8
0
  6
CONTINUOUS
 62
     7
 10
207.1600834935
 20
381.4771379434
 30
0.0
  0
VERTEX
  5
3E8
  8
0
  6
CONTINUOUS
 62
     7
 10
207.033771938
 20
382.1375546136
 30
0.0
  0
VERTEX
  5
3E9
  8
0
  6
CONTINUOUS
 62
     7
 10
206.905914387
 20
382.791574029
 30
0.0
  0
VERTEX
  5
3EA
  8
0
  6
CONTINUOUS
 62
     7
 10
206.7766002475
 20
383.4387482234
 30
0.0
  0
VERTEX
  5
3EB
  8
0
  6
CONTINUOUS
 62
     7
 10
206.6459189265
 20
384.0786320248
 30
0.0
  0
VERTEX
  5
3EC
  8
0
  6
CONTINUOUS
 62
     7
 10
206.5139598309
 20
384.7107867801
 30
0.0
  0
VERTEX
  5
3ED
  8
0
  6
CONTINUOUS
 62
     7
 10
206.3808123677
 20
385.334778493
 30
0.0
  0
VERTEX
  5
3EE
  8
0
  6
CONTINUOUS
 62
     7
 10
206.2465696691
 20
385.9501778238
 30
0.0
  0
VERTEX
  5
3EF
  8
0
  6
CONTINUOUS
 62
     7
 10
206.1113230048
 20
386.5565638148
 30
0.0
  0
VERTEX
  5
3F0
  8
0
  6
CONTINUOUS
 62
     7
 10
205.9751655071
 20
387.1535201647
 30
0.0
  0
VERTEX
  5
3F1
  8
0
  6
CONTINUOUS
 62
     7
 10
205.8381884454
 20
387.7406361603
 30
0.0
  0
VERTEX
  5
3F2
  8
0
  6
CONTINUOUS
 62
     7
 10
205.7004905401
 20
388.3175085389
 30
0.0
  0
VERTEX
  5
3F3
  8
0
  6
CONTINUOUS
 62
     7
 10
205.5621611981
 20
388.883743351
 30
0.0
  0
VERTEX
  5
3F4
  8
0
  6
CONTINUOUS
 62
     7
 10
205.4232991396
 20
389.4389494412
 30
0.0
  0
VERTEX
  5
3F5
  8
0
  6
CONTINUOUS
 62
     7
 10
205.2839993595
 20
389.9827468299
 30
0.0
  0
VERTEX
  5
3F6
  8
0
  6
CONTINUOUS
 62
     7
 10
205.14435499
 20
390.514762988
 30
0.0
  0
VERTEX
  5
3F7
  8
0
  6
CONTINUOUS
 62
     7
 10
205.0044628887
 20
391.0346328371
 30
0.0
  0
VERTEX
  5
3F8
  8
0
  6
CONTINUOUS
 62
     7
 10
204.8644199132
 20
391.5419968867
 30
0.0
  0
VERTEX
  5
3F9
  8
0
  6
CONTINUOUS
 62
     7
 10
204.7243210583
 20
392.0365086847
 30
0.0
  0
VERTEX
  5
3FA
  8
0
  6
CONTINUOUS
 62
     7
 10
204.5842650442
 20
392.5178292298
 30
0.0
  0
VERTEX
  5
3FB
  8
0
  6
CONTINUOUS
 62
     7
 10
204.4443450032
 20
392.9856288337
 30
0.0
  0
VERTEX
  5
3FC
  8
0
  6
CONTINUOUS
 62
     7
 10
204.3046577929
 20
393.4395833963
 30
0.0
  0
VERTEX
  5
3FD
  8
0
  6
CONTINUOUS
 62
     7
 10
204.1653002708
 20
393.879385581
 30
0.0
  0
VERTEX
  5
3FE
  8
0
  6
CONTINUOUS
 62
     7
 10
204.0263674318
 20
394.3047280514
 30
0.0
  0
VERTEX
  5
3FF
  8
0
  6
CONTINUOUS
 62
     7
 10
203.8879542707
 20
394.7153239601
 30
0.0
  0
VERTEX
  5
400
  8
0
  6
CONTINUOUS
 62
     7
 10
203.7501557826
 20
395.1108883225
 30
0.0
  0
VERTEX
  5
401
  8
0
  6
CONTINUOUS
 62
     7
 10
203.6130688249
 20
395.491151055
 30
0.0
  0
VERTEX
  5
402
  8
0
  6
CONTINUOUS
 62
     7
 10
203.4767828046
 20
395.8558513873
 30
0.0
  0
VERTEX
  5
403
  8
0
  6
CONTINUOUS
 62
     7
 10
203.3413964419
 20
396.2047378623
 30
0.0
  0
VERTEX
  5
404
  8
0
  6
CONTINUOUS
 62
     7
 10
203.2069991438
 20
396.5375701987
 30
0.0
  0
VERTEX
  5
405
  8
0
  6
CONTINUOUS
 62
     7
 10
203.0736859052
 20
396.8541230165
 30
0.0
  0
VERTEX
  5
406
  8
0
  6
CONTINUOUS
 62
     7
 10
202.941546133
 20
397.1541765236
 30
0.0
  0
VERTEX
  5
407
  8
0
  6
CONTINUOUS
 62
     7
 10
202.8106692343
 20
397.437525829
 30
0.0
  0
VERTEX
  5
408
  8
0
  6
CONTINUOUS
 62
     7
 10
202.6811483412
 20
397.703975355
 30
0.0
  0
VERTEX
  5
409
  8
0
  6
CONTINUOUS
 62
     7
 10
202.5530709981
 20
397.9533425623
 30
0.0
  0
VERTEX
  5
40A
  8
0
  6
CONTINUOUS
 62
     7
 10
202.4265247493
 20
398.1854579502
 30
0.0
  0
VERTEX
  5
40B
  8
0
  6
CONTINUOUS
 62
     7
 10
202.3015971391
 20
398.4001594686
 30
0.0
  0
VERTEX
  5
40C
  8
0
  6
CONTINUOUS
 62
     7
 10
202.1783738493
 20
398.5973018312
 30
0.0
  0
VERTEX
  5
40D
  8
0
  6
CONTINUOUS
 62
     7
 10
202.0569386988
 20
398.7767490649
 30
0.0
  0
VERTEX
  5
40E
  8
0
  6
CONTINUOUS
 62
     7
 10
201.9373755066
 20
398.938378235
 30
0.0
  0
VERTEX
  5
40F
  8
0
  6
CONTINUOUS
 62
     7
 10
201.8197662293
 20
399.082077583
 30
0.0
  0
VERTEX
  5
410
  8
0
  6
CONTINUOUS
 62
     7
 10
201.7041909604
 20
399.2077502512
 30
0.0
  0
VERTEX
  5
411
  8
0
  6
CONTINUOUS
 62
     7
 10
201.5907316564
 20
399.3153068327
 30
0.0
  0
SEQEND
  5
78F
  8
0
  6
CONTINUOUS
 62
     7
  0
LINE
  5
121
  8
0
  6
CONTINUOUS
 62
     7
 10
262.1894030927
 20
399.3153068327
 30
0.0
 11
265.5024713932
 21
422.8890127593
 31
0.0
  0
POLYLINE
  5
122
  8
0
  6
CONTINUOUS
 62
     7
 66
     1
 10
0.0
 20
0.0
 30
0.0
  0
VERTEX
  5
412
  8
0
  6
CONTINUOUS
 62
     7
 10
254.3930801659
 20
366.2768289537
 30
0.0
  0
VERTEX
  5
413
  8
0
  6
CONTINUOUS
 62
     7
 10
254.4659561573
 20
366.9589049273
 30
0.0
  0
VERTEX
  5
414
  8
0
  6
CONTINUOUS
 62
     7
 10
254.5419409035
 20
367.6450032831
 30
0.0
  0
VERTEX
  5
415
  8
0
  6
CONTINUOUS
 62
     7
 10
254.6209822504
 20
368.3346530047
 30
0.0
  0
VERTEX
  5
416
  8
0
  6
CONTINUOUS
 62
     7
 10
254.703028044
 20
369.0273802818
 30
0.0
  0
VERTEX
  5
417
  8
0
  6
CONTINUOUS
 62
     7
 10
254.7880205421
 20
369.7227099069
 30
0.0
  0
VERTEX
  5
418
  8
0
  6
CONTINUOUS
 62
     7
 10
254.8759001403
 20
370.4201643445
 30
0.0
  0
VERTEX
  5
419
  8
0
  6
CONTINUOUS
 62
     7
 10
254.9666090964
 20
371.1192650112
 30
0.0
  0
VERTEX
  5
41A
  8
0
  6
CONTINUOUS
 62
     7
 10
255.0600840806
 20
371.8195320139
 30
0.0
  0
VERTEX
  5
41B
  8
0
  6
CONTINUOUS
 62
     7
 10
255.1562599002
 20
372.5204846155
 30
0.0
  0
VERTEX
  5
41C
  8
0
  6
CONTINUOUS
 62
     7
 10
255.2550713627
 20
373.221641788
 30
0.0
  0
VERTEX
  5
41D
  8
0
  6
CONTINUOUS
 62
     7
 10
255.3564514129
 20
373.9225220957
 30
0.0
  0
VERTEX
  5
41E
  8
0
  6
CONTINUOUS
 62
     7
 10
255.4603311329
 20
374.6226445396
 30
0.0
  0
VERTEX
  5
41F
  8
0
  6
CONTINUOUS
 62
     7
 10
255.5666360168
 20
375.3215285574
 30
0.0
  0
VERTEX
  5
420
  8
0
  6
CONTINUOUS
 62
     7
 10
255.6752952843
 20
376.0186940522
 30
0.0
  0
VERTEX
  5
421
  8
0
  6
CONTINUOUS
 62
     7
 10
255.7862344294
 20
376.7136632555
 30
0.0
  0
VERTEX
  5
422
  8
0
  6
CONTINUOUS
 62
     7
 10
255.899375221
 20
377.4059586317
 30
0.0
  0
VERTEX
  5
423
  8
0
  6
CONTINUOUS
 62
     7
 10
256.0146431534
 20
378.0951047406
 30
0.0
  0
VERTEX
  5
424
  8
0
  6
CONTINUOUS
 62
     7
 10
256.1319581329
 20
378.7806289361
 30
0.0
  0
VERTEX
  5
425
  8
0
  6
CONTINUOUS
 62
     7
 10
256.2512382029
 20
379.4620604345
 30
0.0
  0
VERTEX
  5
426
  8
0
  6
CONTINUOUS
 62
     7
 10
256.3724032699
 20
380.1389317118
 30
0.0
  0
VERTEX
  5
427
  8
0
  6
CONTINUOUS
 62
     7
 10
256.4953676521
 20
380.8107775726
 30
0.0
  0
VERTEX
  5
428
  8
0
  6
CONTINUOUS
 62
     7
 10
256.6200512557
 20
381.4771379434
 30
0.0
  0
VERTEX
  5
429
  8
0
  6
CONTINUOUS
 62
     7
 10
256.7463628112
 20
382.1375546136
 30
0.0
  0
VERTEX
  5
42A
  8
0
  6
CONTINUOUS
 62
     7
 10
256.8742203622
 20
382.791574029
 30
0.0
  0
VERTEX
  5
42B
  8
0
  6
CONTINUOUS
 62
     7
 10
257.0035345017
 20
383.4387482234
 30
0.0
  0
VERTEX
  5
42C
  8
0
  6
CONTINUOUS
 62
     7
 10
257.1342158227
 20
384.0786320248
 30
0.0
  0
VERTEX
  5
42D
  8
0
  6
CONTINUOUS
 62
     7
 10
257.2661749183
 20
384.7107867801
 30
0.0
  0
VERTEX
  5
42E
  8
0
  6
CONTINUOUS
 62
     7
 10
257.3993223815
 20
385.334778493
 30
0.0
  0
VERTEX
  5
42F
  8
0
  6
CONTINUOUS
 62
     7
 10
257.53356508
 20
385.9501778238
 30
0.0
  0
VERTEX
  5
430
  8
0
  6
CONTINUOUS
 62
     7
 10
257.6688117443
 20
386.5565638148
 30
0.0
  0
VERTEX
  5
431
  8
0
  6
CONTINUOUS
 62
     7
 10
257.8049692421
 20
387.1535201647
 30
0.0
  0
VERTEX
  5
432
  8
0
  6
CONTINUOUS
 62
     7
 10
257.9419463037
 20
387.7406361603
 30
0.0
  0
VERTEX
  5
433
  8
0
  6
CONTINUOUS
 62
     7
 10
258.079644209
 20
388.3175085389
 30
0.0
  0
VERTEX
  5
434
  8
0
  6
CONTINUOUS
 62
     7
 10
258.217973551
 20
388.883743351
 30
0.0
  0
VERTEX
  5
435
  8
0
  6
CONTINUOUS
 62
     7
 10
258.3568356095
 20
389.4389494412
 30
0.0
  0
VERTEX
  5
436
  8
0
  6
CONTINUOUS
 62
     7
 10
258.4961353897
 20
389.9827468299
 30
0.0
  0
VERTEX
  5
437
  8
0
  6
CONTINUOUS
 62
     7
 10
258.6357797592
 20
390.514762988
 30
0.0
  0
VERTEX
  5
438
  8
0
  6
CONTINUOUS
 62
     7
 10
258.7756718604
 20
391.0346328371
 30
0.0
  0
VERTEX
  5
439
  8
0
  6
CONTINUOUS
 62
     7
 10
258.915714836
 20
391.5419968867
 30
0.0
  0
VERTEX
  5
43A
  8
0
  6
CONTINUOUS
 62
     7
 10
259.0558136909
 20
392.0365086847
 30
0.0
  0
VERTEX
  5
43B
  8
0
  6
CONTINUOUS
 62
     7
 10
259.195869705
 20
392.5178292298
 30
0.0
  0
VERTEX
  5
43C
  8
0
  6
CONTINUOUS
 62
     7
 10
259.3357897459
 20
392.9856288337
 30
0.0
  0
VERTEX
  5
43D
  8
0
  6
CONTINUOUS
 62
     7
 10
259.4754769562
 20
393.4395833963
 30
0.0
  0
VERTEX
  5
43E
  8
0
  6
CONTINUOUS
 62
     7
 10
259.6148344784
 20
393.879385581
 30
0.0
  0
VERTEX
  5
43F
  8
0
  6
CONTINUOUS
 62
     7
 10
259.7537673174
 20
394.3047280514
 30
0.0
  0
VERTEX
  5
440
  8
0
  6
CONTINUOUS
 62
     7
 10
259.8921804784
 20
394.7153239601
 30
0.0
  0
VERTEX
  5
441
  8
0
  6
CONTINUOUS
 62
     7
 10
260.0299789666
 20
395.1108883225
 30
0.0
  0
VERTEX
  5
442
  8
0
  6
CONTINUOUS
 62
     7
 10
260.1670659243
 20
395.491151055
 30
0.0
  0
VERTEX
  5
443
  8
0
  6
CONTINUOUS
 62
     7
 10
260.3033519446
 20
395.8558513873
 30
0.0
  0
VERTEX
  5
444
  8
0
  6
CONTINUOUS
 62
     7
 10
260.4387383072
 20
396.2047378623
 30
0.0
  0
VERTEX
  5
445
  8
0
  6
CONTINUOUS
 62
     7
 10
260.5731356053
 20
396.5375701987
 30
0.0
  0
VERTEX
  5
446
  8
0
  6
CONTINUOUS
 62
     7
 10
260.7064488439
 20
396.8541230165
 30
0.0
  0
VERTEX
  5
447
  8
0
  6
CONTINUOUS
 62
     7
 10
260.8385886161
 20
397.1541765236
 30
0.0
  0
VERTEX
  5
448
  8
0
  6
CONTINUOUS
 62
     7
 10
260.9694655149
 20
397.437525829
 30
0.0
  0
VERTEX
  5
449
  8
0
  6
CONTINUOUS
 62
     7
 10
261.098986408
 20
397.703975355
 30
0.0
  0
VERTEX
  5
44A
  8
0
  6
CONTINUOUS
 62
     7
 10
261.2270637511
 20
397.9533425623
 30
0.0
  0
VERTEX
  5
44B
  8
0
  6
CONTINUOUS
 62
     7
 10
261.3536099999
 20
398.1854579502
 30
0.0
  0
VERTEX
  5
44C
  8
0
  6
CONTINUOUS
 62
     7
 10
261.47853761
 20
398.4001594686
 30
0.0
  0
VERTEX
  5
44D
  8
0
  6
CONTINUOUS
 62
     7
 10
261.6017608999
 20
398.5973018312
 30
0.0
  0
VERTEX
  5
44E
  8
0
  6
CONTINUOUS
 62
     7
 10
261.7231960504
 20
398.7767490649
 30
0.0
  0
VERTEX
  5
44F
  8
0
  6
CONTINUOUS
 62
     7
 10
261.8427592425
 20
398.938378235
 30
0.0
  0
VERTEX
  5
450
  8
0
  6
CONTINUOUS
 62
     7
 10
261.9603685199
 20
399.082077583
 30
0.0
  0
VERTEX
  5
451
  8
0
  6
CONTINUOUS
 62
     7
 10
262.0759437888
 20
399.2077502512
 30
0.0
  0
VERTEX
  5
452
  8
0
  6
CONTINUOUS
 62
     7
 10
262.1894030927
 20
399.3153068327
 30
0.0
  0
SEQEND
  5
78E
  8
0
  6
CONTINUOUS
 62
     7
  0
LINE
  5
123
  8
0
  6
CONTINUOUS
 62
     7
 10
252.8240717112
 20
359.9891168156
 30
0.0
 11
254.3930801659
 21
366.2768289537
 31
0.0
  0
LINE
  5
124
  8
0
  6
CONTINUOUS
 62
     7
 10
252.7889943777
 20
360.3223077112
 30
0.0
 11
252.8240717112
 21
359.9891168156
 31
0.0
  0
ARC
  5
125
  8
0
  6
CONTINUOUS
 62
     7
 10
183.907236923
 20
408.9008213437
 30
0.0
 40
6.016074523719178
 50
187.1444434682
 51
258.863156612
  0
ARC
  5
126
  8
0
  6
CONTINUOUS
 62
     7
 10
183.9079618598
 20
335.2725432377
 30
0.0
 40
6.016877947847912
 50
101.1423730496
 51
172.8500268702
  0
ARC
  5
127
  8
0
  6
CONTINUOUS
 62
     7
 10
279.8721728894
 20
335.2725432377
 30
0.0
 40
6.016877947847893
 50
7.1499731298
 51
78.8576269504
  0
ARC
  5
128
  8
0
  6
CONTINUOUS
 62
     7
 10
279.8728978262
 20
408.9008213437
 30
0.0
 40
6.016074523719167
 50
281.136843388
 51
352.8555565318
  0
POLYLINE
  5
129
  8
0
  6
CONTINUOUS
 62
     7
 66
     1
 10
0.0
 20
0.0
 30
0.0
  0
VERTEX
  5
453
  8
0
  6
CONTINUOUS
 62
     7
 10
256.6203343778
 20
353.2435315751
 30
0.0
  0
VERTEX
  5
454
  8
0
  6
CONTINUOUS
 62
     7
 10
256.053861147
 20
353.0122320258
 30
0.0
  0
VERTEX
  5
455
  8
0
  6
CONTINUOUS
 62
     7
 10
255.5048464893
 20
352.7706711643
 30
0.0
  0
VERTEX
  5
456
  8
0
  6
CONTINUOUS
 62
     7
 10
255.0515252261
 20
352.555207824
 30
0.0
  0
VERTEX
  5
457
  8
0
  6
CONTINUOUS
 62
     7
 10
254.6145151465
 20
352.3296750241
 30
0.0
  0
VERTEX
  5
458
  8
0
  6
CONTINUOUS
 62
     7
 10
254.1996947585
 20
352.0936909222
 30
0.0
  0
VERTEX
  5
459
  8
0
  6
CONTINUOUS
 62
     7
 10
253.8129500209
 20
351.8468699508
 30
0.0
  0
VERTEX
  5
45A
  8
0
  6
CONTINUOUS
 62
     7
 10
253.4601594417
 20
351.5888284051
 30
0.0
  0
VERTEX
  5
45B
  8
0
  6
CONTINUOUS
 62
     7
 10
253.147207117
 20
351.3191807174
 30
0.0
  0
VERTEX
  5
45C
  8
0
  6
CONTINUOUS
 62
     7
 10
252.9393117039
 20
351.1046412491
 30
0.0
  0
VERTEX
  5
45D
  8
0
  6
CONTINUOUS
 62
     7
 10
252.7626230477
 20
350.8824388587
 30
0.0
  0
VERTEX
  5
45E
  8
0
  6
CONTINUOUS
 62
     7
 10
252.621672964
 20
350.6541884595
 30
0.0
  0
VERTEX
  5
45F
  8
0
  6
CONTINUOUS
 62
     7
 10
252.5209895431
 20
350.4214975142
 30
0.0
  0
VERTEX
  5
460
  8
0
  6
CONTINUOUS
 62
     7
 10
252.4682859986
 20
350.2131643795
 30
0.0
  0
VERTEX
  5
461
  8
0
  6
CONTINUOUS
 62
     7
 10
252.4504660724
 20
350.0033727937
 30
0.0
  0
SEQEND
  5
78D
  8
0
  6
CONTINUOUS
 62
     7
  0
ARC
  5
12A
  8
0
  6
CONTINUOUS
 62
     7
 10
314.286977254
 20
369.8051136448
 30
0.0
 40
59.99773080102766
 50
183.3713361923
 51
196.023810646
  0
LINE
  5
12B
  8
0
  6
CONTINUOUS
 62
     7
 10
262.1894030927
 20
399.3153068327
 30
0.0
 11
281.034920281
 21
402.9980375522
 31
0.0
  0
POLYLINE
  5
12C
  8
0
  6
CONTINUOUS
 62
     7
 66
     1
 10
0.0
 20
0.0
 30
0.0
  0
VERTEX
  5
462
  8
0
  6
CONTINUOUS
 62
     7
 10
252.4504660724
 20
346.7641062193
 30
0.0
  0
VERTEX
  5
463
  8
0
  6
CONTINUOUS
 62
     7
 10
255.9303957133
 20
346.0830691361
 30
0.0
  0
VERTEX
  5
464
  8
0
  6
CONTINUOUS
 62
     7
 10
281.034920281
 20
341.1760031336
 30
0.0
  0
SEQEND
  5
78C
  8
0
  6
CONTINUOUS
 62
     7
  0
LINE
  5
12D
  8
0
  6
CONTINUOUS
 62
     7
 10
252.4504660724
 20
350.0033727937
 30
0.0
 11
252.4504660724
 21
346.7641062193
 31
0.0
  0
POLYLINE
  5
12E
  8
0
  6
CONTINUOUS
 62
     7
 66
     1
 10
0.0
 20
0.0
 30
0.0
  0
VERTEX
  5
465
  8
0
  6
CONTINUOUS
 62
     7
 10
211.3296686767
 20
346.7641062193
 30
0.0
  0
VERTEX
  5
466
  8
0
  6
CONTINUOUS
 62
     7
 10
207.8497390358
 20
346.0830691361
 30
0.0
  0
VERTEX
  5
467
  8
0
  6
CONTINUOUS
 62
     7
 10
182.7452144681
 20
341.1760031336
 30
0.0
  0
SEQEND
  5
78B
  8
0
  6
CONTINUOUS
 62
     7
  0
LINE
  5
12F
  8
0
  6
CONTINUOUS
 62
     7
 10
201.5907316564
 20
399.3153068327
 30
0.0
 11
182.7452144681
 21
402.9980375522
 31
0.0
  0
ARC
  5
130
  8
0
  6
CONTINUOUS
 62
     7
 10
149.4931574951
 20
369.8051136448
 30
0.0
 40
59.99773080103054
 50
343.976189354
 51
356.6286638077
  0
POLYLINE
  5
131
  8
0
  6
CONTINUOUS
 62
     7
 66
     1
 10
0.0
 20
0.0
 30
0.0
  0
VERTEX
  5
468
  8
0
  6
CONTINUOUS
 62
     7
 10
207.1598003714
 20
353.2435315751
 30
0.0
  0
VERTEX
  5
469
  8
0
  6
CONTINUOUS
 62
     7
 10
207.7262736021
 20
353.0122320258
 30
0.0
  0
VERTEX
  5
46A
  8
0
  6
CONTINUOUS
 62
     7
 10
208.2752882599
 20
352.7706711643
 30
0.0
  0
VERTEX
  5
46B
  8
0
  6
CONTINUOUS
 62
     7
 10
208.7286095231
 20
352.555207824
 30
0.0
  0
VERTEX
  5
46C
  8
0
  6
CONTINUOUS
 62
     7
 10
209.1656196027
 20
352.3296750241
 30
0.0
  0
VERTEX
  5
46D
  8
0
  6
CONTINUOUS
 62
     7
 10
209.5804399906
 20
352.0936909222
 30
0.0
  0
VERTEX
  5
46E
  8
0
  6
CONTINUOUS
 62
     7
 10
209.9671847283
 20
351.8468699508
 30
0.0
  0
VERTEX
  5
46F
  8
0
  6
CONTINUOUS
 62
     7
 10
210.3199753075
 20
351.5888284051
 30
0.0
  0
VERTEX
  5
470
  8
0
  6
CONTINUOUS
 62
     7
 10
210.6329276322
 20
351.3191807174
 30
0.0
  0
VERTEX
  5
471
  8
0
  6
CONTINUOUS
 62
     7
 10
210.8408230452
 20
351.1046412491
 30
0.0
  0
VERTEX
  5
472
  8
0
  6
CONTINUOUS
 62
     7
 10
211.0175117015
 20
350.8824388587
 30
0.0
  0
VERTEX
  5
473
  8
0
  6
CONTINUOUS
 62
     7
 10
211.1584617852
 20
350.6541884595
 30
0.0
  0
VERTEX
  5
474
  8
0
  6
CONTINUOUS
 62
     7
 10
211.2591452061
 20
350.4214975142
 30
0.0
  0
VERTEX
  5
475
  8
0
  6
CONTINUOUS
 62
     7
 10
211.3118487506
 20
350.2131643795
 30
0.0
  0
VERTEX
  5
476
  8
0
  6
CONTINUOUS
 62
     7
 10
211.3296686767
 20
350.0033727937
 30
0.0
  0
SEQEND
  5
78A
  8
0
  6
CONTINUOUS
 62
     7
  0
LINE
  5
132
  8
0
  6
CONTINUOUS
 62
     7
 10
211.3296686767
 20
350.0033727937
 30
0.0
 11
211.3296686767
 21
346.7641062193
 31
0.0
  0
ARC
  5
133
  8
0
  6
CONTINUOUS
 62
     7
 10
236.614757213
 20
561.5895512652
 30
0.0
 40
85.61242607263875
 50
245.3367711995
 51
260.7640862024
  0
ARC
  5
134
  8
0
  6
CONTINUOUS
 62
     7
 10
227.1653775362
 20
561.5895512652
 30
0.0
 40
85.61242607263878
 50
279.2359137976
 51
294.6632288005
  0
LINE
  5
135
  8
0
  6
CONTINUOUS
 62
     7
 10
200.8900678812
 20
484.7870207482
 30
0.0
 11
262.8900668679
 21
484.7870207482
 31
0.0
  0
POLYLINE
  5
136
  8
0
  6
CONTINUOUS
 62
     7
 66
     1
 10
0.0
 20
0.0
 30
0.0
  0
VERTEX
  5
477
  8
0
  6
CONTINUOUS
 62
     7
 10
266.032699412
 20
483.7862885647
 30
0.0
  0
VERTEX
  5
478
  8
0
  6
CONTINUOUS
 62
     7
 10
266.0330235122
 20
483.7869442158
 30
0.0
  0
VERTEX
  5
479
  8
0
  6
CONTINUOUS
 62
     7
 10
266.0201377331
 20
483.7609416895
 30
0.0
  0
VERTEX
  5
47A
  8
0
  6
CONTINUOUS
 62
     7
 10
265.983037567
 20
483.6859515958
 30
0.0
  0
VERTEX
  5
47B
  8
0
  6
CONTINUOUS
 62
     7
 10
265.9218161462
 20
483.5620633417
 30
0.0
  0
VERTEX
  5
47C
  8
0
  6
CONTINUOUS
 62
     7
 10
265.8365554272
 20
483.38931418
 30
0.0
  0
VERTEX
  5
47D
  8
0
  6
CONTINUOUS
 62
     7
 10
265.7275646089
 20
483.1679499798
 30
0.0
  0
VERTEX
  5
47E
  8
0
  6
CONTINUOUS
 62
     7
 10
265.5952646493
 20
482.898402875
 30
0.0
  0
VERTEX
  5
47F
  8
0
  6
CONTINUOUS
 62
     7
 10
265.4400839566
 20
482.5811273509
 30
0.0
  0
VERTEX
  5
480
  8
0
  6
CONTINUOUS
 62
     7
 10
265.2511744856
 20
482.1933097296
 30
0.0
  0
VERTEX
  5
481
  8
0
  6
CONTINUOUS
 62
     7
 10
265.037607318
 20
481.7526451402
 30
0.0
  0
VERTEX
  5
482
  8
0
  6
CONTINUOUS
 62
     7
 10
264.8002392708
 20
481.2599903994
 30
0.0
  0
VERTEX
  5
483
  8
0
  6
CONTINUOUS
 62
     7
 10
264.5399234353
 20
480.7162097745
 30
0.0
  0
VERTEX
  5
484
  8
0
  6
CONTINUOUS
 62
     7
 10
264.2968780457
 20
480.2051670008
 30
0.0
  0
VERTEX
  5
485
  8
0
  6
CONTINUOUS
 62
     7
 10
264.0377841054
 20
479.6566701584
 30
0.0
  0
VERTEX
  5
486
  8
0
  6
CONTINUOUS
 62
     7
 10
263.7633456944
 20
479.0714047008
 30
0.0
  0
VERTEX
  5
487
  8
0
  6
CONTINUOUS
 62
     7
 10
263.4724042474
 20
478.4460253172
 30
0.0
  0
VERTEX
  5
488
  8
0
  6
CONTINUOUS
 62
     7
 10
263.1671912132
 20
477.7843094521
 30
0.0
  0
VERTEX
  5
489
  8
0
  6
CONTINUOUS
 62
     7
 10
262.8485131173
 20
477.0870170646
 30
0.0
  0
SEQEND
  5
789
  8
0
  6
CONTINUOUS
 62
     7
  0
POLYLINE
  5
137
  8
0
  6
CONTINUOUS
 62
     7
 66
     1
 10
0.0
 20
0.0
 30
0.0
  0
VERTEX
  5
48A
  8
0
  6
CONTINUOUS
 62
     7
 10
197.7474353372
 20
483.7862885647
 30
0.0
  0
VERTEX
  5
48B
  8
0
  6
CONTINUOUS
 62
     7
 10
197.7471112369
 20
483.7869442158
 30
0.0
  0
VERTEX
  5
48C
  8
0
  6
CONTINUOUS
 62
     7
 10
197.7599970161
 20
483.7609416895
 30
0.0
  0
VERTEX
  5
48D
  8
0
  6
CONTINUOUS
 62
     7
 10
197.7970971821
 20
483.6859515958
 30
0.0
  0
VERTEX
  5
48E
  8
0
  6
CONTINUOUS
 62
     7
 10
197.8583186029
 20
483.5620633417
 30
0.0
  0
VERTEX
  5
48F
  8
0
  6
CONTINUOUS
 62
     7
 10
197.943579322
 20
483.38931418
 30
0.0
  0
VERTEX
  5
490
  8
0
  6
CONTINUOUS
 62
     7
 10
198.0525701402
 20
483.1679499798
 30
0.0
  0
VERTEX
  5
491
  8
0
  6
CONTINUOUS
 62
     7
 10
198.1848700999
 20
482.898402875
 30
0.0
  0
VERTEX
  5
492
  8
0
  6
CONTINUOUS
 62
     7
 10
198.3400507926
 20
482.5811273509
 30
0.0
  0
VERTEX
  5
493
  8
0
  6
CONTINUOUS
 62
     7
 10
198.5289602636
 20
482.1933097296
 30
0.0
  0
VERTEX
  5
494
  8
0
  6
CONTINUOUS
 62
     7
 10
198.7425274311
 20
481.7526451402
 30
0.0
  0
VERTEX
  5
495
  8
0
  6
CONTINUOUS
 62
     7
 10
198.9798954784
 20
481.2599903994
 30
0.0
  0
VERTEX
  5
496
  8
0
  6
CONTINUOUS
 62
     7
 10
199.2402113138
 20
480.7162097745
 30
0.0
  0
VERTEX
  5
497
  8
0
  6
CONTINUOUS
 62
     7
 10
199.4832567035
 20
480.2051670008
 30
0.0
  0
VERTEX
  5
498
  8
0
  6
CONTINUOUS
 62
     7
 10
199.7423506437
 20
479.6566701584
 30
0.0
  0
VERTEX
  5
499
  8
0
  6
CONTINUOUS
 62
     7
 10
200.0167890547
 20
479.0714047008
 30
0.0
  0
VERTEX
  5
49A
  8
0
  6
CONTINUOUS
 62
     7
 10
200.3077305018
 20
478.4460253172
 30
0.0
  0
VERTEX
  5
49B
  8
0
  6
CONTINUOUS
 62
     7
 10
200.6129435359
 20
477.7843094521
 30
0.0
  0
VERTEX
  5
49C
  8
0
  6
CONTINUOUS
 62
     7
 10
200.9316216319
 20
477.0870170646
 30
0.0
  0
SEQEND
  5
788
  8
0
  6
CONTINUOUS
 62
     7
  0
LINE
  5
138
  8
0
  6
CONTINUOUS
 62
     7
 10
207.1598003714
 20
353.2435315751
 30
0.0
 11
210.956063038
 21
359.9891168156
 31
0.0
  0
LINE
  5
139
  8
0
  6
CONTINUOUS
 62
     7
 10
256.6203343778
 20
353.2435315751
 30
0.0
 11
252.8240717112
 21
359.9891168156
 31
0.0
  0
ARC
  5
13A
  8
0
  6
CONTINUOUS
 62
     7
 10
231.8900673746
 20
446.6809585322
 30
0.0
 40
38.97305536725419
 50
82.6289935444
 51
97.3710064556
  0
LINE
  5
13B
  8
0
  6
CONTINUOUS
 62
     7
 10
226.8900674863
 20
527.3393726998
 30
0.0
 11
226.8900674863
 21
485.3319487625
 31
0.0
  0
LINE
  5
13C
  8
0
  6
CONTINUOUS
 62
     7
 10
236.8900672628
 20
527.3393726998
 30
0.0
 11
236.8900672628
 21
485.3319487625
 31
0.0
  0
LINE
  5
13D
  8
0
  6
CONTINUOUS
 62
     7
 10
236.8900672628
 20
530.287016099
 30
0.0
 11
226.8900674863
 21
530.287016099
 31
0.0
  0
LINE
  5
13E
  8
0
  6
CONTINUOUS
 62
     7
 10
226.8900674863
 20
530.287016099
 30
0.0
 11
226.8900674863
 21
527.3393726998
 31
0.0
  0
LINE
  5
13F
  8
0
  6
CONTINUOUS
 62
     7
 10
236.8900672628
 20
530.287016099
 30
0.0
 11
236.8900672628
 21
527.3393726998
 31
0.0
  0
LINE
  5
140
  8
0
  6
CONTINUOUS
 62
     7
 10
251.3433675377
 20
530.287016099
 30
0.0
 11
236.8900672628
 21
530.287016099
 31
0.0
  0
LINE
  5
141
  8
0
  6
CONTINUOUS
 62
     7
 10
226.8900674863
 20
530.287016099
 30
0.0
 11
212.4367672114
 21
530.287016099
 31
0.0
  0
ARC
  5
142
  8
0
  6
CONTINUOUS
 62
     7
 10
233.1389214699
 20
427.8639981894
 30
0.0
 40
35.21445438048916
 50
180.1274891817
 51
188.1217358935
  0
ARC
  5
143
  8
0
  6
CONTINUOUS
 62
     7
 10
230.6412132793
 20
427.8639981894
 30
0.0
 40
35.21445438048921
 50
351.8782641065
 51
359.8725108183
  0
LINE
  5
144
  8
0
  6
CONTINUOUS
 62
     7
 10
265.8555804847
 20
442.6337963992
 30
0.0
 11
265.8555804847
 21
427.785642361
 31
0.0
  0
LINE
  5
145
  8
0
  6
CONTINUOUS
 62
     7
 10
197.9245542644
 20
442.6337963992
 30
0.0
 11
197.9245542644
 21
427.785642361
 31
0.0
  0
LINE
  5
146
  8
0
  6
CONTINUOUS
 62
     7
 10
211.3296686767
 20
346.7641062193
 30
0.0
 11
252.4504660724
 21
346.7641062193
 31
0.0
  0
POLYLINE
  5
147
  8
0
  6
CONTINUOUS
 62
     7
 66
     1
 10
0.0
 20
0.0
 30
0.0
  0
VERTEX
  5
49D
  8
0
  6
CONTINUOUS
 62
     7
 10
240.1562350898
 20
536.5909970456
 30
0.0
  0
VERTEX
  5
49E
  8
0
  6
CONTINUOUS
 62
     7
 10
240.0559698327
 20
538.8874447995
 30
0.0
  0
VERTEX
  5
49F
  8
0
  6
CONTINUOUS
 62
     7
 10
239.9496174513
 20
541.3233227187
 30
0.0
  0
VERTEX
  5
4A0
  8
0
  6
CONTINUOUS
 62
     7
 10
239.8372561766
 20
543.8968128615
 30
0.0
  0
VERTEX
  5
4A1
  8
0
  6
CONTINUOUS
 62
     7
 10
239.7189698278
 20
546.6060227805
 30
0.0
  0
VERTEX
  5
4A2
  8
0
  6
CONTINUOUS
 62
     7
 10
239.5948468803
 20
549.4488961154
 30
0.0
  0
VERTEX
  5
4A3
  8
0
  6
CONTINUOUS
 62
     7
 10
239.4649795352
 20
552.4233467036
 30
0.0
  0
VERTEX
  5
4A4
  8
0
  6
CONTINUOUS
 62
     7
 10
239.32946465
 20
555.527139371
 30
0.0
  0
VERTEX
  5
4A5
  8
0
  6
CONTINUOUS
 62
     7
 10
239.1884037389
 20
558.7579793387
 30
0.0
  0
VERTEX
  5
4A6
  8
0
  6
CONTINUOUS
 62
     7
 10
239.0419015756
 20
562.1134228163
 30
0.0
  0
VERTEX
  5
4A7
  8
0
  6
CONTINUOUS
 62
     7
 10
238.8900675906
 20
565.5909962111
 30
0.0
  0
SEQEND
  5
787
  8
0
  6
CONTINUOUS
 62
     7
  0
POLYLINE
  5
148
  8
0
  6
CONTINUOUS
 62
     7
 66
     1
 10
0.0
 20
0.0
 30
0.0
  0
VERTEX
  5
4A8
  8
0
  6
CONTINUOUS
 62
     7
 10
240.8900669871
 20
535.8571744614
 30
0.0
  0
VERTEX
  5
4A9
  8
0
  6
CONTINUOUS
 62
     7
 10
240.8839193268
 20
535.8633137398
 30
0.0
  0
VERTEX
  5
4AA
  8
0
  6
CONTINUOUS
 62
     7
 10
240.8654828651
 20
535.8817613774
 30
0.0
  0
VERTEX
  5
4AB
  8
0
  6
CONTINUOUS
 62
     7
 10
240.8347827478
 20
535.9124577694
 30
0.0
  0
VERTEX
  5
4AC
  8
0
  6
CONTINUOUS
 62
     7
 10
240.7918627469
 20
535.9553731137
 30
0.0
  0
VERTEX
  5
4AD
  8
0
  6
CONTINUOUS
 62
     7
 10
240.7367796733
 20
536.0104627066
 30
0.0
  0
VERTEX
  5
4AE
  8
0
  6
CONTINUOUS
 62
     7
 10
240.6696098952
 20
536.0776222401
 30
0.0
  0
VERTEX
  5
4AF
  8
0
  6
CONTINUOUS
 62
     7
 10
240.5904446824
 20
536.1567921095
 30
0.0
  0
VERTEX
  5
4B0
  8
0
  6
CONTINUOUS
 62
     7
 10
240.4993920683
 20
536.2478531056
 30
0.0
  0
VERTEX
  5
4B1
  8
0
  6
CONTINUOUS
 62
     7
 10
240.3965759187
 20
536.3506562167
 30
0.0
  0
VERTEX
  5
4B2
  8
0
  6
CONTINUOUS
 62
     7
 10
240.282138726
 20
536.4650971346
 30
0.0
  0
VERTEX
  5
4B3
  8
0
  6
CONTINUOUS
 62
     7
 10
240.1562350898
 20
536.5909970456
 30
0.0
  0
SEQEND
  5
786
  8
0
  6
CONTINUOUS
 62
     7
  0
POLYLINE
  5
149
  8
0
  6
CONTINUOUS
 62
     7
 66
     1
 10
0.0
 20
0.0
 30
0.0
  0
VERTEX
  5
4B4
  8
0
  6
CONTINUOUS
 62
     7
 10
223.6238996594
 20
536.5909970456
 30
0.0
  0
VERTEX
  5
4B5
  8
0
  6
CONTINUOUS
 62
     7
 10
223.4979960232
 20
536.4650971346
 30
0.0
  0
VERTEX
  5
4B6
  8
0
  6
CONTINUOUS
 62
     7
 10
223.3835588305
 20
536.3506562167
 30
0.0
  0
VERTEX
  5
4B7
  8
0
  6
CONTINUOUS
 62
     7
 10
223.2807426809
 20
536.2478531056
 30
0.0
  0
VERTEX
  5
4B8
  8
0
  6
CONTINUOUS
 62
     7
 10
223.1896900667
 20
536.1567921095
 30
0.0
  0
VERTEX
  5
4B9
  8
0
  6
CONTINUOUS
 62
     7
 10
223.1105248539
 20
536.0776222401
 30
0.0
  0
VERTEX
  5
4BA
  8
0
  6
CONTINUOUS
 62
     7
 10
223.0433550759
 20
536.0104627066
 30
0.0
  0
VERTEX
  5
4BB
  8
0
  6
CONTINUOUS
 62
     7
 10
222.9882720022
 20
535.9553731137
 30
0.0
  0
VERTEX
  5
4BC
  8
0
  6
CONTINUOUS
 62
     7
 10
222.9453520014
 20
535.9124577694
 30
0.0
  0
VERTEX
  5
4BD
  8
0
  6
CONTINUOUS
 62
     7
 10
222.914651884
 20
535.8817613774
 30
0.0
  0
VERTEX
  5
4BE
  8
0
  6
CONTINUOUS
 62
     7
 10
222.8962154223
 20
535.8633137398
 30
0.0
  0
VERTEX
  5
4BF
  8
0
  6
CONTINUOUS
 62
     7
 10
222.890067762
 20
535.8571744614
 30
0.0
  0
SEQEND
  5
785
  8
0
  6
CONTINUOUS
 62
     7
  0
POLYLINE
  5
14A
  8
0
  6
CONTINUOUS
 62
     7
 66
     1
 10
0.0
 20
0.0
 30
0.0
  0
VERTEX
  5
4C0
  8
0
  6
CONTINUOUS
 62
     7
 10
224.8900671585
 20
565.5909962111
 30
0.0
  0
VERTEX
  5
4C1
  8
0
  6
CONTINUOUS
 62
     7
 10
224.7382331735
 20
562.1134228163
 30
0.0
  0
VERTEX
  5
4C2
  8
0
  6
CONTINUOUS
 62
     7
 10
224.5917310103
 20
558.7579793387
 30
0.0
  0
VERTEX
  5
4C3
  8
0
  6
CONTINUOUS
 62
     7
 10
224.4506700991
 20
555.527139371
 30
0.0
  0
VERTEX
  5
4C4
  8
0
  6
CONTINUOUS
 62
     7
 10
224.3151552139
 20
552.4233467036
 30
0.0
  0
VERTEX
  5
4C5
  8
0
  6
CONTINUOUS
 62
     7
 10
224.1852878689
 20
549.4488961154
 30
0.0
  0
VERTEX
  5
4C6
  8
0
  6
CONTINUOUS
 62
     7
 10
224.0611649214
 20
546.6060227805
 30
0.0
  0
VERTEX
  5
4C7
  8
0
  6
CONTINUOUS
 62
     7
 10
223.9428785725
 20
543.8968128615
 30
0.0
  0
VERTEX
  5
4C8
  8
0
  6
CONTINUOUS
 62
     7
 10
223.8305172979
 20
541.3233227187
 30
0.0
  0
VERTEX
  5
4C9
  8
0
  6
CONTINUOUS
 62
     7
 10
223.7241649164
 20
538.8874447995
 30
0.0
  0
VERTEX
  5
4CA
  8
0
  6
CONTINUOUS
 62
     7
 10
223.6238996594
 20
536.5909970456
 30
0.0
  0
SEQEND
  5
784
  8
0
  6
CONTINUOUS
 62
     7
  0
LINE
  5
14B
  8
0
  6
CONTINUOUS
 62
     7
 10
224.8900671585
 20
565.5909962111
 30
0.0
 11
226.233213125
 21
565.5909962111
 31
0.0
  0
POLYLINE
  5
14C
  8
0
  6
CONTINUOUS
 62
     7
 66
     1
 10
0.0
 20
0.0
 30
0.0
  0
VERTEX
  5
4CB
  8
0
  6
CONTINUOUS
 62
     7
 10
228.3305059283
 20
536.5909970456
 30
0.0
  0
VERTEX
  5
4CC
  8
0
  6
CONTINUOUS
 62
     7
 10
228.1061496216
 20
538.8874447995
 30
0.0
  0
VERTEX
  5
4CD
  8
0
  6
CONTINUOUS
 62
     7
 10
227.8846147566
 20
541.3233227187
 30
0.0
  0
VERTEX
  5
4CE
  8
0
  6
CONTINUOUS
 62
     7
 10
227.6660654789
 20
543.8968128615
 30
0.0
  0
VERTEX
  5
4CF
  8
0
  6
CONTINUOUS
 62
     7
 10
227.4506659343
 20
546.6060227805
 30
0.0
  0
VERTEX
  5
4D0
  8
0
  6
CONTINUOUS
 62
     7
 10
227.2385758443
 20
549.4488961154
 30
0.0
  0
VERTEX
  5
4D1
  8
0
  6
CONTINUOUS
 62
     7
 10
227.029953534
 20
552.4233467036
 30
0.0
  0
VERTEX
  5
4D2
  8
0
  6
CONTINUOUS
 62
     7
 10
226.8249549999
 20
555.527139371
 30
0.0
  0
VERTEX
  5
4D3
  8
0
  6
CONTINUOUS
 62
     7
 10
226.6237325131
 20
558.7579793387
 30
0.0
  0
VERTEX
  5
4D4
  8
0
  6
CONTINUOUS
 62
     7
 10
226.4264360166
 20
562.1134228163
 30
0.0
  0
VERTEX
  5
4D5
  8
0
  6
CONTINUOUS
 62
     7
 10
226.233213125
 20
565.5909962111
 30
0.0
  0
SEQEND
  5
783
  8
0
  6
CONTINUOUS
 62
     7
  0
ARC
  5
14D
  8
0
  6
CONTINUOUS
 62
     7
 10
231.8900673746
 20
544.8572078997
 30
0.0
 40
9.000039976333413
 50
246.7025222577
 51
293.2974777423
  0
POLYLINE
  5
14E
  8
0
  6
CONTINUOUS
 62
     7
 66
     1
 10
0.0
 20
0.0
 30
0.0
  0
VERTEX
  5
4D6
  8
0
  6
CONTINUOUS
 62
     7
 10
237.5469216241
 20
565.5909962111
 30
0.0
  0
VERTEX
  5
4D7
  8
0
  6
CONTINUOUS
 62
     7
 10
237.3536987326
 20
562.1134228163
 30
0.0
  0
VERTEX
  5
4D8
  8
0
  6
CONTINUOUS
 62
     7
 10
237.1564022361
 20
558.7579793387
 30
0.0
  0
VERTEX
  5
4D9
  8
0
  6
CONTINUOUS
 62
     7
 10
236.9551797493
 20
555.527139371
 30
0.0
  0
VERTEX
  5
4DA
  8
0
  6
CONTINUOUS
 62
     7
 10
236.7501812151
 20
552.4233467036
 30
0.0
  0
VERTEX
  5
4DB
  8
0
  6
CONTINUOUS
 62
     7
 10
236.5415589048
 20
549.4488961154
 30
0.0
  0
VERTEX
  5
4DC
  8
0
  6
CONTINUOUS
 62
     7
 10
236.3294688149
 20
546.6060227805
 30
0.0
  0
VERTEX
  5
4DD
  8
0
  6
CONTINUOUS
 62
     7
 10
236.1140692702
 20
543.8968128615
 30
0.0
  0
VERTEX
  5
4DE
  8
0
  6
CONTINUOUS
 62
     7
 10
235.8955199926
 20
541.3233227187
 30
0.0
  0
VERTEX
  5
4DF
  8
0
  6
CONTINUOUS
 62
     7
 10
235.6739851276
 20
538.8874447995
 30
0.0
  0
VERTEX
  5
4E0
  8
0
  6
CONTINUOUS
 62
     7
 10
235.4496288209
 20
536.5909970456
 30
0.0
  0
SEQEND
  5
782
  8
0
  6
CONTINUOUS
 62
     7
  0
LINE
  5
14F
  8
0
  6
CONTINUOUS
 62
     7
 10
237.5469216241
 20
565.5909962111
 30
0.0
 11
238.8900675906
 21
565.5909962111
 31
0.0
  0
LINE
  5
150
  8
0
  6
CONTINUOUS
 62
     7
 10
235.4496288209
 20
536.5909970456
 30
0.0
 11
228.3305059283
 21
536.5909970456
 31
0.0
  0
LINE
  5
151
  8
0
  6
CONTINUOUS
 62
     7
 10
237.5469216241
 20
565.5909962111
 30
0.0
 11
226.233213125
 21
565.5909962111
 31
0.0
  0
LINE
  5
152
  8
0
  6
CONTINUOUS
 62
     7
 10
188.7452117263
 20
406.0518591755
 30
0.0
 11
177.9378726243
 21
408.1525950783
 31
0.0
  0
ARC
  5
153
  8
0
  6
CONTINUOUS
 62
     7
 10
189.8900673746
 20
411.9416235828
 30
0.0
 40
6.000000000000044
 50
259.0
 51
0.0
  0
LINE
  5
154
  8
0
  6
CONTINUOUS
 62
     7
 10
195.8900689243
 20
442.9924747997
 30
0.0
 11
195.8900689243
 21
411.9416250938
 31
0.0
  0
LINE
  5
155
  8
0
  6
CONTINUOUS
 62
     7
 10
267.8900658249
 20
442.9924747997
 30
0.0
 11
267.8900658249
 21
411.9416250938
 31
0.0
  0
ARC
  5
156
  8
0
  6
CONTINUOUS
 62
     7
 10
273.8900673746
 20
411.9416235828
 30
0.0
 40
6.000000000000044
 50
180.0
 51
281.0
  0
LINE
  5
157
  8
0
  6
CONTINUOUS
 62
     7
 10
275.0349230229
 20
406.0518591755
 30
0.0
 11
285.8422621249
 21
408.1525950783
 31
0.0
  0
ARC
  5
158
  8
0
  6
CONTINUOUS
 62
     7
 10
251.4875757888
 20
336.5870203429
 30
0.0
 40
6.000000000000038
 50
79.0
 51
90.0
  0
LINE
  5
159
  8
0
  6
CONTINUOUS
 62
     7
 10
251.4875753878
 20
342.5870201641
 30
0.0
 11
212.2925593613
 21
342.5870201641
 31
0.0
  0
ARC
  5
15A
  8
0
  6
CONTINUOUS
 62
     7
 10
212.2925589604
 20
336.5870203429
 30
0.0
 40
6.000000000000044
 50
90.0
 51
101.0
  0
LINE
  5
15B
  8
0
  6
CONTINUOUS
 62
     7
 10
177.9378726243
 20
336.0214456075
 30
0.0
 11
211.1477050095
 21
342.4767832362
 31
0.0
  0
LINE
  5
15C
  8
0
  6
CONTINUOUS
 62
     7
 10
285.8422621249
 20
336.0214456075
 30
0.0
 11
252.6324297397
 21
342.4767832362
 31
0.0
  0
ARC
  5
15D
  8
0
  6
CONTINUOUS
 62
     7
 10
253.2278180643
 20
527.4789079745
 30
0.0
 40
2.816342246196466
 50
357.1601261354
 51
85.6176261568
  0
LINE
  5
15E
  8
0
  6
CONTINUOUS
 62
     7
 10
256.0407015591
 20
527.3393726998
 30
0.0
 11
256.6536515115
 21
486.7911375218
 31
0.0
  0
LINE
  5
15F
  8
0
  6
CONTINUOUS
 62
     7
 10
251.3433675377
 20
530.287016099
 30
0.0
 11
253.4430212437
 21
530.287016099
 31
0.0
  0
LINE
  5
160
  8
0
  6
CONTINUOUS
 62
     7
 10
207.7394331901
 20
527.3393726998
 30
0.0
 11
207.1264832376
 21
486.7911375218
 31
0.0
  0
ARC
  5
161
  8
0
  6
CONTINUOUS
 62
     7
 10
210.5523166848
 20
527.4789079745
 30
0.0
 40
2.816342246196359
 50
94.3823738432
 51
182.8398738646
  0
LINE
  5
162
  8
0
  6
CONTINUOUS
 62
     7
 10
212.4367672114
 20
530.287016099
 30
0.0
 11
210.3371135055
 21
530.287016099
 31
0.0
  0
LINE
  5
163
  8
0
  6
CONTINUOUS
 62
     7
 10
167.8900643347
 20
373.5723116293
 30
0.0
 11
167.8900643347
 21
447.0870233231
 31
0.0
  0
LINE
  5
164
  8
0
  6
CONTINUOUS
 62
     7
 10
167.8900643347
 20
297.0870173626
 30
0.0
 11
167.8900643347
 21
370.6017290565
 31
0.0
  0
LINE
  5
165
  8
0
  6
CONTINUOUS
 62
     7
 10
295.8900704144
 20
373.5723116293
 30
0.0
 11
295.8900704144
 21
447.0870233231
 31
0.0
  0
LINE
  5
166
  8
0
  6
CONTINUOUS
 62
     7
 10
295.8900704144
 20
297.0870173626
 30
0.0
 11
295.8900704144
 21
370.6017290565
 31
0.0
  0
LINE
  5
167
  8
0
  6
CONTINUOUS
 62
     7
 10
174.8900673448
 20
447.0870233231
 30
0.0
 11
174.8900673448
 21
373.5723116293
 31
0.0
  0
ARC
  5
168
  8
0
  6
CONTINUOUS
 62
     7
 10
175.1809987242
 20
315.8056750158
 30
0.0
 40
2.732492056132744
 50
263.888071625
 51
352.4922997199
  0
LINE
  5
169
  8
0
  6
CONTINUOUS
 62
     7
 10
174.8900673448
 20
370.6017290565
 30
0.0
 11
174.8900673448
 21
313.0887149923
 31
0.0
  0
LINE
  5
16A
  8
0
  6
CONTINUOUS
 62
     7
 10
288.8900674044
 20
370.6017290565
 30
0.0
 11
288.8900674044
 21
313.0887149923
 31
0.0
  0
ARC
  5
16B
  8
0
  6
CONTINUOUS
 62
     7
 10
288.599136025
 20
315.8056750158
 30
0.0
 40
2.732492056132747
 50
187.5077002801
 51
276.111928375
  0
LINE
  5
16C
  8
0
  6
CONTINUOUS
 62
     7
 10
288.8900674044
 20
447.0870233231
 30
0.0
 11
288.8900674044
 21
373.5723116293
 31
0.0
  0
LINE
  5
16D
  8
0
  6
CONTINUOUS
 62
     7
 10
174.8900673448
 20
313.0887149923
 30
0.0
 11
173.8900690435
 21
313.0887149923
 31
0.0
  0
LINE
  5
16E
  8
0
  6
CONTINUOUS
 62
     7
 10
288.8900674044
 20
313.0887149923
 30
0.0
 11
289.8900657056
 21
313.0887149923
 31
0.0
  0
LINE
  5
16F
  8
0
  6
CONTINUOUS
 62
     7
 10
261.2503505407
 20
452.0870185547
 30
0.0
 11
261.1637431292
 21
459.0870178395
 31
0.0
  0
LINE
  5
170
  8
0
  6
CONTINUOUS
 62
     7
 10
202.5297842084
 20
452.0870185547
 30
0.0
 11
202.6163916199
 21
459.0870178395
 31
0.0
  0
LINE
  5
171
  8
0
  6
CONTINUOUS
 62
     7
 10
261.1637431292
 20
459.6517047935
 30
0.0
 11
261.1637431292
 21
459.0870178395
 31
0.0
  0
LINE
  5
172
  8
0
  6
CONTINUOUS
 62
     7
 10
202.6163916199
 20
459.6517047935
 30
0.0
 11
202.6163916199
 21
459.0870178395
 31
0.0
  0
LINE
  5
173
  8
0
  6
CONTINUOUS
 62
     7
 10
260.5021427481
 20
460.145857101
 30
0.0
 11
261.1637431292
 21
459.6517047935
 31
0.0
  0
LINE
  5
174
  8
0
  6
CONTINUOUS
 62
     7
 10
203.277992001
 20
460.145857101
 30
0.0
 11
202.6163916199
 21
459.6517047935
 31
0.0
  0
LINE
  5
175
  8
0
  6
CONTINUOUS
 62
     7
 10
260.0939775913
 20
444.5170647555
 30
0.0
 11
260.185239753
 21
452.0870185547
 31
0.0
  0
LINE
  5
176
  8
0
  6
CONTINUOUS
 62
     7
 10
203.6861571579
 20
444.5170647555
 30
0.0
 11
203.5948949962
 21
452.0870185547
 31
0.0
  0
LINE
  5
177
  8
0
  6
CONTINUOUS
 62
     7
 10
204.7918885111
 20
443.6695239597
 30
0.0
 11
203.6861571579
 21
444.5170647555
 31
0.0
  0
LINE
  5
178
  8
0
  6
CONTINUOUS
 62
     7
 10
258.9882462381
 20
443.6695239597
 30
0.0
 11
260.0939775913
 21
444.5170647555
 31
0.0
  0
LINE
  5
179
  8
0
  6
CONTINUOUS
 62
     7
 10
193.5990451931
 20
452.0870185547
 30
0.0
 11
193.9505784868
 21
459.0870178395
 31
0.0
  0
LINE
  5
17A
  8
0
  6
CONTINUOUS
 62
     7
 10
270.1810895561
 20
452.0870185547
 30
0.0
 11
269.8295562624
 21
459.0870178395
 31
0.0
  0
LINE
  5
17B
  8
0
  6
CONTINUOUS
 62
     7
 10
193.9505784868
 20
459.6517047935
 30
0.0
 11
193.9505784868
 21
459.0870178395
 31
0.0
  0
LINE
  5
17C
  8
0
  6
CONTINUOUS
 62
     7
 10
269.8295562624
 20
459.6517047935
 30
0.0
 11
269.8295562624
 21
459.0870178395
 31
0.0
  0
LINE
  5
17D
  8
0
  6
CONTINUOUS
 62
     7
 10
266.5338105618
 20
460.2581671529
 30
0.0
 11
269.8295562624
 21
459.6517047935
 31
0.0
  0
LINE
  5
17E
  8
0
  6
CONTINUOUS
 62
     7
 10
197.2463241874
 20
460.2581671529
 30
0.0
 11
193.9505784868
 21
459.6517047935
 31
0.0
  0
LINE
  5
17F
  8
0
  6
CONTINUOUS
 62
     7
 10
269.287437117
 20
444.5170647555
 30
0.0
 11
269.668091005
 21
452.0870185547
 31
0.0
  0
LINE
  5
180
  8
0
  6
CONTINUOUS
 62
     7
 10
194.4926976322
 20
444.5170647555
 30
0.0
 11
194.1120437442
 21
452.0870185547
 31
0.0
  0
LINE
  5
181
  8
0
  6
CONTINUOUS
 62
     7
 10
199.8293138205
 20
443.5363522821
 30
0.0
 11
194.4926976322
 21
444.5170647555
 31
0.0
  0
LINE
  5
182
  8
0
  6
CONTINUOUS
 62
     7
 10
263.9508209287
 20
443.5363522821
 30
0.0
 11
269.287437117
 21
444.5170647555
 31
0.0
  0
LINE
  5
183
  8
0
  6
CONTINUOUS
 62
     7
 10
242.8791941239
 20
462.9148132258
 30
0.0
 11
243.3549267335
 21
477.0870170646
 31
0.0
  0
LINE
  5
184
  8
0
  6
CONTINUOUS
 62
     7
 10
220.9009406252
 20
462.9148132258
 30
0.0
 11
220.4252080156
 21
477.0870170646
 31
0.0
  0
LINE
  5
185
  8
0
  6
CONTINUOUS
 62
     7
 10
263.3707634269
 20
423.0870193892
 30
0.0
 11
264.4393964766
 21
443.4847272091
 31
0.0
  0
LINE
  5
186
  8
0
  6
CONTINUOUS
 62
     7
 10
254.8934946864
 20
423.0870193892
 30
0.0
 11
254.8934946864
 21
443.6747840696
 31
0.0
  0
LINE
  5
187
  8
0
  6
CONTINUOUS
 62
     7
 10
208.8866400628
 20
423.0870193892
 30
0.0
 11
208.8866400628
 21
443.6747840696
 31
0.0
  0
LINE
  5
188
  8
0
  6
CONTINUOUS
 62
     7
 10
200.4093713223
 20
423.0870193892
 30
0.0
 11
199.3407382725
 21
443.4847272091
 31
0.0
  0
LINE
  5
189
  8
0
  6
CONTINUOUS
 62
     7
 10
288.8900674044
 20
313.0887149923
 30
0.0
 11
288.8900674044
 21
311.7548449987
 31
0.0
  0
POLYLINE
  5
18A
  8
0
  6
CONTINUOUS
 62
     7
 66
     1
 10
0.0
 20
0.0
 30
0.0
  0
VERTEX
  5
4E1
  8
0
  6
CONTINUOUS
 62
     7
 10
288.8900674044
 20
311.7548449987
 30
0.0
  0
VERTEX
  5
4E2
  8
0
  6
CONTINUOUS
 62
     7
 10
288.6658757089
 20
311.7577134722
 30
0.0
  0
VERTEX
  5
4E3
  8
0
  6
CONTINUOUS
 62
     7
 10
288.4429394363
 20
311.7663039916
 30
0.0
  0
VERTEX
  5
4E4
  8
0
  6
CONTINUOUS
 62
     7
 10
288.2225028335
 20
311.7805718535
 30
0.0
  0
VERTEX
  5
4E5
  8
0
  6
CONTINUOUS
 62
     7
 10
288.0058026968
 20
311.800431376
 30
0.0
  0
VERTEX
  5
4E6
  8
0
  6
CONTINUOUS
 62
     7
 10
287.7940460204
 20
311.8257745259
 30
0.0
  0
VERTEX
  5
4E7
  8
0
  6
CONTINUOUS
 62
     7
 10
287.5884174465
 20
311.8564560168
 30
0.0
  0
VERTEX
  5
4E8
  8
0
  6
CONTINUOUS
 62
     7
 10
287.3900680898
 20
311.892311936
 30
0.0
  0
VERTEX
  5
4E9
  8
0
  6
CONTINUOUS
 62
     7
 10
287.2001080869
 20
311.933133667
 30
0.0
  0
VERTEX
  5
4EA
  8
0
  6
CONTINUOUS
 62
     7
 10
287.0195991455
 20
311.9786976927
 30
0.0
  0
VERTEX
  5
4EB
  8
0
  6
CONTINUOUS
 62
     7
 10
286.8495508193
 20
312.0287506931
 30
0.0
  0
VERTEX
  5
4EC
  8
0
  6
CONTINUOUS
 62
     7
 10
286.6909130572
 20
312.083005821
 30
0.0
  0
VERTEX
  5
4ED
  8
0
  6
CONTINUOUS
 62
     7
 10
286.5445724784
 20
312.1411687785
 30
0.0
  0
VERTEX
  5
4EE
  8
0
  6
CONTINUOUS
 62
     7
 10
286.411352372
 20
312.2029042893
 30
0.0
  0
VERTEX
  5
4EF
  8
0
  6
CONTINUOUS
 62
     7
 10
286.2919903456
 20
312.2678770774
 30
0.0
  0
VERTEX
  5
4F0
  8
0
  6
CONTINUOUS
 62
     7
 10
286.1871606766
 20
312.3357146137
 30
0.0
  0
VERTEX
  5
4F1
  8
0
  6
CONTINUOUS
 62
     7
 10
286.0974445103
 20
312.4060443693
 30
0.0
  0
VERTEX
  5
4F2
  8
0
  6
CONTINUOUS
 62
     7
 10
286.0233484863
 20
312.478467738
 30
0.0
  0
VERTEX
  5
4F3
  8
0
  6
CONTINUOUS
 62
     7
 10
285.9652823864
 20
312.5525861137
 30
0.0
  0
VERTEX
  5
4F4
  8
0
  6
CONTINUOUS
 62
     7
 10
285.9235740362
 20
312.6279785388
 30
0.0
  0
VERTEX
  5
4F5
  8
0
  6
CONTINUOUS
 62
     7
 10
285.8984544038
 20
312.7042277806
 30
0.0
  0
VERTEX
  5
4F6
  8
0
  6
CONTINUOUS
 62
     7
 10
285.8900687753
 20
312.7809054308
 30
0.0
  0
SEQEND
  5
781
  8
0
  6
CONTINUOUS
 62
     7
  0
POLYLINE
  5
18B
  8
0
  6
CONTINUOUS
 62
     7
 66
     1
 10
0.0
 20
0.0
 30
0.0
  0
VERTEX
  5
4F7
  8
0
  6
CONTINUOUS
 62
     7
 10
174.8900673448
 20
311.7548449987
 30
0.0
  0
VERTEX
  5
4F8
  8
0
  6
CONTINUOUS
 62
     7
 10
175.1142590402
 20
311.7577134722
 30
0.0
  0
VERTEX
  5
4F9
  8
0
  6
CONTINUOUS
 62
     7
 10
175.3371953129
 20
311.7663039916
 30
0.0
  0
VERTEX
  5
4FA
  8
0
  6
CONTINUOUS
 62
     7
 10
175.5576319157
 20
311.7805718535
 30
0.0
  0
VERTEX
  5
4FB
  8
0
  6
CONTINUOUS
 62
     7
 10
175.7743320523
 20
311.800431376
 30
0.0
  0
VERTEX
  5
4FC
  8
0
  6
CONTINUOUS
 62
     7
 10
175.9860887288
 20
311.8257745259
 30
0.0
  0
VERTEX
  5
4FD
  8
0
  6
CONTINUOUS
 62
     7
 10
176.1917173027
 20
311.8564560168
 30
0.0
  0
VERTEX
  5
4FE
  8
0
  6
CONTINUOUS
 62
     7
 10
176.3900666593
 20
311.892311936
 30
0.0
  0
VERTEX
  5
4FF
  8
0
  6
CONTINUOUS
 62
     7
 10
176.5800266622
 20
311.933133667
 30
0.0
  0
VERTEX
  5
500
  8
0
  6
CONTINUOUS
 62
     7
 10
176.7605356036
 20
311.9786976927
 30
0.0
  0
VERTEX
  5
501
  8
0
  6
CONTINUOUS
 62
     7
 10
176.9305839299
 20
312.0287506931
 30
0.0
  0
VERTEX
  5
502
  8
0
  6
CONTINUOUS
 62
     7
 10
177.089221692
 20
312.083005821
 30
0.0
  0
VERTEX
  5
503
  8
0
  6
CONTINUOUS
 62
     7
 10
177.2355622708
 20
312.1411687785
 30
0.0
  0
VERTEX
  5
504
  8
0
  6
CONTINUOUS
 62
     7
 10
177.3687823771
 20
312.2029042893
 30
0.0
  0
VERTEX
  5
505
  8
0
  6
CONTINUOUS
 62
     7
 10
177.4881444036
 20
312.2678770774
 30
0.0
  0
VERTEX
  5
506
  8
0
  6
CONTINUOUS
 62
     7
 10
177.5929740726
 20
312.3357146137
 30
0.0
  0
VERTEX
  5
507
  8
0
  6
CONTINUOUS
 62
     7
 10
177.6826902388
 20
312.4060443693
 30
0.0
  0
VERTEX
  5
508
  8
0
  6
CONTINUOUS
 62
     7
 10
177.7567862629
 20
312.478467738
 30
0.0
  0
VERTEX
  5
509
  8
0
  6
CONTINUOUS
 62
     7
 10
177.8148523627
 20
312.5525861137
 30
0.0
  0
VERTEX
  5
50A
  8
0
  6
CONTINUOUS
 62
     7
 10
177.8565607129
 20
312.6279785388
 30
0.0
  0
VERTEX
  5
50B
  8
0
  6
CONTINUOUS
 62
     7
 10
177.8816803454
 20
312.7042277806
 30
0.0
  0
VERTEX
  5
50C
  8
0
  6
CONTINUOUS
 62
     7
 10
177.8900659739
 20
312.7809054308
 30
0.0
  0
SEQEND
  5
780
  8
0
  6
CONTINUOUS
 62
     7
  0
LINE
  5
18C
  8
0
  6
CONTINUOUS
 62
     7
 10
174.8900673448
 20
313.0887149923
 30
0.0
 11
174.8900673448
 21
311.7548449987
 31
0.0
  0
LINE
  5
18D
  8
0
  6
CONTINUOUS
 62
     7
 10
173.8900690435
 20
311.7548449987
 30
0.0
 11
173.8900690435
 21
313.0887149923
 31
0.0
  0
ARC
  5
18E
  8
0
  6
CONTINUOUS
 62
     7
 10
173.8311612903
 20
319.2662101075
 30
0.0
 40
7.511596096824579
 50
257.0210676262
 51
270.4493319649
  0
LINE
  5
18F
  8
0
  6
CONTINUOUS
 62
     7
 10
173.8900690435
 20
311.7548449987
 30
0.0
 11
174.8900673448
 21
311.7548449987
 31
0.0
  0
LINE
  5
190
  8
0
  6
CONTINUOUS
 62
     7
 10
289.8900657056
 20
311.7548449987
 30
0.0
 11
289.8900657056
 21
313.0887149923
 31
0.0
  0
LINE
  5
191
  8
0
  6
CONTINUOUS
 62
     7
 10
289.8900657056
 20
311.7548449987
 30
0.0
 11
288.8900674044
 21
311.7548449987
 31
0.0
  0
ARC
  5
192
  8
0
  6
CONTINUOUS
 62
     7
 10
289.9489734588
 20
319.2662101075
 30
0.0
 40
7.511596096824602
 50
269.5506680351
 51
282.9789323738
  0
LINE
  5
193
  8
0
  6
CONTINUOUS
 62
     7
 10
289.8900657056
 20
299.0609592848
 30
0.0
 11
289.8900657056
 21
311.7548449987
 31
0.0
  0
LINE
  5
194
  8
0
  6
CONTINUOUS
 62
     7
 10
288.8900674044
 20
299.0609592848
 30
0.0
 11
289.8900657056
 21
299.0609592848
 31
0.0
  0
LINE
  5
195
  8
0
  6
CONTINUOUS
 62
     7
 10
288.8900674044
 20
311.7548449987
 30
0.0
 11
288.8900674044
 21
299.0609592848
 31
0.0
  0
POLYLINE
  5
196
  8
0
  6
CONTINUOUS
 62
     7
 66
     1
 10
0.0
 20
0.0
 30
0.0
  0
VERTEX
  5
50D
  8
0
  6
CONTINUOUS
 62
     7
 10
289.8900657056
 20
299.0609592848
 30
0.0
  0
VERTEX
  5
50E
  8
0
  6
CONTINUOUS
 62
     7
 10
290.1142574011
 20
299.0638277584
 30
0.0
  0
VERTEX
  5
50F
  8
0
  6
CONTINUOUS
 62
     7
 10
290.3371936737
 20
299.0724182778
 30
0.0
  0
VERTEX
  5
510
  8
0
  6
CONTINUOUS
 62
     7
 10
290.5576302766
 20
299.0866861396
 30
0.0
  0
VERTEX
  5
511
  8
0
  6
CONTINUOUS
 62
     7
 10
290.7743341385
 20
299.1065419369
 30
0.0
  0
VERTEX
  5
512
  8
0
  6
CONTINUOUS
 62
     7
 10
290.9860908149
 20
299.1318888121
 30
0.0
  0
VERTEX
  5
513
  8
0
  6
CONTINUOUS
 62
     7
 10
291.1917193888
 20
299.162570303
 30
0.0
  0
VERTEX
  5
514
  8
0
  6
CONTINUOUS
 62
     7
 10
291.3900687455
 20
299.1984224968
 30
0.0
  0
VERTEX
  5
515
  8
0
  6
CONTINUOUS
 62
     7
 10
291.5800287484
 20
299.2392516785
 30
0.0
  0
VERTEX
  5
516
  8
0
  6
CONTINUOUS
 62
     7
 10
291.7605376898
 20
299.2848119789
 30
0.0
  0
VERTEX
  5
517
  8
0
  6
CONTINUOUS
 62
     7
 10
291.9305860161
 20
299.3348649793
 30
0.0
  0
VERTEX
  5
518
  8
0
  6
CONTINUOUS
 62
     7
 10
292.0892237781
 20
299.3891201072
 30
0.0
  0
VERTEX
  5
519
  8
0
  6
CONTINUOUS
 62
     7
 10
292.2355606316
 20
299.4472793394
 30
0.0
  0
VERTEX
  5
51A
  8
0
  6
CONTINUOUS
 62
     7
 10
292.3687844633
 20
299.5090223008
 30
0.0
  0
VERTEX
  5
51B
  8
0
  6
CONTINUOUS
 62
     7
 10
292.4881427644
 20
299.5739913636
 30
0.0
  0
VERTEX
  5
51C
  8
0
  6
CONTINUOUS
 62
     7
 10
292.5929724334
 20
299.6418288999
 30
0.0
  0
VERTEX
  5
51D
  8
0
  6
CONTINUOUS
 62
     7
 10
292.6826885997
 20
299.7121549302
 30
0.0
  0
VERTEX
  5
51E
  8
0
  6
CONTINUOUS
 62
     7
 10
292.7567846237
 20
299.7845820242
 30
0.0
  0
VERTEX
  5
51F
  8
0
  6
CONTINUOUS
 62
     7
 10
292.8148507236
 20
299.8587003999
 30
0.0
  0
VERTEX
  5
520
  8
0
  6
CONTINUOUS
 62
     7
 10
292.8565590738
 20
299.934092825
 30
0.0
  0
VERTEX
  5
521
  8
0
  6
CONTINUOUS
 62
     7
 10
292.8816787063
 20
300.0103420668
 30
0.0
  0
VERTEX
  5
522
  8
0
  6
CONTINUOUS
 62
     7
 10
292.89006806
 20
300.0870234423
 30
0.0
  0
SEQEND
  5
77F
  8
0
  6
CONTINUOUS
 62
     7
  0
LINE
  5
197
  8
0
  6
CONTINUOUS
 62
     7
 10
173.8900690435
 20
299.0609592848
 30
0.0
 11
173.8900690435
 21
311.7548449987
 31
0.0
  0
POLYLINE
  5
198
  8
0
  6
CONTINUOUS
 62
     7
 66
     1
 10
0.0
 20
0.0
 30
0.0
  0
VERTEX
  5
523
  8
0
  6
CONTINUOUS
 62
     7
 10
173.8900690435
 20
299.0609592848
 30
0.0
  0
VERTEX
  5
524
  8
0
  6
CONTINUOUS
 62
     7
 10
173.6658773481
 20
299.0638277584
 30
0.0
  0
VERTEX
  5
525
  8
0
  6
CONTINUOUS
 62
     7
 10
173.4429410754
 20
299.0724182778
 30
0.0
  0
VERTEX
  5
526
  8
0
  6
CONTINUOUS
 62
     7
 10
173.2225044726
 20
299.0866861396
 30
0.0
  0
VERTEX
  5
527
  8
0
  6
CONTINUOUS
 62
     7
 10
173.0058006107
 20
299.1065419369
 30
0.0
  0
VERTEX
  5
528
  8
0
  6
CONTINUOUS
 62
     7
 10
172.7940439342
 20
299.1318888121
 30
0.0
  0
VERTEX
  5
529
  8
0
  6
CONTINUOUS
 62
     7
 10
172.5884153603
 20
299.162570303
 30
0.0
  0
VERTEX
  5
52A
  8
0
  6
CONTINUOUS
 62
     7
 10
172.3900660037
 20
299.1984224968
 30
0.0
  0
VERTEX
  5
52B
  8
0
  6
CONTINUOUS
 62
     7
 10
172.2001060008
 20
299.2392516785
 30
0.0
  0
VERTEX
  5
52C
  8
0
  6
CONTINUOUS
 62
     7
 10
172.0195970594
 20
299.2848119789
 30
0.0
  0
VERTEX
  5
52D
  8
0
  6
CONTINUOUS
 62
     7
 10
171.8495487331
 20
299.3348649793
 30
0.0
  0
VERTEX
  5
52E
  8
0
  6
CONTINUOUS
 62
     7
 10
171.690910971
 20
299.3891201072
 30
0.0
  0
VERTEX
  5
52F
  8
0
  6
CONTINUOUS
 62
     7
 10
171.5445741175
 20
299.4472793394
 30
0.0
  0
VERTEX
  5
530
  8
0
  6
CONTINUOUS
 62
     7
 10
171.4113502859
 20
299.5090223008
 30
0.0
  0
VERTEX
  5
531
  8
0
  6
CONTINUOUS
 62
     7
 10
171.2919919847
 20
299.5739913636
 30
0.0
  0
VERTEX
  5
532
  8
0
  6
CONTINUOUS
 62
     7
 10
171.1871623157
 20
299.6418288999
 30
0.0
  0
VERTEX
  5
533
  8
0
  6
CONTINUOUS
 62
     7
 10
171.0974461495
 20
299.7121549302
 30
0.0
  0
VERTEX
  5
534
  8
0
  6
CONTINUOUS
 62
     7
 10
171.0233501254
 20
299.7845820242
 30
0.0
  0
VERTEX
  5
535
  8
0
  6
CONTINUOUS
 62
     7
 10
170.9652840255
 20
299.8587003999
 30
0.0
  0
VERTEX
  5
536
  8
0
  6
CONTINUOUS
 62
     7
 10
170.9235756754
 20
299.934092825
 30
0.0
  0
VERTEX
  5
537
  8
0
  6
CONTINUOUS
 62
     7
 10
170.8984560429
 20
300.0103420668
 30
0.0
  0
VERTEX
  5
538
  8
0
  6
CONTINUOUS
 62
     7
 10
170.8900666891
 20
300.0870234423
 30
0.0
  0
SEQEND
  5
77E
  8
0
  6
CONTINUOUS
 62
     7
  0
LINE
  5
199
  8
0
  6
CONTINUOUS
 62
     7
 10
174.8900673448
 20
311.7548449987
 30
0.0
 11
174.8900673448
 21
299.0609592848
 31
0.0
  0
LINE
  5
19A
  8
0
  6
CONTINUOUS
 62
     7
 10
174.8900673448
 20
299.0609592848
 30
0.0
 11
173.8900690435
 21
299.0609592848
 31
0.0
  0
POLYLINE
  5
19B
  8
0
  6
CONTINUOUS
 62
     7
 66
     1
 10
0.0
 20
0.0
 30
0.0
  0
VERTEX
  5
539
  8
0
  6
CONTINUOUS
 62
     7
 10
174.8900673448
 20
299.0609592848
 30
0.0
  0
VERTEX
  5
53A
  8
0
  6
CONTINUOUS
 62
     7
 10
175.1142590402
 20
299.0638277584
 30
0.0
  0
VERTEX
  5
53B
  8
0
  6
CONTINUOUS
 62
     7
 10
175.3371953129
 20
299.0724182778
 30
0.0
  0
VERTEX
  5
53C
  8
0
  6
CONTINUOUS
 62
     7
 10
175.5576319157
 20
299.0866861396
 30
0.0
  0
VERTEX
  5
53D
  8
0
  6
CONTINUOUS
 62
     7
 10
175.7743320523
 20
299.1065419369
 30
0.0
  0
VERTEX
  5
53E
  8
0
  6
CONTINUOUS
 62
     7
 10
175.9860887288
 20
299.1318888121
 30
0.0
  0
VERTEX
  5
53F
  8
0
  6
CONTINUOUS
 62
     7
 10
176.1917173027
 20
299.162570303
 30
0.0
  0
VERTEX
  5
540
  8
0
  6
CONTINUOUS
 62
     7
 10
176.3900666593
 20
299.1984224968
 30
0.0
  0
VERTEX
  5
541
  8
0
  6
CONTINUOUS
 62
     7
 10
176.5800266622
 20
299.2392516785
 30
0.0
  0
VERTEX
  5
542
  8
0
  6
CONTINUOUS
 62
     7
 10
176.7605356036
 20
299.2848119789
 30
0.0
  0
VERTEX
  5
543
  8
0
  6
CONTINUOUS
 62
     7
 10
176.9305839299
 20
299.3348649793
 30
0.0
  0
VERTEX
  5
544
  8
0
  6
CONTINUOUS
 62
     7
 10
177.089221692
 20
299.3891201072
 30
0.0
  0
VERTEX
  5
545
  8
0
  6
CONTINUOUS
 62
     7
 10
177.2355622708
 20
299.4472793394
 30
0.0
  0
VERTEX
  5
546
  8
0
  6
CONTINUOUS
 62
     7
 10
177.3687823771
 20
299.5090223008
 30
0.0
  0
VERTEX
  5
547
  8
0
  6
CONTINUOUS
 62
     7
 10
177.4881444036
 20
299.5739913636
 30
0.0
  0
VERTEX
  5
548
  8
0
  6
CONTINUOUS
 62
     7
 10
177.5929740726
 20
299.6418288999
 30
0.0
  0
VERTEX
  5
549
  8
0
  6
CONTINUOUS
 62
     7
 10
177.6826902388
 20
299.7121549302
 30
0.0
  0
VERTEX
  5
54A
  8
0
  6
CONTINUOUS
 62
     7
 10
177.7567862629
 20
299.7845820242
 30
0.0
  0
VERTEX
  5
54B
  8
0
  6
CONTINUOUS
 62
     7
 10
177.8148523627
 20
299.8587003999
 30
0.0
  0
VERTEX
  5
54C
  8
0
  6
CONTINUOUS
 62
     7
 10
177.8565607129
 20
299.934092825
 30
0.0
  0
VERTEX
  5
54D
  8
0
  6
CONTINUOUS
 62
     7
 10
177.8816803454
 20
300.0103420668
 30
0.0
  0
VERTEX
  5
54E
  8
0
  6
CONTINUOUS
 62
     7
 10
177.8900659739
 20
300.0870234423
 30
0.0
  0
SEQEND
  5
77D
  8
0
  6
CONTINUOUS
 62
     7
  0
POLYLINE
  5
19C
  8
0
  6
CONTINUOUS
 62
     7
 66
     1
 10
0.0
 20
0.0
 30
0.0
  0
VERTEX
  5
54F
  8
0
  6
CONTINUOUS
 62
     7
 10
288.8900674044
 20
299.0609592848
 30
0.0
  0
VERTEX
  5
550
  8
0
  6
CONTINUOUS
 62
     7
 10
288.6658757089
 20
299.0638277584
 30
0.0
  0
VERTEX
  5
551
  8
0
  6
CONTINUOUS
 62
     7
 10
288.4429394363
 20
299.0724182778
 30
0.0
  0
VERTEX
  5
552
  8
0
  6
CONTINUOUS
 62
     7
 10
288.2225028335
 20
299.0866861396
 30
0.0
  0
VERTEX
  5
553
  8
0
  6
CONTINUOUS
 62
     7
 10
288.0058026968
 20
299.1065419369
 30
0.0
  0
VERTEX
  5
554
  8
0
  6
CONTINUOUS
 62
     7
 10
287.7940460204
 20
299.1318888121
 30
0.0
  0
VERTEX
  5
555
  8
0
  6
CONTINUOUS
 62
     7
 10
287.5884174465
 20
299.162570303
 30
0.0
  0
VERTEX
  5
556
  8
0
  6
CONTINUOUS
 62
     7
 10
287.3900680898
 20
299.1984224968
 30
0.0
  0
VERTEX
  5
557
  8
0
  6
CONTINUOUS
 62
     7
 10
287.2001080869
 20
299.2392516785
 30
0.0
  0
VERTEX
  5
558
  8
0
  6
CONTINUOUS
 62
     7
 10
287.0195991455
 20
299.2848119789
 30
0.0
  0
VERTEX
  5
559
  8
0
  6
CONTINUOUS
 62
     7
 10
286.8495508193
 20
299.3348649793
 30
0.0
  0
VERTEX
  5
55A
  8
0
  6
CONTINUOUS
 62
     7
 10
286.6909130572
 20
299.3891201072
 30
0.0
  0
VERTEX
  5
55B
  8
0
  6
CONTINUOUS
 62
     7
 10
286.5445724784
 20
299.4472793394
 30
0.0
  0
VERTEX
  5
55C
  8
0
  6
CONTINUOUS
 62
     7
 10
286.411352372
 20
299.5090223008
 30
0.0
  0
VERTEX
  5
55D
  8
0
  6
CONTINUOUS
 62
     7
 10
286.2919903456
 20
299.5739913636
 30
0.0
  0
VERTEX
  5
55E
  8
0
  6
CONTINUOUS
 62
     7
 10
286.1871606766
 20
299.6418288999
 30
0.0
  0
VERTEX
  5
55F
  8
0
  6
CONTINUOUS
 62
     7
 10
286.0974445103
 20
299.7121549302
 30
0.0
  0
VERTEX
  5
560
  8
0
  6
CONTINUOUS
 62
     7
 10
286.0233484863
 20
299.7845820242
 30
0.0
  0
VERTEX
  5
561
  8
0
  6
CONTINUOUS
 62
     7
 10
285.9652823864
 20
299.8587003999
 30
0.0
  0
VERTEX
  5
562
  8
0
  6
CONTINUOUS
 62
     7
 10
285.9235740362
 20
299.934092825
 30
0.0
  0
VERTEX
  5
563
  8
0
  6
CONTINUOUS
 62
     7
 10
285.8984544038
 20
300.0103420668
 30
0.0
  0
VERTEX
  5
564
  8
0
  6
CONTINUOUS
 62
     7
 10
285.8900687753
 20
300.0870234423
 30
0.0
  0
SEQEND
  5
77C
  8
0
  6
CONTINUOUS
 62
     7
  0
LINE
  5
19D
  8
0
  6
CONTINUOUS
 62
     7
 10
289.8900657056
 20
297.0870173626
 30
0.0
 11
289.8900657056
 21
299.0609592848
 31
0.0
  0
LINE
  5
19E
  8
0
  6
CONTINUOUS
 62
     7
 10
288.8900674044
 20
299.0609592848
 30
0.0
 11
288.8900674044
 21
297.0870173626
 31
0.0
  0
LINE
  5
19F
  8
0
  6
CONTINUOUS
 62
     7
 10
174.8900673448
 20
299.0609592848
 30
0.0
 11
174.8900673448
 21
297.0870173626
 31
0.0
  0
LINE
  5
1A0
  8
0
  6
CONTINUOUS
 62
     7
 10
173.8900690435
 20
297.0870173626
 30
0.0
 11
173.8900690435
 21
299.0609592848
 31
0.0
  0
POLYLINE
  5
1A1
  8
0
  6
CONTINUOUS
 62
     7
 66
     1
 10
0.0
 20
0.0
 30
0.0
  0
VERTEX
  5
565
  8
0
  6
CONTINUOUS
 62
     7
 10
198.2776633559
 20
422.8890127593
 30
0.0
  0
VERTEX
  5
566
  8
0
  6
CONTINUOUS
 62
     7
 10
198.3219160794
 20
425.5207701676
 30
0.0
  0
VERTEX
  5
567
  8
0
  6
CONTINUOUS
 62
     7
 10
198.4432115315
 20
427.6021457367
 30
0.0
  0
VERTEX
  5
568
  8
0
  6
CONTINUOUS
 62
     7
 10
198.6414640306
 20
429.1316791528
 30
0.0
  0
VERTEX
  5
569
  8
0
  6
CONTINUOUS
 62
     7
 10
198.916535741
 20
430.1083124333
 30
0.0
  0
VERTEX
  5
56A
  8
0
  6
CONTINUOUS
 62
     7
 10
199.2682329475
 20
430.5313601249
 30
0.0
  0
SEQEND
  5
77B
  8
0
  6
CONTINUOUS
 62
     7
  0
LINE
  5
1A2
  8
0
  6
CONTINUOUS
 62
     7
 10
202.7963566689
 20
422.1026561313
 30
0.0
 11
203.2854686587
 21
420.2502592557
 31
0.0
  0
POLYLINE
  5
1A3
  8
0
  6
CONTINUOUS
 62
     7
 66
     1
 10
0.0
 20
0.0
 30
0.0
  0
VERTEX
  5
56B
  8
0
  6
CONTINUOUS
 62
     7
 10
265.5024713932
 20
422.8890127593
 30
0.0
  0
VERTEX
  5
56C
  8
0
  6
CONTINUOUS
 62
     7
 10
265.4582186698
 20
425.5207701676
 30
0.0
  0
VERTEX
  5
56D
  8
0
  6
CONTINUOUS
 62
     7
 10
265.3369232176
 20
427.6021457367
 30
0.0
  0
VERTEX
  5
56E
  8
0
  6
CONTINUOUS
 62
     7
 10
265.1386707185
 20
429.1316791528
 30
0.0
  0
VERTEX
  5
56F
  8
0
  6
CONTINUOUS
 62
     7
 10
264.8635990082
 20
430.1083124333
 30
0.0
  0
VERTEX
  5
570
  8
0
  6
CONTINUOUS
 62
     7
 10
264.5119018017
 20
430.5313601249
 30
0.0
  0
SEQEND
  5
77A
  8
0
  6
CONTINUOUS
 62
     7
  0
LINE
  5
1A4
  8
0
  6
CONTINUOUS
 62
     7
 10
260.9837780802
 20
422.1026561313
 30
0.0
 11
260.4946660905
 21
420.2502592557
 31
0.0
  0
LINE
  5
1A5
  8
0
  6
CONTINUOUS
 62
     7
 10
182.7452144681
 20
402.9980375522
 30
0.0
 11
182.7452144681
 21
341.1760031336
 31
0.0
  0
LINE
  5
1A6
  8
0
  6
CONTINUOUS
 62
     7
 10
281.034920281
 20
402.9980375522
 30
0.0
 11
281.034920281
 21
341.1760031336
 31
0.0
  0
LINE
  5
1A7
  8
0
  6
CONTINUOUS
 62
     7
 10
252.4504660724
 20
350.0033727937
 30
0.0
 11
211.3296686767
 21
350.0033727937
 31
0.0
  0
LINE
  5
1A8
  8
0
  6
CONTINUOUS
 62
     7
 10
207.6502627789
 20
488.5079971605
 30
0.0
 11
226.8900674863
 21
488.5079971605
 31
0.0
  0
LINE
  5
1A9
  8
0
  6
CONTINUOUS
 62
     7
 10
236.8900672628
 20
488.5079971605
 30
0.0
 11
256.1298719703
 21
488.5079971605
 31
0.0
  0
LINE
  5
1AA
  8
0
  6
CONTINUOUS
 62
     7
 10
236.8900672628
 20
527.3393726998
 30
0.0
 11
226.8900674863
 21
527.3393726998
 31
0.0
  0
LINE
  5
1AB
  8
0
  6
CONTINUOUS
 62
     7
 10
226.8900674863
 20
528.4265316182
 30
0.0
 11
210.4416395633
 21
528.4265316182
 31
0.0
  0
LINE
  5
1AC
  8
0
  6
CONTINUOUS
 62
     7
 10
253.3384951858
 20
528.4265316182
 30
0.0
 11
236.8900672628
 21
528.4265316182
 31
0.0
  0
POLYLINE
  5
1AD
  8
0
  6
CONTINUOUS
 62
     7
 66
     1
 10
0.0
 20
0.0
 30
0.0
  0
VERTEX
  5
571
  8
0
  6
CONTINUOUS
 62
     7
 10
199.1341038703
 20
433.3039111548
 30
0.0
  0
VERTEX
  5
572
  8
0
  6
CONTINUOUS
 62
     7
 10
198.6700668095
 20
432.9107589179
 30
0.0
  0
VERTEX
  5
573
  8
0
  6
CONTINUOUS
 62
     7
 10
198.3136161326
 20
431.8593255334
 30
0.0
  0
VERTEX
  5
574
  8
0
  6
CONTINUOUS
 62
     7
 10
198.0650424122
 20
430.1504827195
 30
0.0
  0
VERTEX
  5
575
  8
0
  6
CONTINUOUS
 62
     7
 10
197.9245542644
 20
427.785642361
 30
0.0
  0
SEQEND
  5
779
  8
0
  6
CONTINUOUS
 62
     7
  0
POLYLINE
  5
1AE
  8
0
  6
CONTINUOUS
 62
     7
 66
     1
 10
0.0
 20
0.0
 30
0.0
  0
VERTEX
  5
576
  8
0
  6
CONTINUOUS
 62
     7
 10
264.6460308789
 20
433.3039111548
 30
0.0
  0
VERTEX
  5
577
  8
0
  6
CONTINUOUS
 62
     7
 10
265.1100679396
 20
432.9107589179
 30
0.0
  0
VERTEX
  5
578
  8
0
  6
CONTINUOUS
 62
     7
 10
265.4665186165
 20
431.8593255334
 30
0.0
  0
VERTEX
  5
579
  8
0
  6
CONTINUOUS
 62
     7
 10
265.715092337
 20
430.1504827195
 30
0.0
  0
VERTEX
  5
57A
  8
0
  6
CONTINUOUS
 62
     7
 10
265.8555804847
 20
427.785642361
 30
0.0
  0
SEQEND
  5
778
  8
0
  6
CONTINUOUS
 62
     7
  0
LINE
  5
1AF
  8
FORMAT
  6
CENTERX2
 10
305.0366411368
 20
372.0870203429
 30
0.0
 11
160.2273330832
 21
372.0870203429
 31
0.0
  0
LINE
  5
1B0
  8
FORMAT
  6
CENTERX2
 10
231.8900673746
 20
328.5870203429
 30
0.0
 11
231.8900673746
 21
570.3689249739
 31
0.0
  0
LINE
  5
1B1
  8
0
  6
CONTINUOUS
 62
     7
 10
559.273717681
 20
477.0870170646
 30
0.0
 11
558.6815455352
 21
460.1294285708
 31
0.0
  0
LINE
  5
1B2
  8
0
  6
CONTINUOUS
 62
     7
 10
675.865886489
 20
460.1294285708
 30
0.0
 11
675.2737143432
 21
477.0870170646
 31
0.0
  0
LINE
  5
1B3
  8
0
  6
CONTINUOUS
 62
     7
 10
586.2737165187
 20
484.7870207482
 30
0.0
 11
586.2737165187
 21
477.0870170646
 31
0.0
  0
LINE
  5
1B4
  8
0
  6
CONTINUOUS
 62
     7
 10
648.2737155054
 20
477.0870170646
 30
0.0
 11
648.2737155054
 21
484.7870207482
 31
0.0
  0
LINE
  5
1B5
  8
0
  6
CONTINUOUS
 62
     7
 10
553.7737139855
 20
459.0870178395
 30
0.0
 11
553.4068622981
 21
452.0870185547
 31
0.0
  0
LINE
  5
1B6
  8
0
  6
CONTINUOUS
 62
     7
 10
681.1405697261
 20
452.0870185547
 30
0.0
 11
680.7737180386
 21
459.0870178395
 31
0.0
  0
LINE
  5
1B7
  8
0
  6
CONTINUOUS
 62
     7
 10
558.6951651965
 20
460.5194888168
 30
0.0
 11
553.7737139855
 21
459.6517047935
 31
0.0
  0
LINE
  5
1B8
  8
0
  6
CONTINUOUS
 62
     7
 10
553.7737139855
 20
459.6517047935
 30
0.0
 11
553.7737139855
 21
459.0870178395
 31
0.0
  0
LINE
  5
1B9
  8
0
  6
CONTINUOUS
 62
     7
 10
680.7737180386
 20
459.6517047935
 30
0.0
 11
675.8522668277
 21
460.5194888168
 31
0.0
  0
LINE
  5
1BA
  8
0
  6
CONTINUOUS
 62
     7
 10
680.7737180386
 20
459.0870178395
 30
0.0
 11
680.7737180386
 21
459.6517047935
 31
0.0
  0
LINE
  5
1BB
  8
0
  6
CONTINUOUS
 62
     7
 10
554.2737149988
 20
452.0870185547
 30
0.0
 11
554.6704435144
 21
444.5170647555
 31
0.0
  0
LINE
  5
1BC
  8
0
  6
CONTINUOUS
 62
     7
 10
679.8769885097
 20
444.5170647555
 30
0.0
 11
680.2737170254
 21
452.0870185547
 31
0.0
  0
ARC
  5
1BD
  8
0
  6
CONTINUOUS
 62
     7
 10
589.0436556675
 20
488.7870203429
 30
0.0
 40
4.000000000000011
 50
270.0
 51
356.0
  0
ARC
  5
1BE
  8
0
  6
CONTINUOUS
 62
     7
 10
645.5037763566
 20
488.7870203429
 30
0.0
 40
4.000000000000058
 50
231.3295524626
 51
270.0
  0
LINE
  5
1BF
  8
0
  6
CONTINUOUS
 62
     7
 10
554.6704435144
 20
444.5170647555
 30
0.0
 11
561.7357285117
 21
443.271268075
 31
0.0
  0
LINE
  5
1C0
  8
0
  6
CONTINUOUS
 62
     7
 10
672.8117035125
 20
443.271268075
 30
0.0
 11
679.8769885097
 21
444.5170647555
 31
0.0
  0
LINE
  5
1C1
  8
0
  6
CONTINUOUS
 62
     7
 10
595.8252882008
 20
528.4265316182
 30
0.0
 11
593.0339114164
 21
488.5079971605
 31
0.0
  0
ARC
  5
1C2
  8
0
  6
CONTINUOUS
 62
     7
 10
597.8204161278
 20
528.2870203429
 30
0.0
 40
2.000000000000009
 50
90.0
 51
176.0
  0
LINE
  5
1C3
  8
0
  6
CONTINUOUS
 62
     7
 10
608.2737163995
 20
535.8571744614
 30
0.0
 11
608.2737163995
 21
530.287016099
 31
0.0
  0
LINE
  5
1C4
  8
0
  6
CONTINUOUS
 62
     7
 10
626.2737156247
 20
530.287016099
 30
0.0
 11
626.2737156247
 21
535.8571744614
 31
0.0
  0
CIRCLE
  5
1C5
  8
0
  6
CONTINUOUS
 62
     7
 10
617.2737160121
 20
372.0870203429
 30
0.0
 40
41.49999999999994
  0
CIRCLE
  5
1C6
  8
0
  6
CONTINUOUS
 62
     7
 10
617.2737160121
 20
372.0870203429
 30
0.0
 40
44.5
  0
CIRCLE
  5
1C7
  8
0
  6
CONTINUOUS
 62
     7
 10
617.2737160121
 20
372.0870203429
 30
0.0
 40
23.99999999999994
  0
CIRCLE
  5
1C8
  8
0
  6
CONTINUOUS
 62
     7
 10
617.2737160121
 20
372.0870203429
 30
0.0
 40
20.0
  0
POLYLINE
  5
1C9
  8
0
  6
CONTINUOUS
 62
     7
 66
     1
 10
0.0
 20
0.0
 30
0.0
  0
VERTEX
  5
57B
  8
0
  6
CONTINUOUS
 62
     7
 10
542.2884279285
 20
370.6017290565
 30
0.0
  0
VERTEX
  5
57C
  8
0
  6
CONTINUOUS
 62
     7
 10
542.2949099337
 20
370.6082128079
 30
0.0
  0
VERTEX
  5
57D
  8
0
  6
CONTINUOUS
 62
     7
 10
542.3141547833
 20
370.6274588217
 30
0.0
  0
VERTEX
  5
57E
  8
0
  6
CONTINUOUS
 62
     7
 10
542.347168306
 20
370.6604703653
 30
0.0
  0
VERTEX
  5
57F
  8
0
  6
CONTINUOUS
 62
     7
 10
542.3927956615
 20
370.7060990014
 30
0.0
  0
VERTEX
  5
580
  8
0
  6
CONTINUOUS
 62
     7
 10
542.448123673
 20
370.7614307382
 30
0.0
  0
VERTEX
  5
581
  8
0
  6
CONTINUOUS
 62
     7
 10
542.5136366282
 20
370.826937407
 30
0.0
  0
VERTEX
  5
582
  8
0
  6
CONTINUOUS
 62
     7
 10
542.6760294829
 20
370.9893302617
 30
0.0
  0
VERTEX
  5
583
  8
0
  6
CONTINUOUS
 62
     7
 10
542.8037175332
 20
371.1170211641
 30
0.0
  0
VERTEX
  5
584
  8
0
  6
CONTINUOUS
 62
     7
 10
542.9436319862
 20
371.2569399827
 30
0.0
  0
VERTEX
  5
585
  8
0
  6
CONTINUOUS
 62
     7
 10
543.0982762371
 20
371.4115788785
 30
0.0
  0
VERTEX
  5
586
  8
0
  6
CONTINUOUS
 62
     7
 10
543.2620996033
 20
371.5754031178
 30
0.0
  0
VERTEX
  5
587
  8
0
  6
CONTINUOUS
 62
     7
 10
543.5106658731
 20
371.8239723271
 30
0.0
  0
VERTEX
  5
588
  8
0
  6
CONTINUOUS
 62
     7
 10
543.7737160717
 20
372.0870203429
 30
0.0
  0
SEQEND
  5
777
  8
0
  6
CONTINUOUS
 62
     7
  0
POLYLINE
  5
1CA
  8
0
  6
CONTINUOUS
 62
     7
 66
     1
 10
0.0
 20
0.0
 30
0.0
  0
VERTEX
  5
589
  8
0
  6
CONTINUOUS
 62
     7
 10
543.7737160717
 20
372.0870203429
 30
0.0
  0
VERTEX
  5
58A
  8
0
  6
CONTINUOUS
 62
     7
 10
543.5314082895
 20
372.3293259423
 30
0.0
  0
VERTEX
  5
58B
  8
0
  6
CONTINUOUS
 62
     7
 10
543.2993450557
 20
372.5613880411
 30
0.0
  0
VERTEX
  5
58C
  8
0
  6
CONTINUOUS
 62
     7
 10
543.0728548561
 20
372.7878824316
 30
0.0
  0
VERTEX
  5
58D
  8
0
  6
CONTINUOUS
 62
     7
 10
542.8644397651
 20
372.9962997345
 30
0.0
  0
VERTEX
  5
58E
  8
0
  6
CONTINUOUS
 62
     7
 10
542.7547821198
 20
373.1059552261
 30
0.0
  0
VERTEX
  5
58F
  8
0
  6
CONTINUOUS
 62
     7
 10
542.6537447964
 20
373.206989872
 30
0.0
  0
VERTEX
  5
590
  8
0
  6
CONTINUOUS
 62
     7
 10
542.5603964721
 20
373.3003380799
 30
0.0
  0
VERTEX
  5
591
  8
0
  6
CONTINUOUS
 62
     7
 10
542.4786636029
 20
373.3820756056
 30
0.0
  0
VERTEX
  5
592
  8
0
  6
CONTINUOUS
 62
     7
 10
542.4112880026
 20
373.4494446867
 30
0.0
  0
VERTEX
  5
593
  8
0
  6
CONTINUOUS
 62
     7
 10
542.3575693165
 20
373.503165119
 30
0.0
  0
VERTEX
  5
594
  8
0
  6
CONTINUOUS
 62
     7
 10
542.3174702917
 20
373.5432688004
 30
0.0
  0
VERTEX
  5
595
  8
0
  6
CONTINUOUS
 62
     7
 10
542.2942840849
 20
373.5664486044
 30
0.0
  0
VERTEX
  5
596
  8
0
  6
CONTINUOUS
 62
     7
 10
542.2884279285
 20
373.5723116293
 30
0.0
  0
SEQEND
  5
776
  8
0
  6
CONTINUOUS
 62
     7
  0
ARC
  5
1CB
  8
0
  6
CONTINUOUS
 62
     7
 10
617.2737160121
 20
372.0870203429
 30
0.0
 40
74.99999999999997
 50
1.1347531453
 51
178.8652468547
  0
POLYLINE
  5
1CC
  8
0
  6
CONTINUOUS
 62
     7
 66
     1
 10
0.0
 20
0.0
 30
0.0
  0
VERTEX
  5
597
  8
0
  6
CONTINUOUS
 62
     7
 10
690.7737159525
 20
372.0870203429
 30
0.0
  0
VERTEX
  5
598
  8
0
  6
CONTINUOUS
 62
     7
 10
691.0160237347
 20
372.3293259423
 30
0.0
  0
VERTEX
  5
599
  8
0
  6
CONTINUOUS
 62
     7
 10
691.2480869685
 20
372.5613880411
 30
0.0
  0
VERTEX
  5
59A
  8
0
  6
CONTINUOUS
 62
     7
 10
691.4745771681
 20
372.7878824316
 30
0.0
  0
VERTEX
  5
59B
  8
0
  6
CONTINUOUS
 62
     7
 10
691.6829922591
 20
372.9962997345
 30
0.0
  0
VERTEX
  5
59C
  8
0
  6
CONTINUOUS
 62
     7
 10
691.7926499043
 20
373.1059552261
 30
0.0
  0
VERTEX
  5
59D
  8
0
  6
CONTINUOUS
 62
     7
 10
691.8936872278
 20
373.206989872
 30
0.0
  0
VERTEX
  5
59E
  8
0
  6
CONTINUOUS
 62
     7
 10
691.9870355521
 20
373.3003380799
 30
0.0
  0
VERTEX
  5
59F
  8
0
  6
CONTINUOUS
 62
     7
 10
692.0687684213
 20
373.3820756056
 30
0.0
  0
VERTEX
  5
5A0
  8
0
  6
CONTINUOUS
 62
     7
 10
692.1361440216
 20
373.4494446867
 30
0.0
  0
VERTEX
  5
5A1
  8
0
  6
CONTINUOUS
 62
     7
 10
692.1898627077
 20
373.503165119
 30
0.0
  0
VERTEX
  5
5A2
  8
0
  6
CONTINUOUS
 62
     7
 10
692.2299617325
 20
373.5432688004
 30
0.0
  0
VERTEX
  5
5A3
  8
0
  6
CONTINUOUS
 62
     7
 10
692.2531479393
 20
373.5664486044
 30
0.0
  0
VERTEX
  5
5A4
  8
0
  6
CONTINUOUS
 62
     7
 10
692.2590040956
 20
373.5723116293
 30
0.0
  0
SEQEND
  5
775
  8
0
  6
CONTINUOUS
 62
     7
  0
POLYLINE
  5
1CD
  8
0
  6
CONTINUOUS
 62
     7
 66
     1
 10
0.0
 20
0.0
 30
0.0
  0
VERTEX
  5
5A5
  8
0
  6
CONTINUOUS
 62
     7
 10
692.2590040956
 20
370.6017290565
 30
0.0
  0
VERTEX
  5
5A6
  8
0
  6
CONTINUOUS
 62
     7
 10
692.2525220905
 20
370.6082128079
 30
0.0
  0
VERTEX
  5
5A7
  8
0
  6
CONTINUOUS
 62
     7
 10
692.2332772408
 20
370.6274588217
 30
0.0
  0
VERTEX
  5
5A8
  8
0
  6
CONTINUOUS
 62
     7
 10
692.2002637182
 20
370.6604703653
 30
0.0
  0
VERTEX
  5
5A9
  8
0
  6
CONTINUOUS
 62
     7
 10
692.1546363626
 20
370.7060990014
 30
0.0
  0
VERTEX
  5
5AA
  8
0
  6
CONTINUOUS
 62
     7
 10
692.0993083511
 20
370.7614307382
 30
0.0
  0
VERTEX
  5
5AB
  8
0
  6
CONTINUOUS
 62
     7
 10
692.0337953959
 20
370.826937407
 30
0.0
  0
VERTEX
  5
5AC
  8
0
  6
CONTINUOUS
 62
     7
 10
691.8714025412
 20
370.9893302617
 30
0.0
  0
VERTEX
  5
5AD
  8
0
  6
CONTINUOUS
 62
     7
 10
691.743714491
 20
371.1170211641
 30
0.0
  0
VERTEX
  5
5AE
  8
0
  6
CONTINUOUS
 62
     7
 10
691.6038000379
 20
371.2569399827
 30
0.0
  0
VERTEX
  5
5AF
  8
0
  6
CONTINUOUS
 62
     7
 10
691.4491557871
 20
371.4115788785
 30
0.0
  0
VERTEX
  5
5B0
  8
0
  6
CONTINUOUS
 62
     7
 10
691.2853324209
 20
371.5754031178
 30
0.0
  0
VERTEX
  5
5B1
  8
0
  6
CONTINUOUS
 62
     7
 10
691.036766151
 20
371.8239723271
 30
0.0
  0
VERTEX
  5
5B2
  8
0
  6
CONTINUOUS
 62
     7
 10
690.7737159525
 20
372.0870203429
 30
0.0
  0
SEQEND
  5
774
  8
0
  6
CONTINUOUS
 62
     7
  0
ARC
  5
1CE
  8
0
  6
CONTINUOUS
 62
     7
 10
617.2737160121
 20
372.0870203429
 30
0.0
 40
74.99999999999997
 50
181.1347531453
 51
358.8652468547
  0
CIRCLE
  5
1CF
  8
0
  6
CONTINUOUS
 62
     7
 10
656.1645889773
 20
410.9778933081
 30
0.0
 40
9.5
  0
CIRCLE
  5
1D0
  8
0
  6
CONTINUOUS
 62
     7
 10
656.1645889773
 20
333.1961473776
 30
0.0
 40
9.5
  0
CIRCLE
  5
1D1
  8
0
  6
CONTINUOUS
 62
     7
 10
578.3828430468
 20
410.9778933081
 30
0.0
 40
9.5
  0
CIRCLE
  5
1D2
  8
0
  6
CONTINUOUS
 62
     7
 10
578.3828430468
 20
333.1961473776
 30
0.0
 40
9.5
  0
LINE
  5
1D3
  8
0
  6
CONTINUOUS
 62
     7
 10
576.5552611445
 20
299.0609592848
 30
0.0
 11
571.9350629841
 21
311.7548449987
 31
0.0
  0
LINE
  5
1D4
  8
0
  6
CONTINUOUS
 62
     7
 10
657.9921708797
 20
299.0609592848
 30
0.0
 11
662.6123690401
 21
311.7548449987
 31
0.0
  0
ARC
  5
1D5
  8
0
  6
CONTINUOUS
 62
     7
 10
579.3743386267
 20
300.0870203429
 30
0.0
 40
3.0
 50
200.0
 51
270.0
  0
LINE
  5
1D6
  8
0
  6
CONTINUOUS
 62
     7
 10
617.2737160121
 20
297.0870173626
 30
0.0
 11
579.3743373249
 21
297.0870173626
 31
0.0
  0
LINE
  5
1D7
  8
0
  6
CONTINUOUS
 62
     7
 10
617.2737160121
 20
297.0870173626
 30
0.0
 11
655.1730946992
 21
297.0870173626
 31
0.0
  0
ARC
  5
1D8
  8
0
  6
CONTINUOUS
 62
     7
 10
655.1730933975
 20
300.0870203429
 30
0.0
 40
3.0
 50
270.0
 51
340.0
  0
ARC
  5
1D9
  8
0
  6
CONTINUOUS
 62
     7
 10
569.1159865653
 20
310.7287845914
 30
0.0
 40
2.999999999999999
 50
20.0
 51
51.8729893098
  0
ARC
  5
1DA
  8
0
  6
CONTINUOUS
 62
     7
 10
665.4314454589
 20
310.7287845914
 30
0.0
 40
2.999999999999951
 50
128.1270106902
 51
160.0
  0
LINE
  5
1DB
  8
0
  6
CONTINUOUS
 62
     7
 10
669.0399513934
 20
459.0870178395
 30
0.0
 11
565.5074806307
 21
459.0870178395
 31
0.0
  0
LINE
  5
1DC
  8
0
  6
CONTINUOUS
 62
     7
 10
669.1448704694
 20
452.0870185547
 30
0.0
 11
565.4025615548
 21
452.0870185547
 31
0.0
  0
LINE
  5
1DD
  8
0
  6
CONTINUOUS
 62
     7
 10
565.5074806307
 20
459.6517047935
 30
0.0
 11
669.0399513934
 21
459.6517047935
 31
0.0
  0
POLYLINE
  5
1DE
  8
0
  6
CONTINUOUS
 62
     7
 66
     1
 10
0.0
 20
0.0
 30
0.0
  0
VERTEX
  5
5B3
  8
0
  6
CONTINUOUS
 62
     7
 10
660.6582978164
 20
460.4930765086
 30
0.0
  0
VERTEX
  5
5B4
  8
0
  6
CONTINUOUS
 62
     7
 10
652.8446355258
 20
461.0936082058
 30
0.0
  0
VERTEX
  5
5B5
  8
0
  6
CONTINUOUS
 62
     7
 10
645.0264041667
 20
461.639728313
 30
0.0
  0
SEQEND
  5
773
  8
0
  6
CONTINUOUS
 62
     7
  0
ARC
  5
1DF
  8
0
  6
CONTINUOUS
 62
     7
 10
666.771018374
 20
536.3910524447
 30
0.0
 40
76.14373318803042
 50
265.395413919
 51
270.9671603109
  0
ARC
  5
1E0
  8
0
  6
CONTINUOUS
 62
     7
 10
567.7764136501
 20
536.3910524447
 30
0.0
 40
76.14373318803042
 50
269.0328396891
 51
274.604586081
  0
POLYLINE
  5
1E1
  8
0
  6
CONTINUOUS
 62
     7
 66
     1
 10
0.0
 20
0.0
 30
0.0
  0
VERTEX
  5
5B6
  8
0
  6
CONTINUOUS
 62
     7
 10
573.8891342078
 20
460.4930765086
 30
0.0
  0
VERTEX
  5
5B7
  8
0
  6
CONTINUOUS
 62
     7
 10
581.7027964984
 20
461.0936082058
 30
0.0
  0
VERTEX
  5
5B8
  8
0
  6
CONTINUOUS
 62
     7
 10
589.5210278575
 20
461.639728313
 30
0.0
  0
SEQEND
  5
772
  8
0
  6
CONTINUOUS
 62
     7
  0
POLYLINE
  5
1E2
  8
0
  6
CONTINUOUS
 62
     7
 66
     1
 10
0.0
 20
0.0
 30
0.0
  0
VERTEX
  5
5B9
  8
0
  6
CONTINUOUS
 62
     7
 10
589.5210278575
 20
461.639728313
 30
0.0
  0
VERTEX
  5
5BA
  8
0
  6
CONTINUOUS
 62
     7
 10
592.2435184364
 20
461.6166017109
 30
0.0
  0
VERTEX
  5
5BB
  8
0
  6
CONTINUOUS
 62
     7
 10
594.9782763962
 20
461.5958741956
 30
0.0
  0
VERTEX
  5
5BC
  8
0
  6
CONTINUOUS
 62
     7
 10
597.7234372292
 20
461.5775532179
 30
0.0
  0
VERTEX
  5
5BD
  8
0
  6
CONTINUOUS
 62
     7
 10
600.4771364276
 20
461.5616536789
 30
0.0
  0
VERTEX
  5
5BE
  8
0
  6
CONTINUOUS
 62
     7
 10
603.2375122775
 20
461.5481681281
 30
0.0
  0
VERTEX
  5
5BF
  8
0
  6
CONTINUOUS
 62
     7
 10
606.0362502356
 20
461.5369997078
 30
0.0
  0
VERTEX
  5
5C0
  8
0
  6
CONTINUOUS
 62
     7
 10
608.8411712442
 20
461.5283123308
 30
0.0
  0
VERTEX
  5
5C1
  8
0
  6
CONTINUOUS
 62
     7
 10
611.650323717
 20
461.5220985466
 30
0.0
  0
VERTEX
  5
5C2
  8
0
  6
CONTINUOUS
 62
     7
 10
614.4617560674
 20
461.5183658057
 30
0.0
  0
VERTEX
  5
5C3
  8
0
  6
CONTINUOUS
 62
     7
 10
617.2735160121
 20
461.5171215587
 30
0.0
  0
VERTEX
  5
5C4
  8
0
  6
CONTINUOUS
 62
     7
 10
620.0532091205
 20
461.5183360034
 30
0.0
  0
VERTEX
  5
5C5
  8
0
  6
CONTINUOUS
 62
     7
 10
622.8325858135
 20
461.5219867878
 30
0.0
  0
VERTEX
  5
5C6
  8
0
  6
CONTINUOUS
 62
     7
 10
625.6097599287
 20
461.5280515605
 30
0.0
  0
VERTEX
  5
5C7
  8
0
  6
CONTINUOUS
 62
     7
 10
628.3828464691
 20
461.5365526729
 30
0.0
  0
VERTEX
  5
5C8
  8
0
  6
CONTINUOUS
 62
     7
 10
631.1499585752
 20
461.5474677735
 30
0.0
  0
VERTEX
  5
5C9
  8
0
  6
CONTINUOUS
 62
     7
 10
633.9426280354
 20
461.5609756761
 30
0.0
  0
VERTEX
  5
5CA
  8
0
  6
CONTINUOUS
 62
     7
 10
636.7285360937
 20
461.5769646221
 30
0.0
  0
VERTEX
  5
5CB
  8
0
  6
CONTINUOUS
 62
     7
 10
639.5057549123
 20
461.5954271608
 30
0.0
  0
VERTEX
  5
5CC
  8
0
  6
CONTINUOUS
 62
     7
 10
642.2723529284
 20
461.6163483911
 30
0.0
  0
VERTEX
  5
5CD
  8
0
  6
CONTINUOUS
 62
     7
 10
645.0264041667
 20
461.639728313
 30
0.0
  0
SEQEND
  5
771
  8
0
  6
CONTINUOUS
 62
     7
  0
LINE
  5
1E3
  8
0
  6
CONTINUOUS
 62
     7
 10
566.673045734
 20
444.5170647555
 30
0.0
 11
597.808662558
 21
444.5170647555
 31
0.0
  0
LINE
  5
1E4
  8
0
  6
CONTINUOUS
 62
     7
 10
636.7387694661
 20
444.5170647555
 30
0.0
 11
667.8743862902
 21
444.5170647555
 31
0.0
  0
POLYLINE
  5
1E5
  8
0
  6
CONTINUOUS
 62
     7
 66
     1
 10
0.0
 20
0.0
 30
0.0
  0
VERTEX
  5
5CE
  8
0
  6
CONTINUOUS
 62
     7
 10
571.0237489437
 20
443.4847272091
 30
0.0
  0
VERTEX
  5
5CF
  8
0
  6
CONTINUOUS
 62
     7
 10
576.6157673095
 20
443.2602114134
 30
0.0
  0
VERTEX
  5
5D0
  8
0
  6
CONTINUOUS
 62
     7
 10
582.2089367901
 20
443.0664665156
 30
0.0
  0
VERTEX
  5
5D1
  8
0
  6
CONTINUOUS
 62
     7
 10
587.8030189668
 20
442.9041183644
 30
0.0
  0
VERTEX
  5
5D2
  8
0
  6
CONTINUOUS
 62
     7
 10
592.3016255145
 20
442.799296146
 30
0.0
  0
SEQEND
  5
770
  8
0
  6
CONTINUOUS
 62
     7
  0
ARC
  5
1E6
  8
0
  6
CONTINUOUS
 62
     7
 10
568.591557292
 20
387.4138667201
 30
0.0
 40
56.1235864161699
 50
87.5162319226
 51
90.3588645225
  0
ARC
  5
1E7
  8
0
  6
CONTINUOUS
 62
     7
 10
665.9558747321
 20
387.4138667201
 30
0.0
 40
56.1235864161699
 50
89.6411354775
 51
92.4837680774
  0
POLYLINE
  5
1E8
  8
0
  6
CONTINUOUS
 62
     7
 66
     1
 10
0.0
 20
0.0
 30
0.0
  0
VERTEX
  5
5D3
  8
0
  6
CONTINUOUS
 62
     7
 10
663.5236830805
 20
443.4847272091
 30
0.0
  0
VERTEX
  5
5D4
  8
0
  6
CONTINUOUS
 62
     7
 10
657.9316647147
 20
443.2602114134
 30
0.0
  0
VERTEX
  5
5D5
  8
0
  6
CONTINUOUS
 62
     7
 10
652.3384952341
 20
443.0664665156
 30
0.0
  0
VERTEX
  5
5D6
  8
0
  6
CONTINUOUS
 62
     7
 10
646.7444130574
 20
442.9041183644
 30
0.0
  0
VERTEX
  5
5D7
  8
0
  6
CONTINUOUS
 62
     7
 10
642.2462256049
 20
442.7993035966
 30
0.0
  0
SEQEND
  5
76F
  8
0
  6
CONTINUOUS
 62
     7
  0
LINE
  5
1E9
  8
0
  6
CONTINUOUS
 62
     7
 10
557.2786868904
 20
459.0870178395
 30
0.0
 11
565.5074806307
 21
459.0870178395
 31
0.0
  0
LINE
  5
1EA
  8
0
  6
CONTINUOUS
 62
     7
 10
556.9222026859
 20
452.0870185547
 30
0.0
 11
565.4025615548
 21
452.0870185547
 31
0.0
  0
LINE
  5
1EB
  8
0
  6
CONTINUOUS
 62
     7
 10
677.2687451337
 20
459.0870178395
 30
0.0
 11
669.0399513934
 21
459.0870178395
 31
0.0
  0
LINE
  5
1EC
  8
0
  6
CONTINUOUS
 62
     7
 10
677.6252293383
 20
452.0870185547
 30
0.0
 11
669.1448704694
 21
452.0870185547
 31
0.0
  0
LINE
  5
1ED
  8
0
  6
CONTINUOUS
 62
     7
 10
589.5210278575
 20
461.639728313
 30
0.0
 11
589.5223019068
 21
477.0870170646
 31
0.0
  0
LINE
  5
1EE
  8
0
  6
CONTINUOUS
 62
     7
 10
645.0264041667
 20
461.639728313
 30
0.0
 11
645.0251301174
 21
477.0870170646
 31
0.0
  0
ARC
  5
1EF
  8
0
  6
CONTINUOUS
 62
     7
 10
617.2737160121
 20
414.786593165
 30
0.0
 40
69.00038308487495
 50
64.541874492
 51
115.458125508
  0
LINE
  5
1F0
  8
0
  6
CONTINUOUS
 62
     7
 10
565.5074806307
 20
459.6517047935
 30
0.0
 11
557.2786868904
 21
459.6517047935
 31
0.0
  0
ARC
  5
1F1
  8
0
  6
CONTINUOUS
 62
     7
 10
564.3789270439
 20
394.7736894118
 30
0.0
 40
65.51853437367829
 50
88.1525392971
 51
93.8305183248
  0
LINE
  5
1F2
  8
0
  6
CONTINUOUS
 62
     7
 10
669.0399513934
 20
459.6517047935
 30
0.0
 11
677.2687451337
 21
459.6517047935
 31
0.0
  0
ARC
  5
1F3
  8
0
  6
CONTINUOUS
 62
     7
 10
670.1685049803
 20
394.7736894118
 30
0.0
 40
65.51853437367829
 50
86.1694816752
 51
91.8474607029
  0
LINE
  5
1F4
  8
0
  6
CONTINUOUS
 62
     7
 10
566.673045734
 20
444.5170647555
 30
0.0
 11
557.9585747217
 21
444.5170647555
 31
0.0
  0
LINE
  5
1F5
  8
0
  6
CONTINUOUS
 62
     7
 10
667.8743862902
 20
444.5170647555
 30
0.0
 11
676.5888573025
 21
444.5170647555
 31
0.0
  0
ARC
  5
1F6
  8
0
  6
CONTINUOUS
 62
     7
 10
567.0873362289
 20
512.9980075855
 30
0.0
 40
69.47121905095166
 50
266.3265389169
 51
270.9507234474
  0
ARC
  5
1F7
  8
0
  6
CONTINUOUS
 62
     7
 10
667.4600957953
 20
512.9980075855
 30
0.0
 40
69.47121905095166
 50
269.0492765526
 51
273.6734610831
  0
LINE
  5
1F8
  8
0
  6
CONTINUOUS
 62
     7
 10
573.7686545943
 20
477.0870170646
 30
0.0
 11
559.273717681
 21
477.0870170646
 31
0.0
  0
ARC
  5
1F9
  8
0
  6
CONTINUOUS
 62
     7
 10
559.2946012163
 20
463.9827018786
 30
0.0
 40
3.901500014676045
 50
260.9882061878
 51
280.4454045629
  0
ARC
  5
1FA
  8
0
  6
CONTINUOUS
 62
     7
 10
675.2528308079
 20
463.9827018786
 30
0.0
 40
3.901500014676045
 50
259.5545954371
 51
279.0117938122
  0
LINE
  5
1FB
  8
0
  6
CONTINUOUS
 62
     7
 10
660.7787774299
 20
477.0870170646
 30
0.0
 11
675.2737143432
 21
477.0870170646
 31
0.0
  0
LINE
  5
1FC
  8
0
  6
CONTINUOUS
 62
     7
 10
589.5223019068
 20
477.0870170646
 30
0.0
 11
573.7686545943
 21
477.0870170646
 31
0.0
  0
LINE
  5
1FD
  8
0
  6
CONTINUOUS
 62
     7
 10
645.0251301174
 20
477.0870170646
 30
0.0
 11
660.7787774299
 21
477.0870170646
 31
0.0
  0
LINE
  5
1FE
  8
0
  6
CONTINUOUS
 62
     7
 10
580.6027965043
 20
401.7409122639
 30
0.0
 11
581.5834940766
 21
419.9224933141
 31
0.0
  0
LINE
  5
1FF
  8
0
  6
CONTINUOUS
 62
     7
 10
653.9446355198
 20
401.7409122639
 30
0.0
 11
652.9639379476
 21
419.9224933141
 31
0.0
  0
LINE
  5
200
  8
0
  6
CONTINUOUS
 62
     7
 10
562.7664679085
 20
423.6036202961
 30
0.0
 11
561.7145837639
 21
443.6747840696
 31
0.0
  0
ARC
  5
201
  8
0
  6
CONTINUOUS
 62
     7
 10
562.1626871537
 20
441.4362745204
 30
0.0
 40
2.282919545209186
 50
78.0262426764
 51
101.3198129817
  0
LINE
  5
202
  8
0
  6
CONTINUOUS
 62
     7
 10
671.7809641157
 20
423.6036202961
 30
0.0
 11
672.8328482602
 21
443.6747840696
 31
0.0
  0
ARC
  5
203
  8
0
  6
CONTINUOUS
 62
     7
 10
672.3847448704
 20
441.4362745204
 30
0.0
 40
2.282919545209186
 50
78.6801870183
 51
101.9737573236
  0
LINE
  5
204
  8
0
  6
CONTINUOUS
 62
     7
 10
579.9867079948
 20
420.3415251427
 30
0.0
 11
577.6801796053
 21
418.0577657276
 31
0.0
  0
LINE
  5
205
  8
0
  6
CONTINUOUS
 62
     7
 10
576.8811271881
 20
417.9595596247
 30
0.0
 11
577.6801796053
 21
418.0577657276
 31
0.0
  0
LINE
  5
206
  8
0
  6
CONTINUOUS
 62
     7
 10
576.8811271881
 20
417.9595596247
 30
0.0
 11
573.5659876262
 21
419.1661699765
 31
0.0
  0
LINE
  5
207
  8
0
  6
CONTINUOUS
 62
     7
 10
657.6663048361
 20
417.9595596247
 30
0.0
 11
656.8672524188
 21
418.0577657276
 31
0.0
  0
LINE
  5
208
  8
0
  6
CONTINUOUS
 62
     7
 10
654.5607240294
 20
420.3415251427
 30
0.0
 11
656.8672524188
 21
418.0577657276
 31
0.0
  0
LINE
  5
209
  8
0
  6
CONTINUOUS
 62
     7
 10
657.6663048361
 20
417.9595596247
 30
0.0
 11
660.981444398
 21
419.1661699765
 31
0.0
  0
LINE
  5
20A
  8
0
  6
CONTINUOUS
 62
     7
 10
586.2737165187
 20
484.7870207482
 30
0.0
 11
648.2737155054
 21
484.7870207482
 31
0.0
  0
LINE
  5
20B
  8
0
  6
CONTINUOUS
 62
     7
 10
553.7737139855
 20
459.0870178395
 30
0.0
 11
557.2786868904
 21
459.0870178395
 31
0.0
  0
LINE
  5
20C
  8
0
  6
CONTINUOUS
 62
     7
 10
553.4068622981
 20
452.0870185547
 30
0.0
 11
556.9222026859
 21
452.0870185547
 31
0.0
  0
LINE
  5
20D
  8
0
  6
CONTINUOUS
 62
     7
 10
677.2687451337
 20
459.0870178395
 30
0.0
 11
680.7737180386
 21
459.0870178395
 31
0.0
  0
LINE
  5
20E
  8
0
  6
CONTINUOUS
 62
     7
 10
677.6252293383
 20
452.0870185547
 30
0.0
 11
681.1405697261
 21
452.0870185547
 31
0.0
  0
LINE
  5
20F
  8
0
  6
CONTINUOUS
 62
     7
 10
557.2786868904
 20
459.6517047935
 30
0.0
 11
553.7737139855
 21
459.6517047935
 31
0.0
  0
LINE
  5
210
  8
0
  6
CONTINUOUS
 62
     7
 10
680.7737180386
 20
459.6517047935
 30
0.0
 11
677.2687451337
 21
459.6517047935
 31
0.0
  0
LINE
  5
211
  8
0
  6
CONTINUOUS
 62
     7
 10
577.6801796053
 20
418.0577657276
 30
0.0
 11
577.6801796053
 21
401.5039148831
 31
0.0
  0
LINE
  5
212
  8
0
  6
CONTINUOUS
 62
     7
 10
656.8672524188
 20
418.0577657276
 30
0.0
 11
656.8672524188
 21
401.5039148831
 31
0.0
  0
LINE
  5
213
  8
0
  6
CONTINUOUS
 62
     7
 10
554.6704435144
 20
444.5170647555
 30
0.0
 11
557.9585747217
 21
444.5170647555
 31
0.0
  0
LINE
  5
214
  8
0
  6
CONTINUOUS
 62
     7
 10
679.8769885097
 20
444.5170647555
 30
0.0
 11
676.5888573025
 21
444.5170647555
 31
0.0
  0
ARC
  5
215
  8
0
  6
CONTINUOUS
 62
     7
 10
604.4070946407
 20
456.4092999791
 30
0.0
 40
29.24499295227794
 50
81.4852579806
 51
98.5147420194
  0
ARC
  5
216
  8
0
  6
CONTINUOUS
 62
     7
 10
604.450909941
 20
488.4392376197
 30
0.0
 40
5.294120543031855
 50
324.0604041465
 51
0.7441731303
  0
ARC
  5
217
  8
0
  6
CONTINUOUS
 62
     7
 10
644.9767365545
 20
488.8085207016
 30
0.0
 40
3.995820403509397
 50
184.3132581364
 51
240.4646945896
  0
LINE
  5
218
  8
0
  6
CONTINUOUS
 62
     7
 10
609.1038433258
 20
527.3393726998
 30
0.0
 11
608.7372216751
 21
485.3319487625
 31
0.0
  0
POLYLINE
  5
219
  8
0
  6
CONTINUOUS
 62
     7
 66
     1
 10
0.0
 20
0.0
 30
0.0
  0
VERTEX
  5
5D8
  8
0
  6
CONTINUOUS
 62
     7
 10
610.6036144663
 20
530.287016099
 30
0.0
  0
VERTEX
  5
5D9
  8
0
  6
CONTINUOUS
 62
     7
 10
610.4927628656
 20
530.2788204604
 30
0.0
  0
VERTEX
  5
5DA
  8
0
  6
CONTINUOUS
 62
     7
 10
610.3825170901
 20
530.2542484456
 30
0.0
  0
VERTEX
  5
5DB
  8
0
  6
CONTINUOUS
 62
     7
 10
610.2734806371
 20
530.2134639674
 30
0.0
  0
VERTEX
  5
5DC
  8
0
  6
CONTINUOUS
 62
     7
 10
610.1662495528
 20
530.1566607409
 30
0.0
  0
VERTEX
  5
5DD
  8
0
  6
CONTINUOUS
 62
     7
 10
610.0614101049
 20
530.0841665917
 30
0.0
  0
VERTEX
  5
5DE
  8
0
  6
CONTINUOUS
 62
     7
 10
609.9595364538
 20
529.9963838511
 30
0.0
  0
VERTEX
  5
5DF
  8
0
  6
CONTINUOUS
 62
     7
 10
609.8611845989
 20
529.8937744551
 30
0.0
  0
VERTEX
  5
5E0
  8
0
  6
CONTINUOUS
 62
     7
 10
609.7668933105
 20
529.776919549
 30
0.0
  0
VERTEX
  5
5E1
  8
0
  6
CONTINUOUS
 62
     7
 10
609.6771780756
 20
529.6464449816
 30
0.0
  0
VERTEX
  5
5E2
  8
0
  6
CONTINUOUS
 62
     7
 10
609.5925292355
 20
529.5030660086
 30
0.0
  0
VERTEX
  5
5E3
  8
0
  6
CONTINUOUS
 62
     7
 10
609.5134101231
 20
529.3475574904
 30
0.0
  0
VERTEX
  5
5E4
  8
0
  6
CONTINUOUS
 62
     7
 10
609.4402528723
 20
529.1807836943
 30
0.0
  0
VERTEX
  5
5E5
  8
0
  6
CONTINUOUS
 62
     7
 10
609.3734584172
 20
529.0036684924
 30
0.0
  0
VERTEX
  5
5E6
  8
0
  6
CONTINUOUS
 62
     7
 10
609.3133909051
 20
528.8171506577
 30
0.0
  0
VERTEX
  5
5E7
  8
0
  6
CONTINUOUS
 62
     7
 10
609.2603800242
 20
528.6222583705
 30
0.0
  0
VERTEX
  5
5E8
  8
0
  6
CONTINUOUS
 62
     7
 10
609.2147144844
 20
528.4200794154
 30
0.0
  0
VERTEX
  5
5E9
  8
0
  6
CONTINUOUS
 62
     7
 10
609.1766448115
 20
528.2117015772
 30
0.0
  0
VERTEX
  5
5EA
  8
0
  6
CONTINUOUS
 62
     7
 10
609.1463796218
 20
527.9982573443
 30
0.0
  0
VERTEX
  5
5EB
  8
0
  6
CONTINUOUS
 62
     7
 10
609.1240837593
 20
527.7809388094
 30
0.0
  0
VERTEX
  5
5EC
  8
0
  6
CONTINUOUS
 62
     7
 10
609.1098782961
 20
527.5609082633
 30
0.0
  0
VERTEX
  5
5ED
  8
0
  6
CONTINUOUS
 62
     7
 10
609.1038433258
 20
527.3393726998
 30
0.0
  0
SEQEND
  5
76E
  8
0
  6
CONTINUOUS
 62
     7
  0
LINE
  5
21A
  8
0
  6
CONTINUOUS
 62
     7
 10
612.203964254
 20
530.287016099
 30
0.0
 11
610.6036144663
 21
530.287016099
 31
0.0
  0
POLYLINE
  5
21B
  8
0
  6
CONTINUOUS
 62
     7
 66
     1
 10
0.0
 20
0.0
 30
0.0
  0
VERTEX
  5
5EE
  8
0
  6
CONTINUOUS
 62
     7
 10
611.1750958842
 20
528.4265316182
 30
0.0
  0
VERTEX
  5
5EF
  8
0
  6
CONTINUOUS
 62
     7
 10
611.2010271643
 20
528.753209775
 30
0.0
  0
VERTEX
  5
5F0
  8
0
  6
CONTINUOUS
 62
     7
 10
611.2539458443
 20
529.0666109973
 30
0.0
  0
VERTEX
  5
5F1
  8
0
  6
CONTINUOUS
 62
     7
 10
611.332491262
 20
529.3575561696
 30
0.0
  0
VERTEX
  5
5F2
  8
0
  6
CONTINUOUS
 62
     7
 10
611.4338950609
 20
529.6187586241
 30
0.0
  0
VERTEX
  5
5F3
  8
0
  6
CONTINUOUS
 62
     7
 10
611.5571407025
 20
529.8457480126
 30
0.0
  0
VERTEX
  5
5F4
  8
0
  6
CONTINUOUS
 62
     7
 10
611.6971734334
 20
530.0297922545
 30
0.0
  0
VERTEX
  5
5F5
  8
0
  6
CONTINUOUS
 62
     7
 10
611.8546656687
 20
530.169147914
 30
0.0
  0
VERTEX
  5
5F6
  8
0
  6
CONTINUOUS
 62
     7
 10
612.0213873108
 20
530.2556044512
 30
0.0
  0
VERTEX
  5
5F7
  8
0
  6
CONTINUOUS
 62
     7
 10
612.203964254
 20
530.287016099
 30
0.0
  0
SEQEND
  5
76D
  8
0
  6
CONTINUOUS
 62
     7
  0
LINE
  5
21C
  8
0
  6
CONTINUOUS
 62
     7
 10
609.7445839439
 20
488.5079971605
 30
0.0
 11
611.1750958842
 21
528.4265316182
 31
0.0
  0
LINE
  5
21D
  8
0
  6
CONTINUOUS
 62
     7
 10
600.4435883258
 20
527.3393726998
 30
0.0
 11
600.0769676064
 21
485.3319487625
 31
0.0
  0
POLYLINE
  5
21E
  8
0
  6
CONTINUOUS
 62
     7
 66
     1
 10
0.0
 20
0.0
 30
0.0
  0
VERTEX
  5
5F8
  8
0
  6
CONTINUOUS
 62
     7
 10
640.9922332857
 20
488.5079971605
 30
0.0
  0
VERTEX
  5
5F9
  8
0
  6
CONTINUOUS
 62
     7
 10
640.625351796
 20
493.6401209884
 30
0.0
  0
VERTEX
  5
5FA
  8
0
  6
CONTINUOUS
 62
     7
 10
638.1312103365
 20
528.4265316182
 30
0.0
  0
SEQEND
  5
76C
  8
0
  6
CONTINUOUS
 62
     7
  0
LINE
  5
21F
  8
0
  6
CONTINUOUS
 62
     7
 10
610.6036144663
 20
530.287016099
 30
0.0
 11
601.9433603977
 21
530.287016099
 31
0.0
  0
POLYLINE
  5
220
  8
0
  6
CONTINUOUS
 62
     7
 66
     1
 10
0.0
 20
0.0
 30
0.0
  0
VERTEX
  5
5FB
  8
0
  6
CONTINUOUS
 62
     7
 10
601.9433603977
 20
530.287016099
 30
0.0
  0
VERTEX
  5
5FC
  8
0
  6
CONTINUOUS
 62
     7
 10
601.8325087969
 20
530.2788204604
 30
0.0
  0
VERTEX
  5
5FD
  8
0
  6
CONTINUOUS
 62
     7
 10
601.7222625558
 20
530.2542484456
 30
0.0
  0
VERTEX
  5
5FE
  8
0
  6
CONTINUOUS
 62
     7
 10
601.6132270341
 20
530.2134639674
 30
0.0
  0
VERTEX
  5
5FF
  8
0
  6
CONTINUOUS
 62
     7
 10
601.5059945528
 20
530.1566607409
 30
0.0
  0
VERTEX
  5
600
  8
0
  6
CONTINUOUS
 62
     7
 10
601.4011555706
 20
530.0841665917
 30
0.0
  0
VERTEX
  5
601
  8
0
  6
CONTINUOUS
 62
     7
 10
601.2992819194
 20
529.9963838511
 30
0.0
  0
VERTEX
  5
602
  8
0
  6
CONTINUOUS
 62
     7
 10
601.2009305303
 20
529.8937744551
 30
0.0
  0
VERTEX
  5
603
  8
0
  6
CONTINUOUS
 62
     7
 10
601.1066397075
 20
529.776919549
 30
0.0
  0
VERTEX
  5
604
  8
0
  6
CONTINUOUS
 62
     7
 10
601.0169235413
 20
529.6464449816
 30
0.0
  0
VERTEX
  5
605
  8
0
  6
CONTINUOUS
 62
     7
 10
600.9322756325
 20
529.5030660086
 30
0.0
  0
VERTEX
  5
606
  8
0
  6
CONTINUOUS
 62
     7
 10
600.8531560545
 20
529.3475574904
 30
0.0
  0
VERTEX
  5
607
  8
0
  6
CONTINUOUS
 62
     7
 10
600.7799988036
 20
529.1807836943
 30
0.0
  0
VERTEX
  5
608
  8
0
  6
CONTINUOUS
 62
     7
 10
600.7132043485
 20
529.0036684924
 30
0.0
  0
VERTEX
  5
609
  8
0
  6
CONTINUOUS
 62
     7
 10
600.6531359051
 20
528.8171506577
 30
0.0
  0
VERTEX
  5
60A
  8
0
  6
CONTINUOUS
 62
     7
 10
600.6001250242
 20
528.6222583705
 30
0.0
  0
VERTEX
  5
60B
  8
0
  6
CONTINUOUS
 62
     7
 10
600.5544604157
 20
528.4200794154
 30
0.0
  0
VERTEX
  5
60C
  8
0
  6
CONTINUOUS
 62
     7
 10
600.5163916741
 20
528.2117015772
 30
0.0
  0
VERTEX
  5
60D
  8
0
  6
CONTINUOUS
 62
     7
 10
600.4861255531
 20
527.9982573443
 30
0.0
  0
VERTEX
  5
60E
  8
0
  6
CONTINUOUS
 62
     7
 10
600.4638296907
 20
527.7809388094
 30
0.0
  0
VERTEX
  5
60F
  8
0
  6
CONTINUOUS
 62
     7
 10
600.4496251588
 20
527.5609082633
 30
0.0
  0
VERTEX
  5
610
  8
0
  6
CONTINUOUS
 62
     7
 10
600.4435883258
 20
527.3393726998
 30
0.0
  0
SEQEND
  5
76B
  8
0
  6
CONTINUOUS
 62
     7
  0
ARC
  5
221
  8
0
  6
CONTINUOUS
 62
     7
 10
636.105509825
 20
528.254255594
 30
0.0
 40
2.033012934264177
 50
4.861031829
 51
90.9029045505
  0
LINE
  5
222
  8
0
  6
CONTINUOUS
 62
     7
 10
636.073473597
 20
530.287016099
 30
0.0
 11
612.203964254
 21
530.287016099
 31
0.0
  0
LINE
  5
223
  8
0
  6
CONTINUOUS
 62
     7
 10
675.2549984847
 20
442.1893171125
 30
0.0
 11
672.7550008689
 21
442.1893171125
 31
0.0
  0
LINE
  5
224
  8
0
  6
CONTINUOUS
 62
     7
 10
675.0688345526
 20
438.6370516472
 30
0.0
 11
675.2549984847
 21
442.1893171125
 31
0.0
  0
LINE
  5
225
  8
0
  6
CONTINUOUS
 62
     7
 10
675.0688345526
 20
438.6370516472
 30
0.0
 11
672.5688332115
 21
438.6370516472
 31
0.0
  0
LINE
  5
226
  8
0
  6
CONTINUOUS
 62
     7
 10
674.9970593844
 20
437.2675008231
 30
0.0
 11
672.4970580433
 21
437.2675008231
 31
0.0
  0
LINE
  5
227
  8
0
  6
CONTINUOUS
 62
     7
 10
674.8176196013
 20
433.8436312132
 30
0.0
 11
674.9970593844
 21
437.2675008231
 31
0.0
  0
LINE
  5
228
  8
0
  6
CONTINUOUS
 62
     7
 10
674.8176196013
 20
433.8436312132
 30
0.0
 11
672.3176219855
 21
433.8436312132
 31
0.0
  0
LINE
  5
229
  8
0
  6
CONTINUOUS
 62
     7
 10
674.3578107451
 20
425.0699541622
 30
0.0
 11
674.8176196013
 21
433.8436312132
 31
0.0
  0
LINE
  5
22A
  8
0
  6
CONTINUOUS
 62
     7
 10
674.3578107451
 20
425.0699541622
 30
0.0
 11
671.8578131293
 21
425.0699541622
 31
0.0
  0
LINE
  5
22B
  8
0
  6
CONTINUOUS
 62
     7
 10
571.2737159227
 20
417.2795041555
 30
0.0
 11
571.2737159227
 21
404.6762808316
 31
0.0
  0
LINE
  5
22C
  8
0
  6
CONTINUOUS
 62
     7
 10
663.2737161015
 20
417.2795041555
 30
0.0
 11
663.2737161015
 21
404.6762808316
 31
0.0
  0
LINE
  5
22D
  8
0
  6
CONTINUOUS
 62
     7
 10
601.9433603977
 20
530.287016099
 30
0.0
 11
597.8204158489
 21
530.287016099
 31
0.0
  0
POLYLINE
  5
22E
  8
0
  6
CONTINUOUS
 62
     7
 66
     1
 10
0.0
 20
0.0
 30
0.0
  0
VERTEX
  5
611
  8
0
  6
CONTINUOUS
 62
     7
 10
609.0075482969
 20
536.5909970456
 30
0.0
  0
VERTEX
  5
612
  8
0
  6
CONTINUOUS
 62
     7
 10
608.8816446607
 20
536.4650971346
 30
0.0
  0
VERTEX
  5
613
  8
0
  6
CONTINUOUS
 62
     7
 10
608.767207468
 20
536.3506562167
 30
0.0
  0
VERTEX
  5
614
  8
0
  6
CONTINUOUS
 62
     7
 10
608.6643913184
 20
536.2478531056
 30
0.0
  0
VERTEX
  5
615
  8
0
  6
CONTINUOUS
 62
     7
 10
608.5733387043
 20
536.1567921095
 30
0.0
  0
VERTEX
  5
616
  8
0
  6
CONTINUOUS
 62
     7
 10
608.4941734914
 20
536.0776222401
 30
0.0
  0
VERTEX
  5
617
  8
0
  6
CONTINUOUS
 62
     7
 10
608.4270037134
 20
536.0104627066
 30
0.0
  0
VERTEX
  5
618
  8
0
  6
CONTINUOUS
 62
     7
 10
608.3719206397
 20
535.9553731137
 30
0.0
  0
VERTEX
  5
619
  8
0
  6
CONTINUOUS
 62
     7
 10
608.3290006389
 20
535.9124577694
 30
0.0
  0
VERTEX
  5
61A
  8
0
  6
CONTINUOUS
 62
     7
 10
608.2983005215
 20
535.8817613774
 30
0.0
  0
VERTEX
  5
61B
  8
0
  6
CONTINUOUS
 62
     7
 10
608.2798640598
 20
535.8633137398
 30
0.0
  0
VERTEX
  5
61C
  8
0
  6
CONTINUOUS
 62
     7
 10
608.2737163995
 20
535.8571744614
 30
0.0
  0
SEQEND
  5
76A
  8
0
  6
CONTINUOUS
 62
     7
  0
POLYLINE
  5
22F
  8
0
  6
CONTINUOUS
 62
     7
 66
     1
 10
0.0
 20
0.0
 30
0.0
  0
VERTEX
  5
61D
  8
0
  6
CONTINUOUS
 62
     7
 10
610.273715796
 20
565.5909962111
 30
0.0
  0
VERTEX
  5
61E
  8
0
  6
CONTINUOUS
 62
     7
 10
610.121881811
 20
562.1134228163
 30
0.0
  0
VERTEX
  5
61F
  8
0
  6
CONTINUOUS
 62
     7
 10
609.9753796478
 20
558.7579793387
 30
0.0
  0
VERTEX
  5
620
  8
0
  6
CONTINUOUS
 62
     7
 10
609.8343187366
 20
555.527139371
 30
0.0
  0
VERTEX
  5
621
  8
0
  6
CONTINUOUS
 62
     7
 10
609.6988038514
 20
552.4233467036
 30
0.0
  0
VERTEX
  5
622
  8
0
  6
CONTINUOUS
 62
     7
 10
609.5689365064
 20
549.4488961154
 30
0.0
  0
VERTEX
  5
623
  8
0
  6
CONTINUOUS
 62
     7
 10
609.4448135589
 20
546.6060227805
 30
0.0
  0
VERTEX
  5
624
  8
0
  6
CONTINUOUS
 62
     7
 10
609.32652721
 20
543.8968128615
 30
0.0
  0
VERTEX
  5
625
  8
0
  6
CONTINUOUS
 62
     7
 10
609.2141659354
 20
541.3233227187
 30
0.0
  0
VERTEX
  5
626
  8
0
  6
CONTINUOUS
 62
     7
 10
609.107813554
 20
538.8874447995
 30
0.0
  0
VERTEX
  5
627
  8
0
  6
CONTINUOUS
 62
     7
 10
609.0075482969
 20
536.5909970456
 30
0.0
  0
SEQEND
  5
769
  8
0
  6
CONTINUOUS
 62
     7
  0
LINE
  5
230
  8
0
  6
CONTINUOUS
 62
     7
 10
610.273715796
 20
565.5909962111
 30
0.0
 11
611.6168617625
 21
565.5909962111
 31
0.0
  0
POLYLINE
  5
231
  8
0
  6
CONTINUOUS
 62
     7
 66
     1
 10
0.0
 20
0.0
 30
0.0
  0
VERTEX
  5
628
  8
0
  6
CONTINUOUS
 62
     7
 10
613.7141545658
 20
536.5909970456
 30
0.0
  0
VERTEX
  5
629
  8
0
  6
CONTINUOUS
 62
     7
 10
613.4897982591
 20
538.8874447995
 30
0.0
  0
VERTEX
  5
62A
  8
0
  6
CONTINUOUS
 62
     7
 10
613.2682633941
 20
541.3233227187
 30
0.0
  0
VERTEX
  5
62B
  8
0
  6
CONTINUOUS
 62
     7
 10
613.0497141164
 20
543.8968128615
 30
0.0
  0
VERTEX
  5
62C
  8
0
  6
CONTINUOUS
 62
     7
 10
612.8343145718
 20
546.6060227805
 30
0.0
  0
VERTEX
  5
62D
  8
0
  6
CONTINUOUS
 62
     7
 10
612.6222244818
 20
549.4488961154
 30
0.0
  0
VERTEX
  5
62E
  8
0
  6
CONTINUOUS
 62
     7
 10
612.4136021715
 20
552.4233467036
 30
0.0
  0
VERTEX
  5
62F
  8
0
  6
CONTINUOUS
 62
     7
 10
612.2086036374
 20
555.527139371
 30
0.0
  0
VERTEX
  5
630
  8
0
  6
CONTINUOUS
 62
     7
 10
612.0073811506
 20
558.7579793387
 30
0.0
  0
VERTEX
  5
631
  8
0
  6
CONTINUOUS
 62
     7
 10
611.8100846541
 20
562.1134228163
 30
0.0
  0
VERTEX
  5
632
  8
0
  6
CONTINUOUS
 62
     7
 10
611.6168617625
 20
565.5909962111
 30
0.0
  0
SEQEND
  5
768
  8
0
  6
CONTINUOUS
 62
     7
  0
ARC
  5
232
  8
0
  6
CONTINUOUS
 62
     7
 10
617.2737160121
 20
544.8572078997
 30
0.0
 40
9.000039976333413
 50
246.7025222577
 51
293.2974777423
  0
POLYLINE
  5
233
  8
0
  6
CONTINUOUS
 62
     7
 66
     1
 10
0.0
 20
0.0
 30
0.0
  0
VERTEX
  5
633
  8
0
  6
CONTINUOUS
 62
     7
 10
622.9305702616
 20
565.5909962111
 30
0.0
  0
VERTEX
  5
634
  8
0
  6
CONTINUOUS
 62
     7
 10
622.7373473701
 20
562.1134228163
 30
0.0
  0
VERTEX
  5
635
  8
0
  6
CONTINUOUS
 62
     7
 10
622.5400508736
 20
558.7579793387
 30
0.0
  0
VERTEX
  5
636
  8
0
  6
CONTINUOUS
 62
     7
 10
622.3388283868
 20
555.527139371
 30
0.0
  0
VERTEX
  5
637
  8
0
  6
CONTINUOUS
 62
     7
 10
622.1338298526
 20
552.4233467036
 30
0.0
  0
VERTEX
  5
638
  8
0
  6
CONTINUOUS
 62
     7
 10
621.9252075423
 20
549.4488961154
 30
0.0
  0
VERTEX
  5
639
  8
0
  6
CONTINUOUS
 62
     7
 10
621.7131174524
 20
546.6060227805
 30
0.0
  0
VERTEX
  5
63A
  8
0
  6
CONTINUOUS
 62
     7
 10
621.4977179077
 20
543.8968128615
 30
0.0
  0
VERTEX
  5
63B
  8
0
  6
CONTINUOUS
 62
     7
 10
621.2791686301
 20
541.3233227187
 30
0.0
  0
VERTEX
  5
63C
  8
0
  6
CONTINUOUS
 62
     7
 10
621.0576337651
 20
538.8874447995
 30
0.0
  0
VERTEX
  5
63D
  8
0
  6
CONTINUOUS
 62
     7
 10
620.8332774584
 20
536.5909970456
 30
0.0
  0
SEQEND
  5
767
  8
0
  6
CONTINUOUS
 62
     7
  0
LINE
  5
234
  8
0
  6
CONTINUOUS
 62
     7
 10
622.9305702616
 20
565.5909962111
 30
0.0
 11
624.2737162282
 21
565.5909962111
 31
0.0
  0
POLYLINE
  5
235
  8
0
  6
CONTINUOUS
 62
     7
 66
     1
 10
0.0
 20
0.0
 30
0.0
  0
VERTEX
  5
63E
  8
0
  6
CONTINUOUS
 62
     7
 10
625.5398837273
 20
536.5909970456
 30
0.0
  0
VERTEX
  5
63F
  8
0
  6
CONTINUOUS
 62
     7
 10
625.4396184702
 20
538.8874447995
 30
0.0
  0
VERTEX
  5
640
  8
0
  6
CONTINUOUS
 62
     7
 10
625.3332660888
 20
541.3233227187
 30
0.0
  0
VERTEX
  5
641
  8
0
  6
CONTINUOUS
 62
     7
 10
625.2209048141
 20
543.8968128615
 30
0.0
  0
VERTEX
  5
642
  8
0
  6
CONTINUOUS
 62
     7
 10
625.1026184653
 20
546.6060227805
 30
0.0
  0
VERTEX
  5
643
  8
0
  6
CONTINUOUS
 62
     7
 10
624.9784955178
 20
549.4488961154
 30
0.0
  0
VERTEX
  5
644
  8
0
  6
CONTINUOUS
 62
     7
 10
624.8486281727
 20
552.4233467036
 30
0.0
  0
VERTEX
  5
645
  8
0
  6
CONTINUOUS
 62
     7
 10
624.7131132875
 20
555.527139371
 30
0.0
  0
VERTEX
  5
646
  8
0
  6
CONTINUOUS
 62
     7
 10
624.5720523764
 20
558.7579793387
 30
0.0
  0
VERTEX
  5
647
  8
0
  6
CONTINUOUS
 62
     7
 10
624.4255502132
 20
562.1134228163
 30
0.0
  0
VERTEX
  5
648
  8
0
  6
CONTINUOUS
 62
     7
 10
624.2737162282
 20
565.5909962111
 30
0.0
  0
SEQEND
  5
766
  8
0
  6
CONTINUOUS
 62
     7
  0
POLYLINE
  5
236
  8
0
  6
CONTINUOUS
 62
     7
 66
     1
 10
0.0
 20
0.0
 30
0.0
  0
VERTEX
  5
649
  8
0
  6
CONTINUOUS
 62
     7
 10
626.2737156247
 20
535.8571744614
 30
0.0
  0
VERTEX
  5
64A
  8
0
  6
CONTINUOUS
 62
     7
 10
626.2675679643
 20
535.8633137398
 30
0.0
  0
VERTEX
  5
64B
  8
0
  6
CONTINUOUS
 62
     7
 10
626.2491315027
 20
535.8817613774
 30
0.0
  0
VERTEX
  5
64C
  8
0
  6
CONTINUOUS
 62
     7
 10
626.2184313853
 20
535.9124577694
 30
0.0
  0
VERTEX
  5
64D
  8
0
  6
CONTINUOUS
 62
     7
 10
626.1755113845
 20
535.9553731137
 30
0.0
  0
VERTEX
  5
64E
  8
0
  6
CONTINUOUS
 62
     7
 10
626.1204283108
 20
536.0104627066
 30
0.0
  0
VERTEX
  5
64F
  8
0
  6
CONTINUOUS
 62
     7
 10
626.0532585327
 20
536.0776222401
 30
0.0
  0
VERTEX
  5
650
  8
0
  6
CONTINUOUS
 62
     7
 10
625.9740933199
 20
536.1567921095
 30
0.0
  0
VERTEX
  5
651
  8
0
  6
CONTINUOUS
 62
     7
 10
625.8830407058
 20
536.2478531056
 30
0.0
  0
VERTEX
  5
652
  8
0
  6
CONTINUOUS
 62
     7
 10
625.7802245562
 20
536.3506562167
 30
0.0
  0
VERTEX
  5
653
  8
0
  6
CONTINUOUS
 62
     7
 10
625.6657873635
 20
536.4650971346
 30
0.0
  0
VERTEX
  5
654
  8
0
  6
CONTINUOUS
 62
     7
 10
625.5398837273
 20
536.5909970456
 30
0.0
  0
SEQEND
  5
765
  8
0
  6
CONTINUOUS
 62
     7
  0
LINE
  5
237
  8
0
  6
CONTINUOUS
 62
     7
 10
613.7141545658
 20
536.5909970456
 30
0.0
 11
620.8332774584
 21
536.5909970456
 31
0.0
  0
LINE
  5
238
  8
0
  6
CONTINUOUS
 62
     7
 10
611.6168617625
 20
565.5909962111
 30
0.0
 11
622.9305702616
 21
565.5909962111
 31
0.0
  0
LINE
  5
239
  8
0
  6
CONTINUOUS
 62
     7
 10
674.9970593844
 20
437.2675008231
 30
0.0
 11
675.0688345526
 21
438.6370516472
 31
0.0
  0
ARC
  5
23A
  8
0
  6
CONTINUOUS
 62
     7
 10
639.2741729266
 20
527.2870203429
 30
0.0
 40
3.0
 50
1.0
 51
90.0
  0
LINE
  5
23B
  8
0
  6
CONTINUOUS
 62
     7
 10
642.2737163846
 20
527.3393726998
 30
0.0
 11
643.0069578235
 21
485.3319487625
 31
0.0
  0
LINE
  5
23C
  8
0
  6
CONTINUOUS
 62
     7
 10
636.073473597
 20
530.287016099
 30
0.0
 11
639.2741722409
 21
530.287016099
 31
0.0
  0
CIRCLE
  5
23D
  8
0
  6
CONTINUOUS
 62
     7
 10
617.2737160121
 20
372.0870203429
 30
0.0
 40
72.0
  0
POLYLINE
  5
23E
  8
0
  6
CONTINUOUS
 62
     7
 66
     1
 10
0.0
 20
0.0
 30
0.0
  0
VERTEX
  5
655
  8
0
  6
CONTINUOUS
 62
     7
 10
576.5552611445
 20
299.0609592848
 30
0.0
  0
VERTEX
  5
656
  8
0
  6
CONTINUOUS
 62
     7
 10
576.5631438588
 20
299.0638277584
 30
0.0
  0
VERTEX
  5
657
  8
0
  6
CONTINUOUS
 62
     7
 10
576.5867472981
 20
299.0724182778
 30
0.0
  0
VERTEX
  5
658
  8
0
  6
CONTINUOUS
 62
     7
 10
576.6259410773
 20
299.0866861396
 30
0.0
  0
VERTEX
  5
659
  8
0
  6
CONTINUOUS
 62
     7
 10
576.6805054043
 20
299.1065419369
 30
0.0
  0
VERTEX
  5
65A
  8
0
  6
CONTINUOUS
 62
     7
 10
576.7501348053
 20
299.1318888121
 30
0.0
  0
VERTEX
  5
65B
  8
0
  6
CONTINUOUS
 62
     7
 10
576.8344381247
 20
299.162570303
 30
0.0
  0
VERTEX
  5
65C
  8
0
  6
CONTINUOUS
 62
     7
 10
576.9329459761
 20
299.1984224968
 30
0.0
  0
VERTEX
  5
65D
  8
0
  6
CONTINUOUS
 62
     7
 10
577.0451070164
 20
299.2392516785
 30
0.0
  0
VERTEX
  5
65E
  8
0
  6
CONTINUOUS
 62
     7
 10
577.1702953969
 20
299.2848119789
 30
0.0
  0
VERTEX
  5
65F
  8
0
  6
CONTINUOUS
 62
     7
 10
577.3078070377
 20
299.3348649793
 30
0.0
  0
VERTEX
  5
660
  8
0
  6
CONTINUOUS
 62
     7
 10
577.4568782543
 20
299.3891201072
 30
0.0
  0
VERTEX
  5
661
  8
0
  6
CONTINUOUS
 62
     7
 10
577.6166708563
 20
299.4472793394
 30
0.0
  0
VERTEX
  5
662
  8
0
  6
CONTINUOUS
 62
     7
 10
577.7862944995
 20
299.5090223008
 30
0.0
  0
VERTEX
  5
663
  8
0
  6
CONTINUOUS
 62
     7
 10
577.9647992347
 20
299.5739913636
 30
0.0
  0
VERTEX
  5
664
  8
0
  6
CONTINUOUS
 62
     7
 10
578.1511866842
 20
299.6418288999
 30
0.0
  0
VERTEX
  5
665
  8
0
  6
CONTINUOUS
 62
     7
 10
578.3444137667
 20
299.7121549302
 30
0.0
  0
VERTEX
  5
666
  8
0
  6
CONTINUOUS
 62
     7
 10
578.543400148
 20
299.7845820242
 30
0.0
  0
VERTEX
  5
667
  8
0
  6
CONTINUOUS
 62
     7
 10
578.7470356916
 20
299.8587003999
 30
0.0
  0
VERTEX
  5
668
  8
0
  6
CONTINUOUS
 62
     7
 10
578.9541767333
 20
299.934092825
 30
0.0
  0
VERTEX
  5
669
  8
0
  6
CONTINUOUS
 62
     7
 10
579.1636684333
 20
300.0103420668
 30
0.0
  0
VERTEX
  5
66A
  8
0
  6
CONTINUOUS
 62
     7
 10
579.3743373249
 20
300.0870234423
 30
0.0
  0
SEQEND
  5
764
  8
0
  6
CONTINUOUS
 62
     7
  0
POLYLINE
  5
23F
  8
0
  6
CONTINUOUS
 62
     7
 66
     1
 10
0.0
 20
0.0
 30
0.0
  0
VERTEX
  5
66B
  8
0
  6
CONTINUOUS
 62
     7
 10
571.9350629841
 20
311.7548449987
 30
0.0
  0
VERTEX
  5
66C
  8
0
  6
CONTINUOUS
 62
     7
 10
571.943556646
 20
311.7579369896
 30
0.0
  0
VERTEX
  5
66D
  8
0
  6
CONTINUOUS
 62
     7
 10
571.9689892028
 20
311.7671906107
 30
0.0
  0
VERTEX
  5
66E
  8
0
  6
CONTINUOUS
 62
     7
 10
572.0112004672
 20
311.7825574332
 30
0.0
  0
VERTEX
  5
66F
  8
0
  6
CONTINUOUS
 62
     7
 10
572.0699408446
 20
311.8039368742
 30
0.0
  0
VERTEX
  5
670
  8
0
  6
CONTINUOUS
 62
     7
 10
572.1448601578
 20
311.8312022739
 30
0.0
  0
VERTEX
  5
671
  8
0
  6
CONTINUOUS
 62
     7
 10
572.2354964708
 20
311.8641934448
 30
0.0
  0
VERTEX
  5
672
  8
0
  6
CONTINUOUS
 62
     7
 10
572.3413133417
 20
311.9027092212
 30
0.0
  0
VERTEX
  5
673
  8
0
  6
CONTINUOUS
 62
     7
 10
572.4616700207
 20
311.9465149098
 30
0.0
  0
SEQEND
  5
763
  8
0
  6
CONTINUOUS
 62
     7
  0
LINE
  5
240
  8
0
  6
CONTINUOUS
 62
     7
 10
575.9485789929
 20
309.4992152505
 30
0.0
 11
579.3743373249
 21
300.0870234423
 31
0.0
  0
POLYLINE
  5
241
  8
0
  6
CONTINUOUS
 62
     7
 66
     1
 10
0.0
 20
0.0
 30
0.0
  0
VERTEX
  5
674
  8
0
  6
CONTINUOUS
 62
     7
 10
662.6123690401
 20
311.7548449987
 30
0.0
  0
VERTEX
  5
675
  8
0
  6
CONTINUOUS
 62
     7
 10
662.6038753782
 20
311.7579369896
 30
0.0
  0
VERTEX
  5
676
  8
0
  6
CONTINUOUS
 62
     7
 10
662.5784428213
 20
311.7671906107
 30
0.0
  0
VERTEX
  5
677
  8
0
  6
CONTINUOUS
 62
     7
 10
662.536231557
 20
311.7825574332
 30
0.0
  0
VERTEX
  5
678
  8
0
  6
CONTINUOUS
 62
     7
 10
662.4774911795
 20
311.8039368742
 30
0.0
  0
VERTEX
  5
679
  8
0
  6
CONTINUOUS
 62
     7
 10
662.4025718664
 20
311.8312022739
 30
0.0
  0
VERTEX
  5
67A
  8
0
  6
CONTINUOUS
 62
     7
 10
662.3119355534
 20
311.8641934448
 30
0.0
  0
VERTEX
  5
67B
  8
0
  6
CONTINUOUS
 62
     7
 10
662.2061186825
 20
311.9027092212
 30
0.0
  0
VERTEX
  5
67C
  8
0
  6
CONTINUOUS
 62
     7
 10
662.0857620035
 20
311.9465149098
 30
0.0
  0
SEQEND
  5
762
  8
0
  6
CONTINUOUS
 62
     7
  0
POLYLINE
  5
242
  8
0
  6
CONTINUOUS
 62
     7
 66
     1
 10
0.0
 20
0.0
 30
0.0
  0
VERTEX
  5
67D
  8
0
  6
CONTINUOUS
 62
     7
 10
657.9921708797
 20
299.0609592848
 30
0.0
  0
VERTEX
  5
67E
  8
0
  6
CONTINUOUS
 62
     7
 10
657.9842881654
 20
299.0638277584
 30
0.0
  0
VERTEX
  5
67F
  8
0
  6
CONTINUOUS
 62
     7
 10
657.9606847261
 20
299.0724182778
 30
0.0
  0
VERTEX
  5
680
  8
0
  6
CONTINUOUS
 62
     7
 10
657.9214909469
 20
299.0866861396
 30
0.0
  0
VERTEX
  5
681
  8
0
  6
CONTINUOUS
 62
     7
 10
657.8669266199
 20
299.1065419369
 30
0.0
  0
VERTEX
  5
682
  8
0
  6
CONTINUOUS
 62
     7
 10
657.7972972189
 20
299.1318888121
 30
0.0
  0
VERTEX
  5
683
  8
0
  6
CONTINUOUS
 62
     7
 10
657.7129938994
 20
299.162570303
 30
0.0
  0
VERTEX
  5
684
  8
0
  6
CONTINUOUS
 62
     7
 10
657.6144860481
 20
299.1984224968
 30
0.0
  0
VERTEX
  5
685
  8
0
  6
CONTINUOUS
 62
     7
 10
657.5023250078
 20
299.2392516785
 30
0.0
  0
VERTEX
  5
686
  8
0
  6
CONTINUOUS
 62
     7
 10
657.3771366273
 20
299.2848119789
 30
0.0
  0
VERTEX
  5
687
  8
0
  6
CONTINUOUS
 62
     7
 10
657.2396249865
 20
299.3348649793
 30
0.0
  0
VERTEX
  5
688
  8
0
  6
CONTINUOUS
 62
     7
 10
657.0905537699
 20
299.3891201072
 30
0.0
  0
VERTEX
  5
689
  8
0
  6
CONTINUOUS
 62
     7
 10
656.9307611678
 20
299.4472793394
 30
0.0
  0
VERTEX
  5
68A
  8
0
  6
CONTINUOUS
 62
     7
 10
656.7611375247
 20
299.5090223008
 30
0.0
  0
VERTEX
  5
68B
  8
0
  6
CONTINUOUS
 62
     7
 10
656.5826327895
 20
299.5739913636
 30
0.0
  0
VERTEX
  5
68C
  8
0
  6
CONTINUOUS
 62
     7
 10
656.39624534
 20
299.6418288999
 30
0.0
  0
VERTEX
  5
68D
  8
0
  6
CONTINUOUS
 62
     7
 10
656.2030182575
 20
299.7121549302
 30
0.0
  0
VERTEX
  5
68E
  8
0
  6
CONTINUOUS
 62
     7
 10
656.0040318762
 20
299.7845820242
 30
0.0
  0
VERTEX
  5
68F
  8
0
  6
CONTINUOUS
 62
     7
 10
655.8003963326
 20
299.8587003999
 30
0.0
  0
VERTEX
  5
690
  8
0
  6
CONTINUOUS
 62
     7
 10
655.5932552908
 20
299.934092825
 30
0.0
  0
VERTEX
  5
691
  8
0
  6
CONTINUOUS
 62
     7
 10
655.3837635909
 20
300.0103420668
 30
0.0
  0
VERTEX
  5
692
  8
0
  6
CONTINUOUS
 62
     7
 10
655.1730946992
 20
300.0870234423
 30
0.0
  0
SEQEND
  5
761
  8
0
  6
CONTINUOUS
 62
     7
  0
LINE
  5
243
  8
0
  6
CONTINUOUS
 62
     7
 10
658.5988530312
 20
309.4992152505
 30
0.0
 11
655.1730946992
 21
300.0870234423
 31
0.0
  0
LINE
  5
244
  8
0
  6
CONTINUOUS
 62
     7
 10
579.3743373249
 20
300.0870234423
 30
0.0
 11
596.2737162952
 21
300.0870234423
 31
0.0
  0
LINE
  5
245
  8
0
  6
CONTINUOUS
 62
     7
 10
579.3743373249
 20
297.0870173626
 30
0.0
 11
579.3743373249
 21
300.0870234423
 31
0.0
  0
LINE
  5
246
  8
0
  6
CONTINUOUS
 62
     7
 10
655.1730946992
 20
300.0870234423
 30
0.0
 11
638.273715729
 21
300.0870234423
 31
0.0
  0
LINE
  5
247
  8
0
  6
CONTINUOUS
 62
     7
 10
655.1730946992
 20
297.0870173626
 30
0.0
 11
655.1730946992
 21
300.0870234423
 31
0.0
  0
LINE
  5
248
  8
0
  6
CONTINUOUS
 62
     7
 10
565.4025615548
 20
452.0870185547
 30
0.0
 11
565.5074806307
 21
459.0870178395
 31
0.0
  0
LINE
  5
249
  8
0
  6
CONTINUOUS
 62
     7
 10
669.1448704694
 20
452.0870185547
 30
0.0
 11
669.0399513934
 21
459.0870178395
 31
0.0
  0
LINE
  5
24A
  8
0
  6
CONTINUOUS
 62
     7
 10
669.0399513934
 20
459.6517047935
 30
0.0
 11
669.0399513934
 21
459.0870178395
 31
0.0
  0
LINE
  5
24B
  8
0
  6
CONTINUOUS
 62
     7
 10
565.5074806307
 20
459.6517047935
 30
0.0
 11
565.5074806307
 21
459.0870178395
 31
0.0
  0
LINE
  5
24C
  8
0
  6
CONTINUOUS
 62
     7
 10
668.056273589
 20
460.2581671529
 30
0.0
 11
669.0399513934
 21
459.6517047935
 31
0.0
  0
LINE
  5
24D
  8
0
  6
CONTINUOUS
 62
     7
 10
566.4911584352
 20
460.2581671529
 30
0.0
 11
565.5074806307
 21
459.6517047935
 31
0.0
  0
LINE
  5
24E
  8
0
  6
CONTINUOUS
 62
     7
 10
566.673045734
 20
444.5170647555
 30
0.0
 11
566.5612758492
 21
452.0870185547
 31
0.0
  0
LINE
  5
24F
  8
0
  6
CONTINUOUS
 62
     7
 10
667.8743862902
 20
444.5170647555
 30
0.0
 11
667.986156175
 21
452.0870185547
 31
0.0
  0
LINE
  5
250
  8
0
  6
CONTINUOUS
 62
     7
 10
568.240036944
 20
443.5363522821
 30
0.0
 11
566.673045734
 21
444.5170647555
 31
0.0
  0
LINE
  5
251
  8
0
  6
CONTINUOUS
 62
     7
 10
666.3073950802
 20
443.5363522821
 30
0.0
 11
667.8743862902
 21
444.5170647555
 31
0.0
  0
LINE
  5
252
  8
0
  6
CONTINUOUS
 62
     7
 10
556.9222026859
 20
452.0870185547
 30
0.0
 11
557.2786868904
 21
459.0870178395
 31
0.0
  0
LINE
  5
253
  8
0
  6
CONTINUOUS
 62
     7
 10
677.6252293383
 20
452.0870185547
 30
0.0
 11
677.2687451337
 21
459.0870178395
 31
0.0
  0
LINE
  5
254
  8
0
  6
CONTINUOUS
 62
     7
 10
557.2786868904
 20
459.6517047935
 30
0.0
 11
557.2786868904
 21
459.0870178395
 31
0.0
  0
LINE
  5
255
  8
0
  6
CONTINUOUS
 62
     7
 10
560.0019374286
 20
460.145857101
 30
0.0
 11
557.2786868904
 21
459.6517047935
 31
0.0
  0
LINE
  5
256
  8
0
  6
CONTINUOUS
 62
     7
 10
677.2687451337
 20
459.6517047935
 30
0.0
 11
677.2687451337
 21
459.0870178395
 31
0.0
  0
LINE
  5
257
  8
0
  6
CONTINUOUS
 62
     7
 10
674.5454945956
 20
460.145857101
 30
0.0
 11
677.2687451337
 21
459.6517047935
 31
0.0
  0
LINE
  5
258
  8
0
  6
CONTINUOUS
 62
     7
 10
557.9585747217
 20
444.5170647555
 30
0.0
 11
557.5724930857
 21
452.0870185547
 31
0.0
  0
LINE
  5
259
  8
0
  6
CONTINUOUS
 62
     7
 10
676.5888573025
 20
444.5170647555
 30
0.0
 11
676.9749389385
 21
452.0870185547
 31
0.0
  0
LINE
  5
25A
  8
0
  6
CONTINUOUS
 62
     7
 10
562.6363099907
 20
443.6695239597
 30
0.0
 11
557.9585747217
 21
444.5170647555
 31
0.0
  0
LINE
  5
25B
  8
0
  6
CONTINUOUS
 62
     7
 10
671.9111220334
 20
443.6695239597
 30
0.0
 11
676.5888573025
 21
444.5170647555
 31
0.0
  0
LINE
  5
25C
  8
0
  6
CONTINUOUS
 62
     7
 10
573.8891342078
 20
460.4930765086
 30
0.0
 11
573.7686545943
 21
477.0870170646
 31
0.0
  0
LINE
  5
25D
  8
0
  6
CONTINUOUS
 62
     7
 10
660.6582978164
 20
460.4930765086
 30
0.0
 11
660.7787774299
 21
477.0870170646
 31
0.0
  0
LINE
  5
25E
  8
0
  6
CONTINUOUS
 62
     7
 10
571.0406803881
 20
431.1421326452
 30
0.0
 11
571.0237489437
 21
443.4847272091
 31
0.0
  0
LINE
  5
25F
  8
0
  6
CONTINUOUS
 62
     7
 10
663.5067516361
 20
431.1421326452
 30
0.0
 11
663.5236830805
 21
443.4847272091
 31
0.0
  0
LINE
  5
260
  8
0
  6
CONTINUOUS
 62
     7
 10
593.0339114164
 20
488.5079971605
 30
0.0
 11
600.1046874915
 21
488.5079971605
 31
0.0
  0
LINE
  5
261
  8
0
  6
CONTINUOUS
 62
     7
 10
609.7445839439
 20
488.5079971605
 30
0.0
 11
640.9922332857
 21
488.5079971605
 31
0.0
  0
LINE
  5
262
  8
0
  6
CONTINUOUS
 62
     7
 10
609.1038433258
 20
527.3393726998
 30
0.0
 11
600.4435883258
 21
527.3393726998
 31
0.0
  0
LINE
  5
263
  8
0
  6
CONTINUOUS
 62
     7
 10
638.1312103365
 20
528.4265316182
 30
0.0
 11
611.1750958842
 21
528.4265316182
 31
0.0
  0
LINE
  5
264
  8
0
  6
CONTINUOUS
 62
     7
 10
600.5557810311
 20
528.4265316182
 30
0.0
 11
595.8252882008
 21
528.4265316182
 31
0.0
  0
INSERT
  5
28C
  8
FORMAT
  2
SW_CENTERMARKSYMBOL_0
 10
578.3828430468
 20
410.9778933081
 30
0.0
  0
ARC
  5
28D
  8
0
  6
CONTINUOUS
 62
     7
 10
174.8900673746
 20
203.3439879154
 30
0.0
 40
3.0
 50
0.0
 51
30.0141976787
  0
ARC
  5
28E
  8
0
  6
CONTINUOUS
 62
     7
 10
174.8900673746
 20
59.3439879154
 30
0.0
 40
3.000000000000005
 50
329.9682483275
 51
0.0
  0
ARC
  5
28F
  8
0
  6
CONTINUOUS
 62
     7
 10
295.8900673746
 20
203.3439879154
 30
0.0
 40
3.0
 50
0.0
 51
30.0141976788
  0
ARC
  5
290
  8
0
  6
CONTINUOUS
 62
     7
 10
295.8900673746
 20
59.3439879154
 30
0.0
 40
3.0
 50
329.9682483274
 51
0.0
  0
ARC
  5
291
  8
0
  6
CONTINUOUS
 62
     7
 10
288.8900673746
 20
59.3439879154
 30
0.0
 40
3.000000000000005
 50
180.0
 51
210.0141976788
  0
ARC
  5
292
  8
0
  6
CONTINUOUS
 62
     7
 10
288.8900673746
 20
203.3439879154
 30
0.0
 40
3.000000000000002
 50
149.9682483275
 51
180.0
  0
ARC
  5
293
  8
0
  6
CONTINUOUS
 62
     7
 10
167.8900673746
 20
59.3439879154
 30
0.0
 40
3.000000000000018
 50
180.0
 51
210.0141976788
  0
ARC
  5
294
  8
0
  6
CONTINUOUS
 62
     7
 10
167.8900673746
 20
203.3439879154
 30
0.0
 40
3.0
 50
149.9682483274
 51
180.0
  0
LINE
  5
295
  8
0
  6
CONTINUOUS
 62
     7
 10
298.8900690435
 20
86.8439871405
 30
0.0
 11
301.8900676726
 21
89.8439894949
 31
0.0
  0
LINE
  5
296
  8
0
  6
CONTINUOUS
 62
     7
 10
301.8900676726
 20
172.8439863359
 30
0.0
 11
298.8900690435
 21
175.8439886903
 31
0.0
  0
LINE
  5
297
  8
0
  6
CONTINUOUS
 62
     7
 10
164.8900657056
 20
175.8439886903
 30
0.0
 11
161.8900670766
 21
172.8439863359
 31
0.0
  0
LINE
  5
298
  8
0
  6
CONTINUOUS
 62
     7
 10
161.8900670766
 20
89.8439894949
 30
0.0
 11
164.8900657056
 21
86.8439871405
 31
0.0
  0
ARC
  5
299
  8
0
  6
CONTINUOUS
 62
     7
 10
279.8900673746
 20
168.2900062303
 30
0.0
 40
6.0
 50
281.0
 51
0.0
  0
ARC
  5
29A
  8
0
  6
CONTINUOUS
 62
     7
 10
279.8900673746
 20
94.3979696005
 30
0.0
 40
6.000000000000002
 50
0.0
 51
79.0
  0
ARC
  5
29B
  8
0
  6
CONTINUOUS
 62
     7
 10
183.8900673746
 20
94.3979696005
 30
0.0
 40
6.000000000000028
 50
101.0
 51
180.0
  0
ARC
  5
29C
  8
0
  6
CONTINUOUS
 62
     7
 10
183.8900673746
 20
168.2900062303
 30
0.0
 40
6.000000000000028
 50
180.0
 51
259.0
  0
LINE
  5
29D
  8
0
  6
CONTINUOUS
 62
     7
 10
281.034920281
 20
162.4002430176
 30
0.0
 11
275.2693555413
 21
161.2795304095
 31
0.0
  0
LINE
  5
29E
  8
0
  6
CONTINUOUS
 62
     7
 10
188.5107792078
 20
161.2795304095
 30
0.0
 11
182.7452144681
 21
162.4002430176
 31
0.0
  0
LINE
  5
29F
  8
0
  6
CONTINUOUS
 62
     7
 10
182.7452144681
 20
100.2877328133
 30
0.0
 11
188.5107792078
 21
101.4084454213
 31
0.0
  0
LINE
  5
2A0
  8
0
  6
CONTINUOUS
 62
     7
 10
275.2693555413
 20
101.4084454213
 30
0.0
 11
281.034920281
 21
100.2877328133
 31
0.0
  0
LINE
  5
2A1
  8
0
  6
CONTINUOUS
 62
     7
 10
237.5469216241
 20
138.3439881315
 30
0.0
 11
226.233213125
 21
138.3439881315
 31
0.0
  0
ARC
  5
2A2
  8
0
  6
CONTINUOUS
 62
     7
 10
231.8900673746
 20
131.3439879154
 30
0.0
 40
9.00000000000001
 50
38.942441269
 51
51.057558731
  0
LINE
  5
2A3
  8
0
  6
CONTINUOUS
 62
     7
 10
238.8900675906
 20
137.0008421649
 30
0.0
 11
238.8900675906
 21
125.6871336659
 31
0.0
  0
ARC
  5
2A4
  8
0
  6
CONTINUOUS
 62
     7
 10
231.8900673746
 20
131.3439879154
 30
0.0
 40
9.0
 50
308.942441269
 51
321.057558731
  0
LINE
  5
2A5
  8
0
  6
CONTINUOUS
 62
     7
 10
237.5469216241
 20
124.3439876993
 30
0.0
 11
226.233213125
 21
124.3439876993
 31
0.0
  0
ARC
  5
2A6
  8
0
  6
CONTINUOUS
 62
     7
 10
231.8900673746
 20
131.3439879154
 30
0.0
 40
9.0
 50
218.942441269
 51
231.057558731
  0
LINE
  5
2A7
  8
0
  6
CONTINUOUS
 62
     7
 10
224.8900671585
 20
137.0008421649
 30
0.0
 11
224.8900671585
 21
125.6871336659
 31
0.0
  0
ARC
  5
2A8
  8
0
  6
CONTINUOUS
 62
     7
 10
231.8900673746
 20
131.3439879154
 30
0.0
 40
9.00000000000001
 50
128.942441269
 51
141.057558731
  0
ARC
  5
2A9
  8
0
  6
CONTINUOUS
 62
     7
 10
231.890113116
 20
131.3440163313
 30
0.0
 40
9.000053605223934
 50
203.2976373399
 51
218.9423980758
  0
LINE
  5
2AA
  8
0
  6
CONTINUOUS
 62
     7
 10
223.6238996594
 20
134.9035493617
 30
0.0
 11
223.6238996594
 21
127.7844264691
 31
0.0
  0
ARC
  5
2AB
  8
0
  6
CONTINUOUS
 62
     7
 10
231.890113116
 20
131.3439594995
 30
0.0
 40
9.000053605223929
 50
141.0576019242
 51
156.7023626601
  0
ARC
  5
2AC
  8
0
  6
CONTINUOUS
 62
     7
 10
231.8900216332
 20
131.3439594995
 30
0.0
 40
9.000053605223929
 50
23.2976373399
 51
38.9423980758
  0
LINE
  5
2AD
  8
0
  6
CONTINUOUS
 62
     7
 10
240.1562350898
 20
134.9035493617
 30
0.0
 11
240.1562350898
 21
127.7844264691
 31
0.0
  0
ARC
  5
2AE
  8
0
  6
CONTINUOUS
 62
     7
 10
231.8900216332
 20
131.3440163313
 30
0.0
 40
9.000053605223934
 50
321.0576019242
 51
336.7023626601
  0
ARC
  5
2AF
  8
0
  6
CONTINUOUS
 62
     7
 10
231.8900957905
 20
131.343942174
 30
0.0
 40
9.00005360522394
 50
113.2976373399
 51
128.9423980758
  0
LINE
  5
2B0
  8
0
  6
CONTINUOUS
 62
     7
 10
235.4496288209
 20
139.6101556306
 30
0.0
 11
228.3305059283
 21
139.6101556306
 31
0.0
  0
ARC
  5
2B1
  8
0
  6
CONTINUOUS
 62
     7
 10
231.8900389587
 20
131.343942174
 30
0.0
 40
9.000053605223918
 50
51.0576019242
 51
66.7023626601
  0
LINE
  5
2B2
  8
0
  6
CONTINUOUS
 62
     7
 10
235.4496288209
 20
123.0778202002
 30
0.0
 11
228.3305059283
 21
123.0778202002
 31
0.0
  0
ARC
  5
2B3
  8
0
  6
CONTINUOUS
 62
     7
 10
231.8900957905
 20
131.3440336568
 30
0.0
 40
9.00005360522394
 50
231.0576019242
 51
246.7023626601
  0
ARC
  5
2B4
  8
0
  6
CONTINUOUS
 62
     7
 10
231.8900389587
 20
131.3440336568
 30
0.0
 40
9.00005360522394
 50
293.2976373399
 51
308.9423980758
  0
ARC
  5
2B5
  8
0
  6
CONTINUOUS
 62
     7
 10
231.8900673746
 20
131.3439828506
 30
0.0
 40
9.000005006594385
 50
66.7024263922
 51
113.2975736078
  0
ARC
  5
2B6
  8
0
  6
CONTINUOUS
 62
     7
 10
231.8900623098
 20
131.3439879154
 30
0.0
 40
9.000005006594442
 50
336.7024263922
 51
23.2975736078
  0
ARC
  5
2B7
  8
0
  6
CONTINUOUS
 62
     7
 10
231.8900724394
 20
131.3439879154
 30
0.0
 40
9.000005006594415
 50
156.7024263922
 51
203.2975736078
  0
ARC
  5
2B8
  8
0
  6
CONTINUOUS
 62
     7
 10
231.8900673746
 20
131.3439929802
 30
0.0
 40
9.00000500659441
 50
246.7024263922
 51
293.2975736078
  0
POLYLINE
  5
2B9
  8
0
  6
CONTINUOUS
 62
     7
 66
     1
 10
0.0
 20
0.0
 30
0.0
  0
VERTEX
  5
693
  8
0
  6
CONTINUOUS
 62
     7
 10
210.3371135055
 20
138.0140894612
 30
0.0
  0
VERTEX
  5
694
  8
0
  6
CONTINUOUS
 62
     7
 10
210.1451120435
 20
138.1249410619
 30
0.0
  0
VERTEX
  5
695
  8
0
  6
CONTINUOUS
 62
     7
 10
209.9541611134
 20
138.2351868374
 30
0.0
  0
VERTEX
  5
696
  8
0
  6
CONTINUOUS
 62
     7
 10
209.7653037964
 20
138.3442232904
 30
0.0
  0
VERTEX
  5
697
  8
0
  6
CONTINUOUS
 62
     7
 10
209.5795738606
 20
138.4514543747
 30
0.0
  0
VERTEX
  5
698
  8
0
  6
CONTINUOUS
 62
     7
 10
209.3979864477
 20
138.5562938226
 30
0.0
  0
VERTEX
  5
699
  8
0
  6
CONTINUOUS
 62
     7
 10
209.2215362101
 20
138.6581674737
 30
0.0
  0
VERTEX
  5
69A
  8
0
  6
CONTINUOUS
 62
     7
 10
209.0511861353
 20
138.7565193285
 30
0.0
  0
VERTEX
  5
69B
  8
0
  6
CONTINUOUS
 62
     7
 10
208.8878694086
 20
138.850810617
 30
0.0
  0
VERTEX
  5
69C
  8
0
  6
CONTINUOUS
 62
     7
 10
208.732478237
 20
138.9405258519
 30
0.0
  0
VERTEX
  5
69D
  8
0
  6
CONTINUOUS
 62
     7
 10
208.5858619867
 20
139.025174692
 30
0.0
  0
VERTEX
  5
69E
  8
0
  6
CONTINUOUS
 62
     7
 10
208.4488234578
 20
139.1042938044
 30
0.0
  0
VERTEX
  5
69F
  8
0
  6
CONTINUOUS
 62
     7
 10
208.3221114336
 20
139.1774510552
 30
0.0
  0
VERTEX
  5
6A0
  8
0
  6
CONTINUOUS
 62
     7
 10
208.2064188181
 20
139.2442455103
 30
0.0
  0
VERTEX
  5
6A1
  8
0
  6
CONTINUOUS
 62
     7
 10
208.1023789107
 20
139.3043130224
 30
0.0
  0
VERTEX
  5
6A2
  8
0
  6
CONTINUOUS
 62
     7
 10
208.0105616807
 20
139.3573239033
 30
0.0
  0
VERTEX
  5
6A3
  8
0
  6
CONTINUOUS
 62
     7
 10
207.9314681797
 20
139.4029894431
 30
0.0
  0
VERTEX
  5
6A4
  8
0
  6
CONTINUOUS
 62
     7
 10
207.8655286788
 20
139.441059116
 30
0.0
  0
VERTEX
  5
6A5
  8
0
  6
CONTINUOUS
 62
     7
 10
207.8131082563
 20
139.4713243057
 30
0.0
  0
VERTEX
  5
6A6
  8
0
  6
CONTINUOUS
 62
     7
 10
207.7744900345
 20
139.4936201682
 30
0.0
  0
VERTEX
  5
6A7
  8
0
  6
CONTINUOUS
 62
     7
 10
207.7498863547
 20
139.5078256314
 30
0.0
  0
VERTEX
  5
6A8
  8
0
  6
CONTINUOUS
 62
     7
 10
207.7394331901
 20
139.5138606017
 30
0.0
  0
SEQEND
  5
760
  8
0
  6
CONTINUOUS
 62
     7
  0
POLYLINE
  5
2BA
  8
0
  6
CONTINUOUS
 62
     7
 66
     1
 10
0.0
 20
0.0
 30
0.0
  0
VERTEX
  5
6A9
  8
0
  6
CONTINUOUS
 62
     7
 10
215.3371124624
 20
146.6743435298
 30
0.0
  0
VERTEX
  5
6AA
  8
0
  6
CONTINUOUS
 62
     7
 10
215.1451110004
 20
146.7851951306
 30
0.0
  0
VERTEX
  5
6AB
  8
0
  6
CONTINUOUS
 62
     7
 10
214.9541600703
 20
146.8954413717
 30
0.0
  0
VERTEX
  5
6AC
  8
0
  6
CONTINUOUS
 62
     7
 10
214.7653027533
 20
147.0044768934
 30
0.0
  0
VERTEX
  5
6AD
  8
0
  6
CONTINUOUS
 62
     7
 10
214.5795746802
 20
147.1117093747
 30
0.0
  0
VERTEX
  5
6AE
  8
0
  6
CONTINUOUS
 62
     7
 10
214.3979872672
 20
147.2165483569
 30
0.0
  0
VERTEX
  5
6AF
  8
0
  6
CONTINUOUS
 62
     7
 10
214.2215370296
 20
147.318422008
 30
0.0
  0
VERTEX
  5
6B0
  8
0
  6
CONTINUOUS
 62
     7
 10
214.0511869548
 20
147.4167733972
 30
0.0
  0
VERTEX
  5
6B1
  8
0
  6
CONTINUOUS
 62
     7
 10
213.8878683655
 20
147.51106422
 30
0.0
  0
VERTEX
  5
6B2
  8
0
  6
CONTINUOUS
 62
     7
 10
213.7324771939
 20
147.6007803862
 30
0.0
  0
VERTEX
  5
6B3
  8
0
  6
CONTINUOUS
 62
     7
 10
213.5858609437
 20
147.685428295
 30
0.0
  0
VERTEX
  5
6B4
  8
0
  6
CONTINUOUS
 62
     7
 10
213.4488224147
 20
147.764547873
 30
0.0
  0
VERTEX
  5
6B5
  8
0
  6
CONTINUOUS
 62
     7
 10
213.3221103905
 20
147.8377051239
 30
0.0
  0
VERTEX
  5
6B6
  8
0
  6
CONTINUOUS
 62
     7
 10
213.2064196377
 20
147.904499579
 30
0.0
  0
VERTEX
  5
6B7
  8
0
  6
CONTINUOUS
 62
     7
 10
213.1023797302
 20
147.9645680224
 30
0.0
  0
VERTEX
  5
6B8
  8
0
  6
CONTINUOUS
 62
     7
 10
213.0105625002
 20
148.0175789033
 30
0.0
  0
VERTEX
  5
6B9
  8
0
  6
CONTINUOUS
 62
     7
 10
212.9314671366
 20
148.0632435118
 30
0.0
  0
VERTEX
  5
6BA
  8
0
  6
CONTINUOUS
 62
     7
 10
212.8655294983
 20
148.1013122534
 30
0.0
  0
VERTEX
  5
6BB
  8
0
  6
CONTINUOUS
 62
     7
 10
212.8131072133
 20
148.1315783744
 30
0.0
  0
VERTEX
  5
6BC
  8
0
  6
CONTINUOUS
 62
     7
 10
212.7744889914
 20
148.1538742368
 30
0.0
  0
VERTEX
  5
6BD
  8
0
  6
CONTINUOUS
 62
     7
 10
212.7498871742
 20
148.1680787687
 30
0.0
  0
VERTEX
  5
6BE
  8
0
  6
CONTINUOUS
 62
     7
 10
212.739432147
 20
148.1741156017
 30
0.0
  0
SEQEND
  5
75F
  8
0
  6
CONTINUOUS
 62
     7
  0
LINE
  5
2BB
  8
0
  6
CONTINUOUS
 62
     7
 10
245.6711343585
 20
145.0739932765
 30
0.0
 11
248.4430222868
 21
146.6743435298
 31
0.0
  0
LINE
  5
2BC
  8
0
  6
CONTINUOUS
 62
     7
 10
213.1089995711
 20
136.4137396735
 30
0.0
 11
210.3371135055
 21
138.0140894612
 31
0.0
  0
LINE
  5
2BD
  8
0
  6
CONTINUOUS
 62
     7
 10
250.6711351781
 20
136.4137396735
 30
0.0
 11
253.4430212437
 21
138.0140894612
 31
0.0
  0
LINE
  5
2BE
  8
0
  6
CONTINUOUS
 62
     7
 10
218.1090003906
 20
145.0739932765
 30
0.0
 11
215.3371124624
 21
146.6743435298
 31
0.0
  0
LINE
  5
2BF
  8
0
  6
CONTINUOUS
 62
     7
 10
236.8900672628
 20
112.5442303305
 30
0.0
 11
236.8900672628
 21
109.3435316866
 31
0.0
  0
LINE
  5
2C0
  8
0
  6
CONTINUOUS
 62
     7
 10
226.8900674863
 20
112.5442303305
 30
0.0
 11
226.8900674863
 21
109.3435316866
 31
0.0
  0
POLYLINE
  5
2C1
  8
0
  6
CONTINUOUS
 62
     7
 66
     1
 10
0.0
 20
0.0
 30
0.0
  0
VERTEX
  5
6BF
  8
0
  6
CONTINUOUS
 62
     7
 10
248.4430222868
 20
146.6743435298
 30
0.0
  0
VERTEX
  5
6C0
  8
0
  6
CONTINUOUS
 62
     7
 10
248.6350237487
 20
146.7851951306
 30
0.0
  0
VERTEX
  5
6C1
  8
0
  6
CONTINUOUS
 62
     7
 10
248.8259746789
 20
146.8954413717
 30
0.0
  0
VERTEX
  5
6C2
  8
0
  6
CONTINUOUS
 62
     7
 10
249.0148319958
 20
147.0044768934
 30
0.0
  0
VERTEX
  5
6C3
  8
0
  6
CONTINUOUS
 62
     7
 10
249.200560069
 20
147.1117093747
 30
0.0
  0
VERTEX
  5
6C4
  8
0
  6
CONTINUOUS
 62
     7
 10
249.3821474819
 20
147.2165483569
 30
0.0
  0
VERTEX
  5
6C5
  8
0
  6
CONTINUOUS
 62
     7
 10
249.5585977195
 20
147.318422008
 30
0.0
  0
VERTEX
  5
6C6
  8
0
  6
CONTINUOUS
 62
     7
 10
249.7289477943
 20
147.4167733972
 30
0.0
  0
VERTEX
  5
6C7
  8
0
  6
CONTINUOUS
 62
     7
 10
249.8922663836
 20
147.51106422
 30
0.0
  0
VERTEX
  5
6C8
  8
0
  6
CONTINUOUS
 62
     7
 10
250.0476575552
 20
147.6007803862
 30
0.0
  0
VERTEX
  5
6C9
  8
0
  6
CONTINUOUS
 62
     7
 10
250.1942738055
 20
147.685428295
 30
0.0
  0
VERTEX
  5
6CA
  8
0
  6
CONTINUOUS
 62
     7
 10
250.3313123344
 20
147.764547873
 30
0.0
  0
VERTEX
  5
6CB
  8
0
  6
CONTINUOUS
 62
     7
 10
250.4580243586
 20
147.8377051239
 30
0.0
  0
VERTEX
  5
6CC
  8
0
  6
CONTINUOUS
 62
     7
 10
250.5737151115
 20
147.904499579
 30
0.0
  0
VERTEX
  5
6CD
  8
0
  6
CONTINUOUS
 62
     7
 10
250.6777550189
 20
147.9645680224
 30
0.0
  0
VERTEX
  5
6CE
  8
0
  6
CONTINUOUS
 62
     7
 10
250.7695722489
 20
148.0175789033
 30
0.0
  0
VERTEX
  5
6CF
  8
0
  6
CONTINUOUS
 62
     7
 10
250.8486676125
 20
148.0632435118
 30
0.0
  0
VERTEX
  5
6D0
  8
0
  6
CONTINUOUS
 62
     7
 10
250.9146052508
 20
148.1013122534
 30
0.0
  0
VERTEX
  5
6D1
  8
0
  6
CONTINUOUS
 62
     7
 10
250.9670275359
 20
148.1315783744
 30
0.0
  0
VERTEX
  5
6D2
  8
0
  6
CONTINUOUS
 62
     7
 10
251.0056457578
 20
148.1538742368
 30
0.0
  0
VERTEX
  5
6D3
  8
0
  6
CONTINUOUS
 62
     7
 10
251.0302475749
 20
148.1680787687
 30
0.0
  0
VERTEX
  5
6D4
  8
0
  6
CONTINUOUS
 62
     7
 10
251.0407026021
 20
148.1741156017
 30
0.0
  0
SEQEND
  5
75E
  8
0
  6
CONTINUOUS
 62
     7
  0
POLYLINE
  5
2C2
  8
0
  6
CONTINUOUS
 62
     7
 66
     1
 10
0.0
 20
0.0
 30
0.0
  0
VERTEX
  5
6D5
  8
0
  6
CONTINUOUS
 62
     7
 10
253.4430212437
 20
138.0140894612
 30
0.0
  0
VERTEX
  5
6D6
  8
0
  6
CONTINUOUS
 62
     7
 10
253.6350227057
 20
138.1249410619
 30
0.0
  0
VERTEX
  5
6D7
  8
0
  6
CONTINUOUS
 62
     7
 10
253.8259736358
 20
138.2351868374
 30
0.0
  0
VERTEX
  5
6D8
  8
0
  6
CONTINUOUS
 62
     7
 10
254.0148309528
 20
138.3442232904
 30
0.0
  0
VERTEX
  5
6D9
  8
0
  6
CONTINUOUS
 62
     7
 10
254.2005608885
 20
138.4514543747
 30
0.0
  0
VERTEX
  5
6DA
  8
0
  6
CONTINUOUS
 62
     7
 10
254.3821483015
 20
138.5562938226
 30
0.0
  0
VERTEX
  5
6DB
  8
0
  6
CONTINUOUS
 62
     7
 10
254.5585985391
 20
138.6581674737
 30
0.0
  0
VERTEX
  5
6DC
  8
0
  6
CONTINUOUS
 62
     7
 10
254.7289486139
 20
138.7565193285
 30
0.0
  0
VERTEX
  5
6DD
  8
0
  6
CONTINUOUS
 62
     7
 10
254.8922653406
 20
138.850810617
 30
0.0
  0
VERTEX
  5
6DE
  8
0
  6
CONTINUOUS
 62
     7
 10
255.0476565121
 20
138.9405258519
 30
0.0
  0
VERTEX
  5
6DF
  8
0
  6
CONTINUOUS
 62
     7
 10
255.1942727624
 20
139.025174692
 30
0.0
  0
VERTEX
  5
6E0
  8
0
  6
CONTINUOUS
 62
     7
 10
255.3313112913
 20
139.1042938044
 30
0.0
  0
VERTEX
  5
6E1
  8
0
  6
CONTINUOUS
 62
     7
 10
255.4580233155
 20
139.1774510552
 30
0.0
  0
VERTEX
  5
6E2
  8
0
  6
CONTINUOUS
 62
     7
 10
255.5737159311
 20
139.2442455103
 30
0.0
  0
VERTEX
  5
6E3
  8
0
  6
CONTINUOUS
 62
     7
 10
255.6777558385
 20
139.3043130224
 30
0.0
  0
VERTEX
  5
6E4
  8
0
  6
CONTINUOUS
 62
     7
 10
255.7695730685
 20
139.3573239033
 30
0.0
  0
VERTEX
  5
6E5
  8
0
  6
CONTINUOUS
 62
     7
 10
255.8486665695
 20
139.4029894431
 30
0.0
  0
VERTEX
  5
6E6
  8
0
  6
CONTINUOUS
 62
     7
 10
255.9146060704
 20
139.441059116
 30
0.0
  0
VERTEX
  5
6E7
  8
0
  6
CONTINUOUS
 62
     7
 10
255.9670264928
 20
139.4713243057
 30
0.0
  0
VERTEX
  5
6E8
  8
0
  6
CONTINUOUS
 62
     7
 10
256.0056447147
 20
139.4936201682
 30
0.0
  0
VERTEX
  5
6E9
  8
0
  6
CONTINUOUS
 62
     7
 10
256.0302483945
 20
139.5078256314
 30
0.0
  0
VERTEX
  5
6EA
  8
0
  6
CONTINUOUS
 62
     7
 10
256.0407015591
 20
139.5138606017
 30
0.0
  0
SEQEND
  5
75D
  8
0
  6
CONTINUOUS
 62
     7
  0
LINE
  5
2C3
  8
0
  6
CONTINUOUS
 62
     7
 10
236.8900672628
 20
109.3435316866
 30
0.0
 11
236.8900672628
 21
106.3439875429
 31
0.0
  0
LINE
  5
2C4
  8
0
  6
CONTINUOUS
 62
     7
 10
226.8900674863
 20
109.3435316866
 30
0.0
 11
226.8900674863
 21
106.3439875429
 31
0.0
  0
POLYLINE
  5
2C5
  8
0
  6
CONTINUOUS
 62
     7
 66
     1
 10
0.0
 20
0.0
 30
0.0
  0
VERTEX
  5
6EB
  8
0
  6
CONTINUOUS
 62
     7
 10
207.1044257938
 20
139.8804822524
 30
0.0
  0
VERTEX
  5
6EC
  8
0
  6
CONTINUOUS
 62
     7
 10
207.7624107807
 20
141.0153267493
 30
0.0
  0
VERTEX
  5
6ED
  8
0
  6
CONTINUOUS
 62
     7
 10
208.4213140516
 20
142.1527267953
 30
0.0
  0
VERTEX
  5
6EE
  8
0
  6
CONTINUOUS
 62
     7
 10
209.0807649403
 20
143.2925287222
 30
0.0
  0
VERTEX
  5
6EF
  8
0
  6
CONTINUOUS
 62
     7
 10
209.7465898006
 20
144.4452471619
 30
0.0
  0
VERTEX
  5
6F0
  8
0
  6
CONTINUOUS
 62
     7
 10
210.4116696029
 20
145.5985551288
 30
0.0
  0
VERTEX
  5
6F1
  8
0
  6
CONTINUOUS
 62
     7
 10
211.0746930449
 20
146.7499827554
 30
0.0
  0
VERTEX
  5
6F2
  8
0
  6
CONTINUOUS
 62
     7
 10
211.5899938254
 20
147.6458414977
 30
0.0
  0
VERTEX
  5
6F3
  8
0
  6
CONTINUOUS
 62
     7
 10
212.1044266133
 20
148.5407363211
 30
0.0
  0
SEQEND
  5
75C
  8
0
  6
CONTINUOUS
 62
     7
  0
LINE
  5
2C6
  8
0
  6
CONTINUOUS
 62
     7
 10
207.7394331901
 20
139.5138606017
 30
0.0
 11
207.1044257938
 21
139.8804822524
 31
0.0
  0
LINE
  5
2C7
  8
0
  6
CONTINUOUS
 62
     7
 10
212.739432147
 20
148.1741156017
 30
0.0
 11
212.1044266133
 21
148.5407363211
 31
0.0
  0
POLYLINE
  5
2C8
  8
0
  6
CONTINUOUS
 62
     7
 66
     1
 10
0.0
 20
0.0
 30
0.0
  0
VERTEX
  5
6F4
  8
0
  6
CONTINUOUS
 62
     7
 10
251.6757081358
 20
148.5407363211
 30
0.0
  0
VERTEX
  5
6F5
  8
0
  6
CONTINUOUS
 62
     7
 10
252.3346151321
 20
147.3946228211
 30
0.0
  0
VERTEX
  5
6F6
  8
0
  6
CONTINUOUS
 62
     7
 10
252.995308405
 20
146.2464026694
 30
0.0
  0
VERTEX
  5
6F7
  8
0
  6
CONTINUOUS
 62
     7
 10
253.6578289329
 20
145.0964958926
 30
0.0
  0
VERTEX
  5
6F8
  8
0
  6
CONTINUOUS
 62
     7
 10
254.3285171597
 20
143.9343533998
 30
0.0
  0
VERTEX
  5
6F9
  8
0
  6
CONTINUOUS
 62
     7
 10
255.0000715165
 20
142.7726197575
 30
0.0
  0
VERTEX
  5
6FA
  8
0
  6
CONTINUOUS
 62
     7
 10
255.6709888487
 20
141.6136847397
 30
0.0
  0
VERTEX
  5
6FB
  8
0
  6
CONTINUOUS
 62
     7
 10
256.1735398232
 20
140.7465032821
 30
0.0
  0
VERTEX
  5
6FC
  8
0
  6
CONTINUOUS
 62
     7
 10
256.6757089554
 20
139.8804822524
 30
0.0
  0
SEQEND
  5
75B
  8
0
  6
CONTINUOUS
 62
     7
  0
LINE
  5
2C9
  8
0
  6
CONTINUOUS
 62
     7
 10
251.0407026021
 20
148.1741156017
 30
0.0
 11
251.6757081358
 21
148.5407363211
 31
0.0
  0
LINE
  5
2CA
  8
0
  6
CONTINUOUS
 62
     7
 10
256.0407015591
 20
139.5138606017
 30
0.0
 11
256.6757089554
 21
139.8804822524
 31
0.0
  0
POLYLINE
  5
2CB
  8
0
  6
CONTINUOUS
 62
     7
 66
     1
 10
0.0
 20
0.0
 30
0.0
  0
VERTEX
  5
6FD
  8
0
  6
CONTINUOUS
 62
     7
 10
236.8900672628
 20
105.610746104
 30
0.0
  0
VERTEX
  5
6FE
  8
0
  6
CONTINUOUS
 62
     7
 10
235.5629342238
 20
105.6131805812
 30
0.0
  0
VERTEX
  5
6FF
  8
0
  6
CONTINUOUS
 62
     7
 10
234.2330600696
 20
105.6151177322
 30
0.0
  0
VERTEX
  5
700
  8
0
  6
CONTINUOUS
 62
     7
 10
232.9008023117
 20
105.6163079624
 30
0.0
  0
VERTEX
  5
701
  8
0
  6
CONTINUOUS
 62
     7
 10
231.5537080323
 20
105.6165333425
 30
0.0
  0
VERTEX
  5
702
  8
0
  6
CONTINUOUS
 62
     7
 10
230.2065652658
 20
105.6157975977
 30
0.0
  0
VERTEX
  5
703
  8
0
  6
CONTINUOUS
 62
     7
 10
228.862207765
 20
105.614210624
 30
0.0
  0
VERTEX
  5
704
  8
0
  6
CONTINUOUS
 62
     7
 10
227.8755581102
 20
105.6125975733
 30
0.0
  0
VERTEX
  5
705
  8
0
  6
CONTINUOUS
 62
     7
 10
226.8900674863
 20
105.610746104
 30
0.0
  0
SEQEND
  5
75A
  8
0
  6
CONTINUOUS
 62
     7
  0
LINE
  5
2CC
  8
0
  6
CONTINUOUS
 62
     7
 10
236.8900672628
 20
106.3439875429
 30
0.0
 11
236.8900672628
 21
105.610746104
 31
0.0
  0
LINE
  5
2CD
  8
0
  6
CONTINUOUS
 62
     7
 10
226.8900674863
 20
106.3439875429
 30
0.0
 11
226.8900674863
 21
105.610746104
 31
0.0
  0
CIRCLE
  5
2CE
  8
0
  6
CONTINUOUS
 62
     7
 10
231.8900673746
 20
131.3439879154
 30
0.0
 40
31.0
  0
LINE
  5
2CF
  8
0
  6
CONTINUOUS
 62
     7
 10
262.8485131173
 20
161.0038943176
 30
0.0
 11
240.9061639665
 21
161.0038943176
 31
0.0
  0
ARC
  5
2D0
  8
0
  6
CONTINUOUS
 62
     7
 10
126.2442783341
 20
131.3439879154
 30
0.0
 40
139.7870774016408
 50
347.7499120367
 51
12.2500879633
  0
LINE
  5
2D1
  8
0
  6
CONTINUOUS
 62
     7
 10
262.8485131173
 20
101.6840815132
 30
0.0
 11
240.9061639665
 21
101.6840815132
 31
0.0
  0
ARC
  5
2D2
  8
0
  6
CONTINUOUS
 62
     7
 10
337.5358564151
 20
131.3439879154
 30
0.0
 40
139.7870774016406
 50
167.7499120367
 51
192.2500879633
  0
LINE
  5
2D3
  8
0
  6
CONTINUOUS
 62
     7
 10
200.9316216319
 20
161.0038943176
 30
0.0
 11
222.8739707826
 21
161.0038943176
 31
0.0
  0
LINE
  5
2D4
  8
0
  6
CONTINUOUS
 62
     7
 10
200.9316216319
 20
101.6840815132
 30
0.0
 11
222.8739707826
 21
101.6840815132
 31
0.0
  0
LINE
  5
2D5
  8
0
  6
CONTINUOUS
 62
     7
 10
263.8310491203
 20
103.5912997608
 30
0.0
 11
263.2792963742
 21
103.5925738101
 31
0.0
  0
ARC
  5
2D6
  8
0
  6
CONTINUOUS
 62
     7
 10
135.8900673746
 20
131.3439879154
 30
0.0
 40
130.3769807627063
 50
346.8504561573
 51
347.7102745769
  0
ARC
  5
2D7
  8
0
  6
CONTINUOUS
 62
     7
 10
135.8900673746
 20
131.3439879154
 30
0.0
 40
130.3769807627063
 50
12.2897254231
 51
13.1495438427
  0
LINE
  5
2D8
  8
0
  6
CONTINUOUS
 62
     7
 10
263.8310491203
 20
159.09667607
 30
0.0
 11
263.2792963742
 21
159.0954020207
 31
0.0
  0
ARC
  5
2D9
  8
0
  6
CONTINUOUS
 62
     7
 10
136.0783289593
 20
131.3439879154
 30
0.0
 40
130.7324336510919
 50
347.7436383816
 51
12.2563616184
  0
LINE
  5
2DA
  8
0
  6
CONTINUOUS
 62
     7
 10
199.9490856289
 20
159.09667607
 30
0.0
 11
200.500838375
 21
159.0954020207
 31
0.0
  0
ARC
  5
2DB
  8
0
  6
CONTINUOUS
 62
     7
 10
327.8900673746
 20
131.3439879154
 30
0.0
 40
130.3769807627063
 50
166.8504561573
 51
167.7102745769
  0
ARC
  5
2DC
  8
0
  6
CONTINUOUS
 62
     7
 10
327.8900673746
 20
131.3439879154
 30
0.0
 40
130.3769807627063
 50
192.2897254231
 51
193.1495438427
  0
LINE
  5
2DD
  8
0
  6
CONTINUOUS
 62
     7
 10
199.9490856289
 20
103.5912997608
 30
0.0
 11
200.500838375
 21
103.5925738101
 31
0.0
  0
ARC
  5
2DE
  8
0
  6
CONTINUOUS
 62
     7
 10
327.7018057898
 20
131.3439879154
 30
0.0
 40
130.7324336510919
 50
167.7436383816
 51
192.2563616184
  0
LINE
  5
2DF
  8
0
  6
CONTINUOUS
 62
     7
 10
243.0314299746
 20
181.3439886605
 30
0.0
 11
220.7487047746
 21
181.3439886605
 31
0.0
  0
LINE
  5
2E0
  8
0
  6
CONTINUOUS
 62
     7
 10
242.8791941239
 20
180.7880486881
 30
0.0
 11
243.0314299746
 21
181.3439886605
 31
0.0
  0
POLYLINE
  5
2E1
  8
0
  6
CONTINUOUS
 62
     7
 66
     1
 10
0.0
 20
0.0
 30
0.0
  0
VERTEX
  5
706
  8
0
  6
CONTINUOUS
 62
     7
 10
237.9222511409
 20
161.7514334207
 30
0.0
  0
VERTEX
  5
707
  8
0
  6
CONTINUOUS
 62
     7
 10
238.3572430445
 20
163.3726443683
 30
0.0
  0
VERTEX
  5
708
  8
0
  6
CONTINUOUS
 62
     7
 10
238.7843187063
 20
164.9716209208
 30
0.0
  0
VERTEX
  5
709
  8
0
  6
CONTINUOUS
 62
     7
 10
239.2031805685
 20
166.5472548043
 30
0.0
  0
VERTEX
  5
70A
  8
0
  6
CONTINUOUS
 62
     7
 10
239.6135394557
 20
168.0984507834
 30
0.0
  0
VERTEX
  5
70B
  8
0
  6
CONTINUOUS
 62
     7
 10
240.0151089861
 20
169.6241322492
 30
0.0
  0
VERTEX
  5
70C
  8
0
  6
CONTINUOUS
 62
     7
 10
240.4076120912
 20
171.1232412194
 30
0.0
  0
VERTEX
  5
70D
  8
0
  6
CONTINUOUS
 62
     7
 10
240.7907740309
 20
172.5947383379
 30
0.0
  0
VERTEX
  5
70E
  8
0
  6
CONTINUOUS
 62
     7
 10
241.1643312408
 20
174.0375991498
 30
0.0
  0
VERTEX
  5
70F
  8
0
  6
CONTINUOUS
 62
     7
 10
241.5280229508
 20
175.4508215522
 30
0.0
  0
VERTEX
  5
710
  8
0
  6
CONTINUOUS
 62
     7
 10
241.8815967722
 20
176.8334257935
 30
0.0
  0
VERTEX
  5
711
  8
0
  6
CONTINUOUS
 62
     7
 10
242.2248077674
 20
178.1844544743
 30
0.0
  0
VERTEX
  5
712
  8
0
  6
CONTINUOUS
 62
     7
 10
242.5574175178
 20
179.5029688214
 30
0.0
  0
VERTEX
  5
713
  8
0
  6
CONTINUOUS
 62
     7
 10
242.8791941239
 20
180.7880486881
 30
0.0
  0
SEQEND
  5
759
  8
0
  6
CONTINUOUS
 62
     7
  0
POLYLINE
  5
2E2
  8
0
  6
CONTINUOUS
 62
     7
 66
     1
 10
0.0
 20
0.0
 30
0.0
  0
VERTEX
  5
714
  8
0
  6
CONTINUOUS
 62
     7
 10
225.8578836082
 20
161.7514334207
 30
0.0
  0
VERTEX
  5
715
  8
0
  6
CONTINUOUS
 62
     7
 10
225.4228917046
 20
163.3726443683
 30
0.0
  0
VERTEX
  5
716
  8
0
  6
CONTINUOUS
 62
     7
 10
224.9958160429
 20
164.9716209208
 30
0.0
  0
VERTEX
  5
717
  8
0
  6
CONTINUOUS
 62
     7
 10
224.5769541806
 20
166.5472548043
 30
0.0
  0
VERTEX
  5
718
  8
0
  6
CONTINUOUS
 62
     7
 10
224.1665952935
 20
168.0984507834
 30
0.0
  0
VERTEX
  5
719
  8
0
  6
CONTINUOUS
 62
     7
 10
223.7650257631
 20
169.6241322492
 30
0.0
  0
VERTEX
  5
71A
  8
0
  6
CONTINUOUS
 62
     7
 10
223.372522658
 20
171.1232412194
 30
0.0
  0
VERTEX
  5
71B
  8
0
  6
CONTINUOUS
 62
     7
 10
222.9893607183
 20
172.5947383379
 30
0.0
  0
VERTEX
  5
71C
  8
0
  6
CONTINUOUS
 62
     7
 10
222.6158035083
 20
174.0375991498
 30
0.0
  0
VERTEX
  5
71D
  8
0
  6
CONTINUOUS
 62
     7
 10
222.2521117984
 20
175.4508215522
 30
0.0
  0
VERTEX
  5
71E
  8
0
  6
CONTINUOUS
 62
     7
 10
221.8985379769
 20
176.8334257935
 30
0.0
  0
VERTEX
  5
71F
  8
0
  6
CONTINUOUS
 62
     7
 10
221.5553269817
 20
178.1844544743
 30
0.0
  0
VERTEX
  5
720
  8
0
  6
CONTINUOUS
 62
     7
 10
221.2227172314
 20
179.5029688214
 30
0.0
  0
VERTEX
  5
721
  8
0
  6
CONTINUOUS
 62
     7
 10
220.9009406252
 20
180.7880486881
 30
0.0
  0
SEQEND
  5
758
  8
0
  6
CONTINUOUS
 62
     7
  0
LINE
  5
2E3
  8
0
  6
CONTINUOUS
 62
     7
 10
220.9009406252
 20
180.7880486881
 30
0.0
 11
220.7487047746
 21
181.3439886605
 31
0.0
  0
LINE
  5
2E4
  8
0
  6
CONTINUOUS
 62
     7
 10
220.7487047746
 20
81.3439871704
 30
0.0
 11
243.0314299746
 21
81.3439871704
 31
0.0
  0
LINE
  5
2E5
  8
0
  6
CONTINUOUS
 62
     7
 10
220.9009406252
 20
81.8999271428
 30
0.0
 11
220.7487047746
 21
81.3439871704
 31
0.0
  0
POLYLINE
  5
2E6
  8
0
  6
CONTINUOUS
 62
     7
 66
     1
 10
0.0
 20
0.0
 30
0.0
  0
VERTEX
  5
722
  8
0
  6
CONTINUOUS
 62
     7
 10
225.8578836082
 20
100.9365424101
 30
0.0
  0
VERTEX
  5
723
  8
0
  6
CONTINUOUS
 62
     7
 10
225.4228917046
 20
99.3153314625
 30
0.0
  0
VERTEX
  5
724
  8
0
  6
CONTINUOUS
 62
     7
 10
224.9958160429
 20
97.71635491
 30
0.0
  0
VERTEX
  5
725
  8
0
  6
CONTINUOUS
 62
     7
 10
224.5769541806
 20
96.1407210266
 30
0.0
  0
VERTEX
  5
726
  8
0
  6
CONTINUOUS
 62
     7
 10
224.1665952935
 20
94.5895250474
 30
0.0
  0
VERTEX
  5
727
  8
0
  6
CONTINUOUS
 62
     7
 10
223.7650257631
 20
93.0638435816
 30
0.0
  0
VERTEX
  5
728
  8
0
  6
CONTINUOUS
 62
     7
 10
223.372522658
 20
91.5647346114
 30
0.0
  0
VERTEX
  5
729
  8
0
  6
CONTINUOUS
 62
     7
 10
222.9893607183
 20
90.0932374929
 30
0.0
  0
VERTEX
  5
72A
  8
0
  6
CONTINUOUS
 62
     7
 10
222.6158035083
 20
88.650376681
 30
0.0
  0
VERTEX
  5
72B
  8
0
  6
CONTINUOUS
 62
     7
 10
222.2521117984
 20
87.2371542786
 30
0.0
  0
VERTEX
  5
72C
  8
0
  6
CONTINUOUS
 62
     7
 10
221.8985379769
 20
85.8545500373
 30
0.0
  0
VERTEX
  5
72D
  8
0
  6
CONTINUOUS
 62
     7
 10
221.5553269817
 20
84.5035213565
 30
0.0
  0
VERTEX
  5
72E
  8
0
  6
CONTINUOUS
 62
     7
 10
221.2227172314
 20
83.1850070094
 30
0.0
  0
VERTEX
  5
72F
  8
0
  6
CONTINUOUS
 62
     7
 10
220.9009406252
 20
81.8999271428
 30
0.0
  0
SEQEND
  5
757
  8
0
  6
CONTINUOUS
 62
     7
  0
POLYLINE
  5
2E7
  8
0
  6
CONTINUOUS
 62
     7
 66
     1
 10
0.0
 20
0.0
 30
0.0
  0
VERTEX
  5
730
  8
0
  6
CONTINUOUS
 62
     7
 10
237.9222511409
 20
100.9365424101
 30
0.0
  0
VERTEX
  5
731
  8
0
  6
CONTINUOUS
 62
     7
 10
238.3572430445
 20
99.3153314625
 30
0.0
  0
VERTEX
  5
732
  8
0
  6
CONTINUOUS
 62
     7
 10
238.7843187063
 20
97.71635491
 30
0.0
  0
VERTEX
  5
733
  8
0
  6
CONTINUOUS
 62
     7
 10
239.2031805685
 20
96.1407210266
 30
0.0
  0
VERTEX
  5
734
  8
0
  6
CONTINUOUS
 62
     7
 10
239.6135394557
 20
94.5895250474
 30
0.0
  0
VERTEX
  5
735
  8
0
  6
CONTINUOUS
 62
     7
 10
240.0151089861
 20
93.0638435816
 30
0.0
  0
VERTEX
  5
736
  8
0
  6
CONTINUOUS
 62
     7
 10
240.4076120912
 20
91.5647346114
 30
0.0
  0
VERTEX
  5
737
  8
0
  6
CONTINUOUS
 62
     7
 10
240.7907740309
 20
90.0932374929
 30
0.0
  0
VERTEX
  5
738
  8
0
  6
CONTINUOUS
 62
     7
 10
241.1643312408
 20
88.650376681
 30
0.0
  0
VERTEX
  5
739
  8
0
  6
CONTINUOUS
 62
     7
 10
241.5280229508
 20
87.2371542786
 30
0.0
  0
VERTEX
  5
73A
  8
0
  6
CONTINUOUS
 62
     7
 10
241.8815967722
 20
85.8545500373
 30
0.0
  0
VERTEX
  5
73B
  8
0
  6
CONTINUOUS
 62
     7
 10
242.2248077674
 20
84.5035213565
 30
0.0
  0
VERTEX
  5
73C
  8
0
  6
CONTINUOUS
 62
     7
 10
242.5574175178
 20
83.1850070094
 30
0.0
  0
VERTEX
  5
73D
  8
0
  6
CONTINUOUS
 62
     7
 10
242.8791941239
 20
81.8999271428
 30
0.0
  0
SEQEND
  5
756
  8
0
  6
CONTINUOUS
 62
     7
  0
LINE
  5
2E8
  8
0
  6
CONTINUOUS
 62
     7
 10
242.8791941239
 20
81.8999271428
 30
0.0
 11
243.0314299746
 21
81.3439871704
 31
0.0
  0
ARC
  5
2E9
  8
0
  6
CONTINUOUS
 62
     7
 10
208.8900673746
 20
177.3439879154
 30
0.0
 40
12.00000000000001
 50
16.0
 51
192.0
  0
ARC
  5
2EA
  8
0
  6
CONTINUOUS
 62
     7
 10
208.8220613227
 20
177.3640201329
 30
0.0
 40
12.51716174000535
 50
157.6366033512
 51
192.1544077006
  0
ARC
  5
2EB
  8
0
  6
CONTINUOUS
 62
     7
 10
208.9204314823
 20
177.3233750889
 30
0.0
 40
12.62359802343344
 50
116.5498023678
 51
157.6358759784
  0
ARC
  5
2EC
  8
0
  6
CONTINUOUS
 62
     7
 10
208.8738816131
 20
177.4129025701
 30
0.0
 40
12.52270500963649
 50
18.29542767
 51
116.5423701029
  0
LINE
  5
2ED
  8
0
  6
CONTINUOUS
 62
     7
 10
220.4252080156
 20
180.6516360079
 30
0.0
 11
225.8454611621
 21
161.7489672785
 31
0.0
  0
LINE
  5
2EE
  8
0
  6
CONTINUOUS
 62
     7
 10
200.500838375
 20
159.0954020207
 30
0.0
 11
197.1522978603
 21
174.8490493332
 31
0.0
  0
ARC
  5
2EF
  8
0
  6
CONTINUOUS
 62
     7
 10
254.906253136
 20
177.4129025701
 30
0.0
 40
12.52270500963651
 50
63.4576298971
 51
161.70457233
  0
ARC
  5
2F0
  8
0
  6
CONTINUOUS
 62
     7
 10
254.8597032669
 20
177.3233750889
 30
0.0
 40
12.62359802343347
 50
22.3641240216
 51
63.4501976322
  0
ARC
  5
2F1
  8
0
  6
CONTINUOUS
 62
     7
 10
254.9580734264
 20
177.3640201329
 30
0.0
 40
12.51716174000543
 50
347.8455922994
 51
22.3633966488
  0
ARC
  5
2F2
  8
0
  6
CONTINUOUS
 62
     7
 10
254.8900673746
 20
177.3439879154
 30
0.0
 40
12.00000000000001
 50
348.0
 51
164.0
  0
LINE
  5
2F3
  8
0
  6
CONTINUOUS
 62
     7
 10
243.3549267335
 20
180.6516360079
 30
0.0
 11
237.9346735871
 21
161.7489672785
 31
0.0
  0
LINE
  5
2F4
  8
0
  6
CONTINUOUS
 62
     7
 10
263.2792963742
 20
159.0954020207
 30
0.0
 11
266.6278368889
 21
174.8490493332
 31
0.0
  0
POLYLINE
  5
2F5
  8
0
  6
CONTINUOUS
 62
     7
 66
     1
 10
0.0
 20
0.0
 30
0.0
  0
VERTEX
  5
73E
  8
0
  6
CONTINUOUS
 62
     7
 10
267.1946472584
 20
174.7285697197
 30
0.0
  0
VERTEX
  5
73F
  8
0
  6
CONTINUOUS
 62
     7
 10
265.5123657643
 20
166.9149074291
 30
0.0
  0
VERTEX
  5
740
  8
0
  6
CONTINUOUS
 62
     7
 10
263.8310491203
 20
159.09667607
 30
0.0
  0
SEQEND
  5
755
  8
0
  6
CONTINUOUS
 62
     7
  0
POLYLINE
  5
2F6
  8
0
  6
CONTINUOUS
 62
     7
 66
     1
 10
0.0
 20
0.0
 30
0.0
  0
VERTEX
  5
741
  8
0
  6
CONTINUOUS
 62
     7
 10
196.5854874908
 20
174.7285697197
 30
0.0
  0
VERTEX
  5
742
  8
0
  6
CONTINUOUS
 62
     7
 10
198.2677689849
 20
166.9149074291
 30
0.0
  0
VERTEX
  5
743
  8
0
  6
CONTINUOUS
 62
     7
 10
199.9490856289
 20
159.09667607
 30
0.0
  0
SEQEND
  5
754
  8
0
  6
CONTINUOUS
 62
     7
  0
LINE
  5
2F7
  8
0
  6
CONTINUOUS
 62
     7
 10
263.2792963742
 20
103.5925738101
 30
0.0
 11
266.6278368889
 21
87.8389264976
 31
0.0
  0
POLYLINE
  5
2F8
  8
0
  6
CONTINUOUS
 62
     7
 66
     1
 10
0.0
 20
0.0
 30
0.0
  0
VERTEX
  5
744
  8
0
  6
CONTINUOUS
 62
     7
 10
267.1946472584
 20
87.9594061111
 30
0.0
  0
VERTEX
  5
745
  8
0
  6
CONTINUOUS
 62
     7
 10
265.5123657643
 20
95.7730684017
 30
0.0
  0
VERTEX
  5
746
  8
0
  6
CONTINUOUS
 62
     7
 10
263.8310491203
 20
103.5912997608
 30
0.0
  0
SEQEND
  5
753
  8
0
  6
CONTINUOUS
 62
     7
  0
ARC
  5
2F9
  8
0
  6
CONTINUOUS
 62
     7
 10
254.8900673746
 20
85.3439879154
 30
0.0
 40
12.00000000000001
 50
196.0
 51
12.0
  0
LINE
  5
2FA
  8
0
  6
CONTINUOUS
 62
     7
 10
243.3549267335
 20
82.0363398229
 30
0.0
 11
237.9346735871
 21
100.9390085523
 31
0.0
  0
LINE
  5
2FB
  8
0
  6
CONTINUOUS
 62
     7
 10
220.4252080156
 20
82.0363398229
 30
0.0
 11
225.8454611621
 21
100.9390085523
 31
0.0
  0
ARC
  5
2FC
  8
0
  6
CONTINUOUS
 62
     7
 10
208.8900673746
 20
85.3439879154
 30
0.0
 40
12.00000000000001
 50
168.0
 51
344.0
  0
LINE
  5
2FD
  8
0
  6
CONTINUOUS
 62
     7
 10
200.500838375
 20
103.5925738101
 30
0.0
 11
197.1522978603
 21
87.8389264976
 31
0.0
  0
POLYLINE
  5
2FE
  8
0
  6
CONTINUOUS
 62
     7
 66
     1
 10
0.0
 20
0.0
 30
0.0
  0
VERTEX
  5
747
  8
0
  6
CONTINUOUS
 62
     7
 10
196.5854874908
 20
87.9594061111
 30
0.0
  0
VERTEX
  5
748
  8
0
  6
CONTINUOUS
 62
     7
 10
198.2677689849
 20
95.7730684017
 30
0.0
  0
VERTEX
  5
749
  8
0
  6
CONTINUOUS
 62
     7
 10
199.9490856289
 20
103.5912997608
 30
0.0
  0
SEQEND
  5
752
  8
0
  6
CONTINUOUS
 62
     7
  0
ARC
  5
2FF
  8
0
  6
CONTINUOUS
 62
     7
 10
254.9580734264
 20
85.3239556979
 30
0.0
 40
12.51716174000543
 50
337.6366033512
 51
12.1544077006
  0
ARC
  5
300
  8
0
  6
CONTINUOUS
 62
     7
 10
254.8597032669
 20
85.3646007419
 30
0.0
 40
12.62359802343348
 50
296.5498023678
 51
337.6358759784
  0
ARC
  5
301
  8
0
  6
CONTINUOUS
 62
     7
 10
254.906253136
 20
85.2750732607
 30
0.0
 40
12.52270500963651
 50
198.29542767
 51
296.5423701029
  0
ARC
  5
302
  8
0
  6
CONTINUOUS
 62
     7
 10
208.8738816131
 20
85.2750732607
 30
0.0
 40
12.52270500963649
 50
243.4576298971
 51
341.70457233
  0
ARC
  5
303
  8
0
  6
CONTINUOUS
 62
     7
 10
208.9204314823
 20
85.3646007419
 30
0.0
 40
12.62359802343345
 50
202.3641240216
 51
243.4501976322
  0
ARC
  5
304
  8
0
  6
CONTINUOUS
 62
     7
 10
208.8220613227
 20
85.3239556979
 30
0.0
 40
12.51716174000535
 50
167.8455922994
 51
202.3633966488
  0
ARC
  5
305
  8
0
  6
CONTINUOUS
 62
     7
 10
96.3900673746
 20
131.3439879154
 30
0.0
 40
181.0
 50
343.381289782
 51
16.618710218
  0
ARC
  5
306
  8
0
  6
CONTINUOUS
 62
     7
 10
367.3900673746
 20
131.3439879154
 30
0.0
 40
181.0
 50
163.381289782
 51
196.618710218
  0
ARC
  5
307
  8
0
  6
CONTINUOUS
 62
     7
 10
231.8900673746
 20
70.8439879154
 30
0.0
 40
124.0
 50
76.3448222283
 51
103.6551777717
  0
ARC
  5
308
  8
0
  6
CONTINUOUS
 62
     7
 10
231.8900673746
 20
191.8439879154
 30
0.0
 40
124.0
 50
256.3448222283
 51
283.6551777717
  0
ARC
  5
309
  8
0
  6
CONTINUOUS
 62
     7
 10
258.3308073175
 20
179.6782071264
 30
0.0
 40
12.00000000000004
 50
16.618710218
 51
76.3448222283
  0
ARC
  5
30A
  8
0
  6
CONTINUOUS
 62
     7
 10
205.4493274317
 20
179.6782071264
 30
0.0
 40
12.00000000000004
 50
103.6551777717
 51
163.381289782
  0
ARC
  5
30B
  8
0
  6
CONTINUOUS
 62
     7
 10
258.3308073175
 20
83.0097687044
 30
0.0
 40
12.00000000000003
 50
283.6551777717
 51
343.381289782
  0
ARC
  5
30C
  8
0
  6
CONTINUOUS
 62
     7
 10
205.4493274317
 20
83.0097687044
 30
0.0
 40
12.00000000000003
 50
196.618710218
 51
256.3448222283
  0
ARC
  5
30D
  8
0
  6
CONTINUOUS
 62
     7
 10
231.8900673746
 20
70.8439879154
 30
0.0
 40
124.3668544549813
 50
76.3448222283
 51
103.6551777717
  0
ARC
  5
30E
  8
0
  6
CONTINUOUS
 62
     7
 10
205.4493274317
 20
179.6782071264
 30
0.0
 40
12.36685445498133
 50
103.6551777717
 51
163.381289782
  0
ARC
  5
30F
  8
0
  6
CONTINUOUS
 62
     7
 10
258.3308073175
 20
179.6782071264
 30
0.0
 40
12.36685445498133
 50
16.618710218
 51
76.3448222283
  0
ARC
  5
310
  8
0
  6
CONTINUOUS
 62
     7
 10
96.3900673746
 20
131.3439879154
 30
0.0
 40
181.3668544549813
 50
343.381289782
 51
16.618710218
  0
ARC
  5
311
  8
0
  6
CONTINUOUS
 62
     7
 10
367.3900673746
 20
131.3439879154
 30
0.0
 40
181.3668544549813
 50
163.381289782
 51
196.618710218
  0
ARC
  5
312
  8
0
  6
CONTINUOUS
 62
     7
 10
258.3308073175
 20
83.0097687044
 30
0.0
 40
12.36685445498133
 50
283.6551777717
 51
343.381289782
  0
ARC
  5
313
  8
0
  6
CONTINUOUS
 62
     7
 10
205.4493274317
 20
83.0097687044
 30
0.0
 40
12.36685445498132
 50
196.618710218
 51
256.3448222283
  0
ARC
  5
314
  8
0
  6
CONTINUOUS
 62
     7
 10
231.8900673746
 20
191.8439879154
 30
0.0
 40
124.3668544549813
 50
256.3448222283
 51
283.6551777717
  0
LINE
  5
315
  8
0
  6
CONTINUOUS
 62
     7
 10
167.8900643347
 20
206.329275999
 30
0.0
 11
174.8900673448
 21
206.329275999
 31
0.0
  0
LINE
  5
316
  8
0
  6
CONTINUOUS
 62
     7
 10
167.8900643347
 20
56.3586998319
 30
0.0
 11
174.8900673448
 21
56.3586998319
 31
0.0
  0
ARC
  5
317
  8
0
  6
CONTINUOUS
 62
     7
 10
174.9032964708
 20
59.3504912681
 30
0.0
 40
2.991820684459368
 50
269.7466507404
 51
329.765475573
  0
ARC
  5
318
  8
0
  6
CONTINUOUS
 62
     7
 10
174.9032964708
 20
203.3374845627
 30
0.0
 40
2.99182068445934
 50
30.234524427
 51
90.2533492596
  0
LINE
  5
319
  8
0
  6
CONTINUOUS
 62
     7
 10
177.8900659739
 20
59.3439910148
 30
0.0
 11
177.8900659739
 21
203.343984816
 31
0.0
  0
LINE
  5
31A
  8
0
  6
CONTINUOUS
 62
     7
 10
298.8900690435
 20
203.343984816
 30
0.0
 11
298.8900690435
 21
59.3439910148
 31
0.0
  0
ARC
  5
31B
  8
0
  6
CONTINUOUS
 62
     7
 10
295.9025250607
 20
59.3518330237
 30
0.0
 40
2.993159104055401
 50
269.7615894441
 51
329.7506784605
  0
ARC
  5
31C
  8
0
  6
CONTINUOUS
 62
     7
 10
295.9025250607
 20
203.3361428071
 30
0.0
 40
2.993159104055386
 50
30.2493215395
 51
90.2384105559
  0
LINE
  5
31D
  8
0
  6
CONTINUOUS
 62
     7
 10
285.8900687753
 20
59.3439910148
 30
0.0
 11
285.8900687753
 21
203.343984816
 31
0.0
  0
ARC
  5
31E
  8
0
  6
CONTINUOUS
 62
     7
 10
288.8768382784
 20
203.3374845627
 30
0.0
 40
2.99182068445934
 50
89.7466507404
 51
149.765475573
  0
ARC
  5
31F
  8
0
  6
CONTINUOUS
 62
     7
 10
288.8768382784
 20
59.3504912681
 30
0.0
 40
2.991820684459368
 50
210.234524427
 51
270.2533492596
  0
LINE
  5
320
  8
0
  6
CONTINUOUS
 62
     7
 10
164.8900657056
 20
203.343984816
 30
0.0
 11
164.8900657056
 21
59.3439910148
 31
0.0
  0
ARC
  5
321
  8
0
  6
CONTINUOUS
 62
     7
 10
167.8776096885
 20
203.3361428071
 30
0.0
 40
2.993159104055362
 50
89.7615894441
 51
149.7506784605
  0
ARC
  5
322
  8
0
  6
CONTINUOUS
 62
     7
 10
167.8776096885
 20
59.3518330237
 30
0.0
 40
2.993159104055382
 50
210.2493215395
 51
270.2384105559
  0
LINE
  5
323
  8
0
  6
CONTINUOUS
 62
     7
 10
295.8900704144
 20
206.329275999
 30
0.0
 11
288.8900674044
 21
206.329275999
 31
0.0
  0
LINE
  5
324
  8
0
  6
CONTINUOUS
 62
     7
 10
295.8900704144
 20
56.3586998319
 30
0.0
 11
288.8900674044
 21
56.3586998319
 31
0.0
  0
LINE
  5
325
  8
0
  6
CONTINUOUS
 62
     7
 10
301.8900676726
 20
172.8439863359
 30
0.0
 11
301.8900676726
 21
89.8439894949
 31
0.0
  0
LINE
  5
326
  8
0
  6
CONTINUOUS
 62
     7
 10
161.8900670766
 20
172.8439863359
 30
0.0
 11
161.8900670766
 21
89.8439894949
 31
0.0
  0
POLYLINE
  5
327
  8
0
  6
CONTINUOUS
 62
     7
 66
     1
 10
0.0
 20
0.0
 30
0.0
  0
VERTEX
  5
74A
  8
0
  6
CONTINUOUS
 62
     7
 10
285.8422621249
 20
128.3439878893
 30
0.0
  0
VERTEX
  5
74B
  8
0
  6
CONTINUOUS
 62
     7
 10
285.8246079742
 20
131.3441879154
 30
0.0
  0
VERTEX
  5
74C
  8
0
  6
CONTINUOUS
 62
     7
 10
285.8422621249
 20
134.3439879415
 30
0.0
  0
SEQEND
  5
751
  8
0
  6
CONTINUOUS
 62
     7
  0
POLYLINE
  5
328
  8
0
  6
CONTINUOUS
 62
     7
 66
     1
 10
0.0
 20
0.0
 30
0.0
  0
VERTEX
  5
74D
  8
0
  6
CONTINUOUS
 62
     7
 10
177.9378726243
 20
128.3439878893
 30
0.0
  0
VERTEX
  5
74E
  8
0
  6
CONTINUOUS
 62
     7
 10
177.955526775
 20
131.3441879154
 30
0.0
  0
VERTEX
  5
74F
  8
0
  6
CONTINUOUS
 62
     7
 10
177.9378726243
 20
134.3439879415
 30
0.0
  0
SEQEND
  5
750
  8
0
  6
CONTINUOUS
 62
     7
  0
LINE
  5
329
  8
0
  6
CONTINUOUS
 62
     7
 10
186.0480270444
 20
128.3439878893
 30
0.0
 11
177.9378726243
 21
128.3439878893
 31
0.0
  0
LINE
  5
32A
  8
0
  6
CONTINUOUS
 62
     7
 10
186.0480270444
 20
134.3439879415
 30
0.0
 11
177.9378726243
 21
134.3439879415
 31
0.0
  0
LINE
  5
32B
  8
0
  6
CONTINUOUS
 62
     7
 10
277.7321077048
 20
128.3439878893
 30
0.0
 11
285.8422621249
 21
128.3439878893
 31
0.0
  0
LINE
  5
32C
  8
0
  6
CONTINUOUS
 62
     7
 10
277.7321077048
 20
134.3439879415
 30
0.0
 11
285.8422621249
 21
134.3439879415
 31
0.0
  0
ARC
  5
32D
  8
0
  6
CONTINUOUS
 62
     7
 10
231.8900673746
 20
131.3439879154
 30
0.0
 40
19.45329988429496
 50
164.8936566476
 51
255.1063433524
  0
ARC
  5
32E
  8
0
  6
CONTINUOUS
 62
     7
 10
231.8900673746
 20
131.3439879154
 30
0.0
 40
21.4484279848146
 50
163.4806710379
 51
256.5193289621
  0
ARC
  5
32F
  8
0
  6
CONTINUOUS
 62
     7
 10
231.8900673746
 20
131.3439879154
 30
0.0
 40
19.45329988429496
 50
284.8936566476
 51
15.1063433524
  0
ARC
  5
330
  8
0
  6
CONTINUOUS
 62
     7
 10
231.8900673746
 20
131.3439879154
 30
0.0
 40
21.4484279848146
 50
283.4806710379
 51
16.5193289621
  0
ARC
  5
331
  8
0
  6
CONTINUOUS
 62
     7
 10
231.8900673746
 20
131.3439879154
 30
0.0
 40
19.45329988429496
 50
44.8936566476
 51
135.1063433524
  0
ARC
  5
332
  8
0
  6
CONTINUOUS
 62
     7
 10
231.8900673746
 20
131.3439879154
 30
0.0
 40
21.4484279848146
 50
43.4806710379
 51
136.5193289621
  0
LINE
  5
333
  8
0
  6
CONTINUOUS
 62
     7
 10
210.3371135055
 20
138.0140894612
 30
0.0
 11
215.3371124624
 21
146.6743435298
 31
0.0
  0
LINE
  5
334
  8
0
  6
CONTINUOUS
 62
     7
 10
207.7394331901
 20
139.5138606017
 30
0.0
 11
212.739432147
 21
148.1741156017
 31
0.0
  0
LINE
  5
335
  8
0
  6
CONTINUOUS
 62
     7
 10
236.8900672628
 20
109.3435316866
 30
0.0
 11
226.8900674863
 21
109.3435316866
 31
0.0
  0
LINE
  5
336
  8
0
  6
CONTINUOUS
 62
     7
 10
248.4430222868
 20
146.6743435298
 30
0.0
 11
253.4430212437
 21
138.0140894612
 31
0.0
  0
LINE
  5
337
  8
0
  6
CONTINUOUS
 62
     7
 10
251.0407026021
 20
148.1741156017
 30
0.0
 11
256.0407015591
 21
139.5138606017
 31
0.0
  0
LINE
  5
338
  8
0
  6
CONTINUOUS
 62
     7
 10
236.8900672628
 20
106.3439875429
 30
0.0
 11
226.8900674863
 21
106.3439875429
 31
0.0
  0
ARC
  5
339
  8
0
  6
CONTINUOUS
 62
     7
 10
231.8900673746
 20
131.3439879154
 30
0.0
 40
24.23980414351135
 50
41.9039880554
 51
138.0960119446
  0
ARC
  5
33A
  8
0
  6
CONTINUOUS
 62
     7
 10
231.8900673746
 20
131.3439879154
 30
0.0
 40
24.23980414351136
 50
161.9039880554
 51
258.0960119446
  0
ARC
  5
33B
  8
0
  6
CONTINUOUS
 62
     7
 10
231.8900673746
 20
131.3439879154
 30
0.0
 40
24.23980414351134
 50
281.9039880554
 51
18.0960119446
  0
CIRCLE
  5
33C
  8
0
  6
CONTINUOUS
 62
     7
 10
231.8900673746
 20
131.3439879154
 30
0.0
 40
28.23006034455062
  0
LINE
  5
33D
  8
0
  6
CONTINUOUS
 62
     7
 10
220.9009406252
 20
180.7880486881
 30
0.0
 11
220.4252080156
 21
180.6516360079
 31
0.0
  0
LINE
  5
33E
  8
0
  6
CONTINUOUS
 62
     7
 10
196.5854874908
 20
174.7285697197
 30
0.0
 11
197.1522978603
 21
174.8490493332
 31
0.0
  0
LINE
  5
33F
  8
0
  6
CONTINUOUS
 62
     7
 10
267.1946472584
 20
174.7285697197
 30
0.0
 11
266.6278368889
 21
174.8490493332
 31
0.0
  0
LINE
  5
340
  8
0
  6
CONTINUOUS
 62
     7
 10
242.8791941239
 20
180.7880486881
 30
0.0
 11
243.3549267335
 21
180.6516360079
 31
0.0
  0
LINE
  5
341
  8
0
  6
CONTINUOUS
 62
     7
 10
267.1946472584
 20
87.9594061111
 30
0.0
 11
266.6278368889
 21
87.8389264976
 31
0.0
  0
LINE
  5
342
  8
0
  6
CONTINUOUS
 62
     7
 10
196.5854874908
 20
87.9594061111
 30
0.0
 11
197.1522978603
 21
87.8389264976
 31
0.0
  0
LINE
  5
343
  8
0
  6
CONTINUOUS
 62
     7
 10
242.8791941239
 20
81.8999271428
 30
0.0
 11
243.3549267335
 21
82.0363398229
 31
0.0
  0
LINE
  5
344
  8
0
  6
CONTINUOUS
 62
     7
 10
220.9009406252
 20
81.8999271428
 30
0.0
 11
220.4252080156
 21
82.0363398229
 31
0.0
  0
LINE
  5
345
  8
0
  6
CONTINUOUS
 62
     7
 10
266.5338105618
 20
80.5614303385
 30
0.0
 11
269.8295562624
 21
79.577752534
 31
0.0
  0
LINE
  5
346
  8
0
  6
CONTINUOUS
 62
     7
 10
266.5338105618
 20
182.1265454923
 30
0.0
 11
269.8295562624
 21
183.1102232968
 31
0.0
  0
LINE
  5
347
  8
0
  6
CONTINUOUS
 62
     7
 10
197.2463241874
 20
80.5614303385
 30
0.0
 11
193.9505784868
 21
79.577752534
 31
0.0
  0
LINE
  5
348
  8
0
  6
CONTINUOUS
 62
     7
 10
197.2463241874
 20
182.1265454923
 30
0.0
 11
193.9505784868
 21
183.1102232968
 31
0.0
  0
LINE
  5
349
  8
0
  6
CONTINUOUS
 62
     7
 10
203.277992001
 20
188.6157664989
 30
0.0
 11
202.6163916199
 21
191.339017037
 31
0.0
  0
LINE
  5
34A
  8
0
  6
CONTINUOUS
 62
     7
 10
260.5021427481
 20
188.6157664989
 30
0.0
 11
261.1637431292
 21
191.339017037
 31
0.0
  0
LINE
  5
34B
  8
0
  6
CONTINUOUS
 62
     7
 10
260.5021427481
 20
74.0722093319
 30
0.0
 11
261.1637431292
 21
71.3489587938
 31
0.0
  0
LINE
  5
34C
  8
0
  6
CONTINUOUS
 62
     7
 10
203.277992001
 20
74.0722093319
 30
0.0
 11
202.6163916199
 21
71.3489587938
 31
0.0
  0
LINE
  5
34D
  8
0
  6
CONTINUOUS
 62
     7
 10
202.5297842084
 20
191.6955012416
 30
0.0
 11
202.6163916199
 21
191.339017037
 31
0.0
  0
LINE
  5
34E
  8
0
  6
CONTINUOUS
 62
     7
 10
261.2503505407
 20
191.6955012416
 30
0.0
 11
261.1637431292
 21
191.339017037
 31
0.0
  0
LINE
  5
34F
  8
0
  6
CONTINUOUS
 62
     7
 10
193.5990451931
 20
183.2151423727
 30
0.0
 11
193.9505784868
 21
183.1102232968
 31
0.0
  0
LINE
  5
350
  8
0
  6
CONTINUOUS
 62
     7
 10
270.1810895561
 20
183.2151423727
 30
0.0
 11
269.8295562624
 21
183.1102232968
 31
0.0
  0
LINE
  5
351
  8
0
  6
CONTINUOUS
 62
     7
 10
270.1810895561
 20
79.4728334581
 30
0.0
 11
269.8295562624
 21
79.577752534
 31
0.0
  0
LINE
  5
352
  8
0
  6
CONTINUOUS
 62
     7
 10
193.5990451931
 20
79.4728334581
 30
0.0
 11
193.9505784868
 21
79.577752534
 31
0.0
  0
LINE
  5
353
  8
0
  6
CONTINUOUS
 62
     7
 10
261.2503505407
 20
70.9924745892
 30
0.0
 11
261.1637431292
 21
71.3489587938
 31
0.0
  0
LINE
  5
354
  8
0
  6
CONTINUOUS
 62
     7
 10
202.5297842084
 20
70.9924745892
 30
0.0
 11
202.6163916199
 21
71.3489587938
 31
0.0
  0
LINE
  5
355
  8
0
  6
CONTINUOUS
 62
     7
 10
167.8900643347
 20
56.3586998319
 30
0.0
 11
167.8900643347
 21
206.329275999
 31
0.0
  0
LINE
  5
356
  8
0
  6
CONTINUOUS
 62
     7
 10
174.8900673448
 20
206.329275999
 30
0.0
 11
174.8900673448
 21
56.3586998319
 31
0.0
  0
LINE
  5
357
  8
0
  6
CONTINUOUS
 62
     7
 10
295.8900704144
 20
56.3586998319
 30
0.0
 11
295.8900704144
 21
206.329275999
 31
0.0
  0
LINE
  5
358
  8
0
  6
CONTINUOUS
 62
     7
 10
288.8900674044
 20
206.329275999
 30
0.0
 11
288.8900674044
 21
56.3586998319
 31
0.0
  0
LINE
  5
359
  8
0
  6
CONTINUOUS
 62
     7
 10
281.034920281
 20
128.3439878893
 30
0.0
 11
281.034920281
 21
100.2877328133
 31
0.0
  0
LINE
  5
35A
  8
0
  6
CONTINUOUS
 62
     7
 10
281.034920281
 20
134.3439879415
 30
0.0
 11
281.034920281
 21
162.4002430176
 31
0.0
  0
LINE
  5
35B
  8
0
  6
CONTINUOUS
 62
     7
 10
182.7452144681
 20
134.3439879415
 30
0.0
 11
182.7452144681
 21
162.4002430176
 31
0.0
  0
LINE
  5
35C
  8
0
  6
CONTINUOUS
 62
     7
 10
182.7452144681
 20
128.3439878893
 30
0.0
 11
182.7452144681
 21
100.2877328133
 31
0.0
  0
LINE
  5
35D
  8
FORMAT
  6
CENTERX2
 10
231.8900673746
 20
60.2327380442
 30
0.0
 11
231.8900673746
 21
202.6626823099
 31
0.0
  0
LINE
  5
35E
  8
FORMAT
  6
CENTERX2
 10
158.4144863915
 20
131.3439879154
 30
0.0
 11
304.8565417633
 21
131.3439879154
 31
0.0
  0
ENDSEC
  0
EOF
