  0
SECTION
  2
HEADER
  9
$ACADVER
  1
AC1015
  9
$ACADMAINTVER
 70
     6
  9
$DWGCODEPAGE
  3
ANSI_1252
  9
$INSBASE
 10
0.0
 20
0.0
 30
0.0
  9
$EXTMIN
 10
0.0
 20
0.0
 30
0.0
  9
$EXTMAX
 10
841.0
 20
594.0
 30
0.0
  9
$LIMMIN
 10
0.0
 20
0.0
  9
$LIMMAX
 10
841.0
 20
594.0
  9
$ORTHOMODE
 70
     0
  9
$REGENMODE
 70
     1
  9
$FILLMODE
 70
     1
  9
$QTEXTMODE
 70
     0
  9
$MIRRTEXT
 70
     1
  9
$LTSCALE
 40
1.0
  9
$ATTMODE
 70
     1
  9
$TEXTSIZE
 40
2.5
  9
$TRACEWID
 40
1.0
  9
$TEXTSTYLE
  7
Standard
  9
$CLAYER
  8
0
  9
$CELTYPE
  6
ByLayer
  9
$CECOLOR
 62
   256
  9
$CELTSCALE
 40
1.0
  9
$DISPSILH
 70
     0
  9
$DIMSCALE
 40
1.0
  9
$DIMASZ
 40
2.5
  9
$DIMEXO
 40
1.0
  9
$DIMDLI
 40
3.75
  9
$DIMRND
 40
0.0
  9
$DIMDLE
 40
0.0
  9
$DIMEXE
 40
1.0
  9
$DIMTP
 40
0.0
  9
$DIMTM
 40
0.0
  9
$DIMTXT
 40
2.5
  9
$DIMCEN
 40
2.5
  9
$DIMTSZ
 40
0.0
  9
$DIMTOL
 70
     0
  9
$DIMLIM
 70
     0
  9
$DIMTIH
 70
     1
  9
$DIMTOH
 70
     1
  9
$DIMSE1
 70
     0
  9
$DIMSE2
 70
     0
  9
$DIMTAD
 70
     1
  9
$DIMZIN
 70
     0
  9
$DIMBLK
  1

  9
$DIMASO
 70
     1
  9
$DIMSHO
 70
     1
  9
$DIMPOST
  1

  9
$DIMAPOST
  1

  9
$DIMALT
 70
     0
  9
$DIMALTD
 70
     3
  9
$DIMALTF
 40
0.0393700787
  9
$DIMLFAC
 40
1.0
  9
$DIMTOFL
 70
     1
  9
$DIMTVP
 40
0.0
  9
$DIMTIX
 70
     0
  9
$DIMSOXD
 70
     0
  9
$DIMSAH
 70
     0
  9
$DIMBLK1
  1

  9
$DIMBLK2
  1

  9
$DIMSTYLE
  2
ISO-25
  9
$DIMCLRD
 70
     0
  9
$DIMCLRE
 70
     0
  9
$DIMCLRT
 70
     0
  9
$DIMTFAC
 40
1.0
  9
$DIMGAP
 40
1.524
  9
$DIMJUST
 70
     0
  9
$DIMSD1
 70
     0
  9
$DIMSD2
 70
     0
  9
$DIMTOLJ
 70
     0
  9
$DIMTZIN
 70
     0
  9
$DIMALTZ
 70
     0
  9
$DIMALTTZ
 70
     0
  9
$DIMUPT
 70
     0
  9
$DIMDEC
 70
     2
  9
$DIMTDEC
 70
     2
  9
$DIMALTU
 70
     2
  9
$DIMALTTD
 70
     3
  9
$DIMTXSTY
  7
Standard
  9
$DIMAUNIT
 70
     0
  9
$DIMADEC
 70
     2
  9
$DIMALTRND
 40
0.0
  9
$DIMAZIN
 70
     0
  9
$DIMDSEP
 70
    44
  9
$DIMATFIT
 70
     3
  9
$DIMFRAC
 70
     0
  9
$DIMLDRBLK
  1

  9
$DIMLUNIT
 70
     2
  9
$DIMLWD
 70
    -2
  9
$DIMLWE
 70
    -2
  9
$DIMTMOVE
 70
     0
  9
$LUNITS
 70
     2
  9
$LUPREC
 70
     2
  9
$SKETCHINC
 40
1.0
  9
$FILLETRAD
 40
10.0
  9
$AUNITS
 70
     0
  9
$AUPREC
 70
     2
  9
$MENU
  1
.
  9
$ELEVATION
 40
0.0
  9
$PELEVATION
 40
0.0
  9
$THICKNESS
 40
0.0
  9
$LIMCHECK
 70
     0
  9
$CHAMFERA
 40
10.0
  9
$CHAMFERB
 40
10.0
  9
$CHAMFERC
 40
20.0
  9
$CHAMFERD
 40
0.0
  9
$SKPOLY
 70
     0
  9
$TDCREATE
 40
2457457.428017245
  9
$TDUCREATE
 40
2457457.386350579
  9
$TDUPDATE
 40
2457457.42801941
  9
$TDUUPDATE
 40
2457457.386352743
  9
$TDINDWG
 40
0.0000000116
  9
$TDUSRTIMER
 40
0.0000000116
  9
$USRTIMER
 70
     1
  9
$ANGBASE
 50
0.0
  9
$ANGDIR
 70
     0
  9
$PDMODE
 70
     0
  9
$PDSIZE
 40
-1.0
  9
$PLINEWID
 40
0.0
  9
$SPLFRAME
 70
     0
  9
$SPLINETYPE
 70
     6
  9
$SPLINESEGS
 70
     8
  9
$HANDSEED
  5
382
  9
$SURFTAB1
 70
     6
  9
$SURFTAB2
 70
     6
  9
$SURFTYPE
 70
     6
  9
$SURFU
 70
     6
  9
$SURFV
 70
     6
  9
$UCSBASE
  2

  9
$UCSNAME
  2

  9
$UCSORG
 10
0.0
 20
0.0
 30
0.0
  9
$UCSXDIR
 10
1.0
 20
0.0
 30
0.0
  9
$UCSYDIR
 10
0.0
 20
1.0
 30
0.0
  9
$UCSORTHOREF
  2

  9
$UCSORTHOVIEW
 70
     0
  9
$UCSORGTOP
 10
0.0
 20
0.0
 30
0.0
  9
$UCSORGBOTTOM
 10
0.0
 20
0.0
 30
0.0
  9
$UCSORGLEFT
 10
0.0
 20
0.0
 30
0.0
  9
$UCSORGRIGHT
 10
0.0
 20
0.0
 30
0.0
  9
$UCSORGFRONT
 10
0.0
 20
0.0
 30
0.0
  9
$UCSORGBACK
 10
0.0
 20
0.0
 30
0.0
  9
$PUCSBASE
  2

  9
$PUCSNAME
  2

  9
$PUCSORG
 10
0.0
 20
0.0
 30
0.0
  9
$PUCSXDIR
 10
1.0
 20
0.0
 30
0.0
  9
$PUCSYDIR
 10
0.0
 20
1.0
 30
0.0
  9
$PUCSORTHOREF
  2

  9
$PUCSORTHOVIEW
 70
     0
  9
$PUCSORGTOP
 10
0.0
 20
0.0
 30
0.0
  9
$PUCSORGBOTTOM
 10
0.0
 20
0.0
 30
0.0
  9
$PUCSORGLEFT
 10
0.0
 20
0.0
 30
0.0
  9
$PUCSORGRIGHT
 10
0.0
 20
0.0
 30
0.0
  9
$PUCSORGFRONT
 10
0.0
 20
0.0
 30
0.0
  9
$PUCSORGBACK
 10
0.0
 20
0.0
 30
0.0
  9
$USERI1
 70
     0
  9
$USERI2
 70
     0
  9
$USERI3
 70
     0
  9
$USERI4
 70
     0
  9
$USERI5
 70
     0
  9
$USERR1
 40
0.0
  9
$USERR2
 40
0.0
  9
$USERR3
 40
0.0
  9
$USERR4
 40
0.0
  9
$USERR5
 40
0.0
  9
$WORLDVIEW
 70
     1
  9
$SHADEDGE
 70
     3
  9
$SHADEDIF
 70
    70
  9
$TILEMODE
 70
     1
  9
$MAXACTVP
 70
    64
  9
$PINSBASE
 10
0.0
 20
0.0
 30
0.0
  9
$PLIMCHECK
 70
     0
  9
$PEXTMIN
 10
1.0000000000E+20
 20
1.0000000000E+20
 30
1.0000000000E+20
  9
$PEXTMAX
 10
-1.0000000000E+20
 20
-1.0000000000E+20
 30
-1.0000000000E+20
  9
$PLIMMIN
 10
0.0
 20
0.0
  9
$PLIMMAX
 10
420.0
 20
297.0
  9
$UNITMODE
 70
     0
  9
$VISRETAIN
 70
     1
  9
$PLINEGEN
 70
     0
  9
$PSLTSCALE
 70
     1
  9
$TREEDEPTH
 70
  3020
  9
$CMLSTYLE
  2
Standard
  9
$CMLJUST
 70
     0
  9
$CMLSCALE
 40
20.0
  9
$PROXYGRAPHICS
 70
     1
  9
$MEASUREMENT
 70
     1
  9
$CELWEIGHT
370
    -1
  9
$ENDCAPS
280
     0
  9
$JOINSTYLE
280
     0
  9
$LWDISPLAY
290
     1
  9
$INSUNITS
 70
     4
  9
$HYPERLINKBASE
  1

  9
$STYLESHEET
  1

  9
$XEDIT
290
     1
  9
$CEPSNTYPE
380
     0
  9
$PSTYLEMODE
290
     1
  9
$FINGERPRINTGUID
  2
{4F43AFDF-D724-4122-853A-229761439D09}
  9
$VERSIONGUID
  2
{FAEB1C32-E019-11D5-929B-00C0DF256EC4}
  9
$EXTNAMES
290
     1
  9
$PSVPSCALE
 40
0.0
  9
$OLESTARTUP
290
     0
  0
ENDSEC
  0
SECTION
  2
CLASSES
  0
CLASS
  1
ACDBDICTIONARYWDFLT
  2
AcDbDictionaryWithDefault
  3
ObjectDBX Classes
 90
        0
280
     0
281
     0
  0
CLASS
  1
VISUALSTYLE
  2
AcDbVisualStyle
  3
ObjectDBX Classes
 90
     4095
280
     0
281
     0
  0
CLASS
  1
MATERIAL
  2
AcDbMaterial
  3
ObjectDBX Classes
 90
     1153
280
     0
281
     0
  0
CLASS
  1
ACDBPLACEHOLDER
  2
AcDbPlaceHolder
  3
ObjectDBX Classes
 90
        0
280
     0
281
     0
  0
CLASS
  1
LAYOUT
  2
AcDbLayout
  3
ObjectDBX Classes
 90
        0
280
     0
281
     0
  0
ENDSEC
  0
SECTION
  2
TABLES
  0
TABLE
  2
VPORT
  5
8
330
0
100
AcDbSymbolTable
 70
     1
  0
VPORT
  5
29
330
8
100
AcDbSymbolTableRecord
100
AcDbViewportTableRecord
  2
*Active
 70
     0
 10
0.0
 20
0.0
 11
1.0
 21
1.0
 12
420.5
 22
297.0
 13
0.0
 23
0.0
 14
10.0
 24
10.0
 15
10.0
 25
10.0
 16
0.0
 26
0.0
 36
1.0
 17
0.0
 27
0.0
 37
0.0
 40
594.0
 41
1.4158249158
 42
50.0
 43
0.0
 44
0.0
 50
0.0
 51
0.0
 71
     0
 72
  2000
 73
     1
 74
     3
 75
     0
 76
     0
 77
     0
 78
     0
281
     0
 65
     1
110
0.0
120
0.0
130
0.0
111
1.0
121
0.0
131
0.0
112
0.0
122
1.0
132
0.0
 79
     0
146
0.0
  0
ENDTAB
  0
TABLE
  2
LTYPE
  5
5
330
0
100
AcDbSymbolTable
 70
     6
  0
LTYPE
  5
14
330
5
100
AcDbSymbolTableRecord
100
AcDbLinetypeTableRecord
  2
ByBlock
 70
     0
  3

 72
    65
 73
     0
 40
0.0
  0
LTYPE
  5
15
330
5
100
AcDbSymbolTableRecord
100
AcDbLinetypeTableRecord
  2
ByLayer
 70
     0
  3

 72
    65
 73
     0
 40
0.0
  0
LTYPE
  5
16
330
5
100
AcDbSymbolTableRecord
100
AcDbLinetypeTableRecord
  2
Continuous
 70
     0
  3
Solid line
 72
    65
 73
     0
 40
0.0
  0
LTYPE
  5
3F
330
5
100
AcDbSymbolTableRecord
100
AcDbLinetypeTableRecord
  2
HIDDEN
 70
     0
  3
Hidden __ __ __ __ __ __ __ __ __ __ __ __ __ __
 72
    65
 73
     2
 40
1.905
 49
1.27
 74
     0
 49
-0.635
 74
     0
  0
LTYPE
  5
40
330
5
100
AcDbSymbolTableRecord
100
AcDbLinetypeTableRecord
  2
PHANTOM
 70
     0
  3
Phantom ______  __  __  ______  __  __  ______
 72
    65
 73
     6
 40
12.7
 49
6.35
 74
     0
 49
-1.27
 74
     0
 49
1.27
 74
     0
 49
-1.27
 74
     0
 49
1.27
 74
     0
 49
-1.27
 74
     0
  0
LTYPE
  5
41
330
5
100
AcDbSymbolTableRecord
100
AcDbLinetypeTableRecord
  2
CENTER
 70
     0
  3
Center ____ _ ____ _ ____ _ ____ _ ____ _ ____
 72
    65
 73
     4
 40
10.16
 49
6.35
 74
     0
 49
-1.27
 74
     0
 49
1.27
 74
     0
 49
-1.27
 74
     0
  0
LTYPE
  5
42
330
5
100
AcDbSymbolTableRecord
100
AcDbLinetypeTableRecord
  2
CENTERX2
 70
     0
  3
Center (2x) ________  __  ________  __  _____
 72
    65
 73
     4
 40
20.32
 49
12.7
 74
     0
 49
-2.54
 74
     0
 49
2.54
 74
     0
 49
-2.54
 74
     0
  0
LTYPE
  5
43
330
5
100
AcDbSymbolTableRecord
100
AcDbLinetypeTableRecord
  2
DOT2
 70
     0
  3
Dot (.5x) ........................................
 72
    65
 73
     2
 40
0.635
 49
0.0
 74
     0
 49
-0.635
 74
     0
  0
ENDTAB
  0
TABLE
  2
LAYER
  5
2
330
0
100
AcDbSymbolTable
 70
     5
  0
LAYER
  5
10
330
2
100
AcDbSymbolTableRecord
100
AcDbLayerTableRecord
  2
0
 70
     0
 62
     7
  6
Continuous
370
    -3
390
F
  0
LAYER
  5
44
330
2
100
AcDbSymbolTableRecord
100
AcDbLayerTableRecord
  2
FORMAT
 70
     0
 62
     7
  6
Continuous
370
    -3
390
F
  0
LAYER
  5
45
330
2
100
AcDbSymbolTableRecord
100
AcDbLayerTableRecord
  2
PROTOTYPE
 70
     0
 62
     7
  6
Continuous
370
    -3
390
F
  0
LAYER
  5
46
330
2
100
AcDbSymbolTableRecord
100
AcDbLayerTableRecord
  2
TECH_TEXT
 70
     0
 62
     7
  6
Continuous
370
    -3
390
F
  0
LAYER
  5
47
330
2
100
AcDbSymbolTableRecord
100
AcDbLayerTableRecord
  2
TOOLING_TABLE
 70
     0
 62
    -7
  6
Continuous
370
    -3
390
F
  0
ENDTAB
  0
TABLE
  2
STYLE
  5
3
330
0
100
AcDbSymbolTable
 70
     2
  0
STYLE
  5
11
330
3
100
AcDbSymbolTableRecord
100
AcDbTextStyleTableRecord
  2
Standard
 70
     0
 40
0.0
 41
1.0
 50
0.0
 71
     0
 42
2.5
  3
txt
  4

  0
STYLE
  5
52
330
3
100
AcDbSymbolTableRecord
100
AcDbTextStyleTableRecord
  2
SLDTEXTSTYLE0
 70
     0
 40
0.0
 41
0.605
 50
0.0
 71
     0
 42
0.2
  3
TXT
  4

  0
ENDTAB
  0
TABLE
  2
VIEW
  5
6
330
0
100
AcDbSymbolTable
 70
     0
  0
ENDTAB
  0
TABLE
  2
UCS
  5
7
330
0
100
AcDbSymbolTable
 70
     0
  0
ENDTAB
  0
TABLE
  2
APPID
  5
9
330
0
100
AcDbSymbolTable
 70
     1
  0
APPID
  5
12
330
9
100
AcDbSymbolTableRecord
100
AcDbRegAppTableRecord
  2
ACAD
 70
     0
  0
ENDTAB
  0
TABLE
  2
DIMSTYLE
  5
A
330
0
100
AcDbSymbolTable
 70
     1
100
AcDbDimStyleTable
  0
DIMSTYLE
105
27
330
A
100
AcDbSymbolTableRecord
100
AcDbDimStyleTableRecord
  2
ISO-25
 70
     0
 41
2.5
 42
0.625
 43
3.75
 44
1.25
 73
     0
 74
     0
 77
     1
 78
     8
140
2.5
141
2.5
143
0.0393700787
147
0.625
171
     3
172
     1
178
     0
271
     2
272
     2
274
     3
278
    44
283
     0
284
     8
340
11
  0
ENDTAB
  0
TABLE
  2
BLOCK_RECORD
  5
1
330
0
100
AcDbSymbolTable
 70
     9
  0
BLOCK_RECORD
  5
1F
330
1
100
AcDbSymbolTableRecord
100
AcDbBlockTableRecord
  2
*Model_Space
340
22
  0
BLOCK_RECORD
  5
1B
330
1
100
AcDbSymbolTableRecord
100
AcDbBlockTableRecord
  2
*Paper_Space
340
1E
  0
BLOCK_RECORD
  5
23
330
1
100
AcDbSymbolTableRecord
100
AcDbBlockTableRecord
  2
*Paper_Space0
340
26
  0
BLOCK_RECORD
  5
F5
330
1
100
AcDbSymbolTableRecord
100
AcDbBlockTableRecord
  2
SW_CENTERMARKSYMBOL_0
340
0
102
{BLKREFS
331
14D
102
}
  0
BLOCK_RECORD
  5
1E4
330
1
100
AcDbSymbolTableRecord
100
AcDbBlockTableRecord
  2
SW_CENTERMARKSYMBOL_1
340
0
102
{BLKREFS
331
1EF
102
}
  0
BLOCK_RECORD
  5
33A
330
1
100
AcDbSymbolTableRecord
100
AcDbBlockTableRecord
  2
SW_CENTERMARKSYMBOL_2
340
0
102
{BLKREFS
331
345
102
}
  0
BLOCK_RECORD
  5
346
330
1
100
AcDbSymbolTableRecord
100
AcDbBlockTableRecord
  2
SW_CENTERMARKSYMBOL_3
340
0
102
{BLKREFS
331
351
102
}
  0
BLOCK_RECORD
  5
352
330
1
100
AcDbSymbolTableRecord
100
AcDbBlockTableRecord
  2
SW_CENTERMARKSYMBOL_4
340
0
102
{BLKREFS
331
35D
102
}
  0
BLOCK_RECORD
  5
35E
330
1
100
AcDbSymbolTableRecord
100
AcDbBlockTableRecord
  2
SW_CENTERMARKSYMBOL_5
340
0
102
{BLKREFS
331
369
102
}
  0
BLOCK_RECORD
  5
36A
330
1
100
AcDbSymbolTableRecord
100
AcDbBlockTableRecord
  2
SW_CENTERMARKSYMBOL_6
340
0
102
{BLKREFS
331
375
102
}
  0
BLOCK_RECORD
  5
376
330
1
100
AcDbSymbolTableRecord
100
AcDbBlockTableRecord
  2
SW_CENTERMARKSYMBOL_7
340
0
102
{BLKREFS
331
381
102
}
  0
ENDTAB
  0
ENDSEC
  0
SECTION
  2
BLOCKS
  0
BLOCK
  5
20
330
1F
100
AcDbEntity
  8
0
100
AcDbBlockBegin
  2
*Model_Space
 70
     0
 10
0.0
 20
0.0
 30
0.0
  3
*Model_Space
  1

  0
ENDBLK
  5
21
330
1F
100
AcDbEntity
  8
0
100
AcDbBlockEnd
  0
BLOCK
  5
1C
330
1B
100
AcDbEntity
 67
     1
  8
0
100
AcDbBlockBegin
  2
*Paper_Space
 70
     0
 10
0.0
 20
0.0
 30
0.0
  3
*Paper_Space
  1

  0
ENDBLK
  5
1D
330
1B
100
AcDbEntity
 67
     1
  8
0
100
AcDbBlockEnd
  0
BLOCK
  5
24
330
23
100
AcDbEntity
  8
0
100
AcDbBlockBegin
  2
*Paper_Space0
 70
     0
 10
0.0
 20
0.0
 30
0.0
  3
*Paper_Space0
  1

  0
ENDBLK
  5
25
330
23
100
AcDbEntity
  8
0
100
AcDbBlockEnd
  0
BLOCK
  5
F6
330
F5
100
AcDbEntity
  8
0
100
AcDbBlockBegin
  2
SW_CENTERMARKSYMBOL_0
 70
     0
 10
0.0
 20
0.0
 30
0.0
  3
SW_CENTERMARKSYMBOL_0
  1

  0
ARC
  5
F8
330
F5
100
AcDbEntity
  8
FORMAT
 62
     0
100
AcDbCircle
 10
-125.5114536606
 20
-125.5114536606
 30
0.0
 40
177.4999999999999
100
AcDbArc
 50
45.0
 51
45.80698281
  0
ARC
  5
F9
330
F5
100
AcDbEntity
  8
FORMAT
 62
     0
100
AcDbCircle
 10
-125.5114536606
 20
-125.5114536606
 30
0.0
 40
177.4999999999999
100
AcDbArc
 50
44.19301719
 51
45.0
  0
ARC
  5
FA
330
F5
100
AcDbEntity
  8
FORMAT
 62
     0
100
AcDbCircle
 10
-125.5114536606
 20
-125.5114536606
 30
0.0
 40
177.4999999999999
100
AcDbArc
 50
15.0
 51
15.80698281
  0
ARC
  5
FB
330
F5
100
AcDbEntity
  8
FORMAT
 62
     0
100
AcDbCircle
 10
-125.5114536606
 20
-125.5114536606
 30
0.0
 40
177.4999999999999
100
AcDbArc
 50
14.19301719
 51
15.0
  0
ARC
  5
FC
330
F5
100
AcDbEntity
  8
FORMAT
 62
     0
100
AcDbCircle
 10
-125.5114536606
 20
-125.5114536606
 30
0.0
 40
177.5
100
AcDbArc
 50
345.0
 51
345.80698281
  0
ARC
  5
FD
330
F5
100
AcDbEntity
  8
FORMAT
 62
     0
100
AcDbCircle
 10
-125.5114536606
 20
-125.5114536606
 30
0.0
 40
177.5
100
AcDbArc
 50
344.19301719
 51
345.0
  0
ARC
  5
FE
330
F5
100
AcDbEntity
  8
FORMAT
 62
     0
100
AcDbCircle
 10
-125.5114536606
 20
-125.5114536606
 30
0.0
 40
177.5
100
AcDbArc
 50
315.0
 51
315.80698281
  0
ARC
  5
FF
330
F5
100
AcDbEntity
  8
FORMAT
 62
     0
100
AcDbCircle
 10
-125.5114536606
 20
-125.5114536606
 30
0.0
 40
177.5
100
AcDbArc
 50
314.19301719
 51
315.0
  0
ARC
  5
100
330
F5
100
AcDbEntity
  8
FORMAT
 62
     0
100
AcDbCircle
 10
-125.5114536606
 20
-125.5114536606
 30
0.0
 40
177.5000000000001
100
AcDbArc
 50
285.0
 51
285.80698281
  0
ARC
  5
101
330
F5
100
AcDbEntity
  8
FORMAT
 62
     0
100
AcDbCircle
 10
-125.5114536606
 20
-125.5114536606
 30
0.0
 40
177.5000000000001
100
AcDbArc
 50
284.19301719
 51
285.0
  0
ARC
  5
102
330
F5
100
AcDbEntity
  8
FORMAT
 62
     0
100
AcDbCircle
 10
-125.5114536606
 20
-125.5114536606
 30
0.0
 40
177.5000000000001
100
AcDbArc
 50
255.0
 51
255.80698281
  0
ARC
  5
103
330
F5
100
AcDbEntity
  8
FORMAT
 62
     0
100
AcDbCircle
 10
-125.5114536606
 20
-125.5114536606
 30
0.0
 40
177.5000000000001
100
AcDbArc
 50
254.19301719
 51
255.0
  0
ARC
  5
104
330
F5
100
AcDbEntity
  8
FORMAT
 62
     0
100
AcDbCircle
 10
-125.5114536606
 20
-125.5114536606
 30
0.0
 40
177.5
100
AcDbArc
 50
225.0
 51
225.80698281
  0
ARC
  5
105
330
F5
100
AcDbEntity
  8
FORMAT
 62
     0
100
AcDbCircle
 10
-125.5114536606
 20
-125.5114536606
 30
0.0
 40
177.5
100
AcDbArc
 50
224.19301719
 51
225.0
  0
ARC
  5
106
330
F5
100
AcDbEntity
  8
FORMAT
 62
     0
100
AcDbCircle
 10
-125.5114536606
 20
-125.5114536606
 30
0.0
 40
177.5000000000001
100
AcDbArc
 50
195.0
 51
195.80698281
  0
ARC
  5
107
330
F5
100
AcDbEntity
  8
FORMAT
 62
     0
100
AcDbCircle
 10
-125.5114536606
 20
-125.5114536606
 30
0.0
 40
177.5000000000001
100
AcDbArc
 50
194.19301719
 51
195.0
  0
ARC
  5
108
330
F5
100
AcDbEntity
  8
FORMAT
 62
     0
100
AcDbCircle
 10
-125.5114536606
 20
-125.5114536606
 30
0.0
 40
177.5
100
AcDbArc
 50
165.0
 51
165.80698281
  0
ARC
  5
109
330
F5
100
AcDbEntity
  8
FORMAT
 62
     0
100
AcDbCircle
 10
-125.5114536606
 20
-125.5114536606
 30
0.0
 40
177.5000000000001
100
AcDbArc
 50
164.19301719
 51
165.0
  0
ARC
  5
10A
330
F5
100
AcDbEntity
  8
FORMAT
 62
     0
100
AcDbCircle
 10
-125.5114536606
 20
-125.5114536606
 30
0.0
 40
177.5
100
AcDbArc
 50
135.0
 51
135.80698281
  0
ARC
  5
10B
330
F5
100
AcDbEntity
  8
FORMAT
 62
     0
100
AcDbCircle
 10
-125.5114536606
 20
-125.5114536606
 30
0.0
 40
177.5
100
AcDbArc
 50
134.19301719
 51
135.0
  0
ARC
  5
10C
330
F5
100
AcDbEntity
  8
FORMAT
 62
     0
100
AcDbCircle
 10
-125.5114536606
 20
-125.5114536606
 30
0.0
 40
177.5
100
AcDbArc
 50
105.0
 51
105.80698281
  0
ARC
  5
10D
330
F5
100
AcDbEntity
  8
FORMAT
 62
     0
100
AcDbCircle
 10
-125.5114536606
 20
-125.5114536606
 30
0.0
 40
177.5
100
AcDbArc
 50
104.19301719
 51
105.0
  0
ARC
  5
10E
330
F5
100
AcDbEntity
  8
FORMAT
 62
     0
100
AcDbCircle
 10
-125.5114536606
 20
-125.5114536606
 30
0.0
 40
177.4999999999999
100
AcDbArc
 50
16.6139656201
 51
43.3860343799
  0
ARC
  5
10F
330
F5
100
AcDbEntity
  8
FORMAT
 62
     0
100
AcDbCircle
 10
-125.5114536606
 20
-125.5114536606
 30
0.0
 40
177.4999999999999
100
AcDbArc
 50
346.6139656201
 51
13.3860343799
  0
ARC
  5
110
330
F5
100
AcDbEntity
  8
FORMAT
 62
     0
100
AcDbCircle
 10
-125.5114536606
 20
-125.5114536606
 30
0.0
 40
177.5
100
AcDbArc
 50
316.6139656201
 51
343.3860343799
  0
ARC
  5
111
330
F5
100
AcDbEntity
  8
FORMAT
 62
     0
100
AcDbCircle
 10
-125.5114536606
 20
-125.5114536606
 30
0.0
 40
177.5
100
AcDbArc
 50
286.6139656201
 51
313.3860343799
  0
ARC
  5
112
330
F5
100
AcDbEntity
  8
FORMAT
 62
     0
100
AcDbCircle
 10
-125.5114536606
 20
-125.5114536606
 30
0.0
 40
177.5
100
AcDbArc
 50
256.6139656201
 51
283.3860343799
  0
ARC
  5
113
330
F5
100
AcDbEntity
  8
FORMAT
 62
     0
100
AcDbCircle
 10
-125.5114536606
 20
-125.5114536606
 30
0.0
 40
177.5
100
AcDbArc
 50
226.6139656201
 51
253.3860343799
  0
ARC
  5
114
330
F5
100
AcDbEntity
  8
FORMAT
 62
     0
100
AcDbCircle
 10
-125.5114536606
 20
-125.5114536606
 30
0.0
 40
177.5000000000001
100
AcDbArc
 50
196.6139656201
 51
223.3860343799
  0
ARC
  5
115
330
F5
100
AcDbEntity
  8
FORMAT
 62
     0
100
AcDbCircle
 10
-125.5114536606
 20
-125.5114536606
 30
0.0
 40
177.5000000000001
100
AcDbArc
 50
166.6139656201
 51
193.3860343799
  0
ARC
  5
116
330
F5
100
AcDbEntity
  8
FORMAT
 62
     0
100
AcDbCircle
 10
-125.5114536606
 20
-125.5114536606
 30
0.0
 40
177.5
100
AcDbArc
 50
136.6139656201
 51
163.3860343799
  0
ARC
  5
117
330
F5
100
AcDbEntity
  8
FORMAT
 62
     0
100
AcDbCircle
 10
-125.5114536606
 20
-125.5114536606
 30
0.0
 40
177.5
100
AcDbArc
 50
46.6139656201
 51
103.3860343799
  0
ARC
  5
118
330
F5
100
AcDbEntity
  8
FORMAT
 62
     0
100
AcDbCircle
 10
-125.5114536606
 20
-125.5114536606
 30
0.0
 40
177.5
100
AcDbArc
 50
106.6139656201
 51
133.3860343799
  0
LINE
  5
119
330
F5
100
AcDbEntity
  8
FORMAT
 62
     0
100
AcDbLine
 10
0.0
 20
0.0
 30
0.0
 11
1.767766953
 21
1.767766953
 31
0.0
  0
LINE
  5
11A
330
F5
100
AcDbEntity
  8
FORMAT
 62
     0
100
AcDbLine
 10
0.0
 20
0.0
 30
0.0
 11
-1.767766953
 21
-1.767766953
 31
0.0
  0
LINE
  5
11B
330
F5
100
AcDbEntity
  8
FORMAT
 62
     0
100
AcDbLine
 10
3.5355339059
 20
3.5355339059
 30
0.0
 11
12.3743686708
 21
12.3743686708
 31
0.0
  0
LINE
  5
11C
330
F5
100
AcDbEntity
  8
FORMAT
 62
     0
100
AcDbLine
 10
-3.5355339059
 20
-3.5355339059
 30
0.0
 11
-12.3743686708
 21
-12.3743686708
 31
0.0
  0
LINE
  5
11D
330
F5
100
AcDbEntity
  8
FORMAT
 62
     0
100
AcDbLine
 10
45.9403805057
 20
-79.5710731549
 30
0.0
 11
48.3551950714
 21
-78.9240255422
 31
0.0
  0
LINE
  5
11E
330
F5
100
AcDbEntity
  8
FORMAT
 62
     0
100
AcDbLine
 10
45.9403805057
 20
-79.5710731549
 30
0.0
 11
43.52556594
 21
-80.2181207677
 31
0.0
  0
LINE
  5
11F
330
F5
100
AcDbEntity
  8
FORMAT
 62
     0
100
AcDbLine
 10
50.7700096371
 20
-78.2769779294
 30
0.0
 11
62.8440824658
 21
-75.0417398656
 31
0.0
  0
LINE
  5
120
330
F5
100
AcDbEntity
  8
FORMAT
 62
     0
100
AcDbLine
 10
41.1107513743
 20
-80.8651683804
 30
0.0
 11
29.0366785456
 21
-84.1004064442
 31
0.0
  0
LINE
  5
121
330
F5
100
AcDbEntity
  8
FORMAT
 62
     0
100
AcDbLine
 10
45.9403805057
 20
-171.4518341663
 30
0.0
 11
48.3551950714
 21
-172.0988817791
 31
0.0
  0
LINE
  5
122
330
F5
100
AcDbEntity
  8
FORMAT
 62
     0
100
AcDbLine
 10
45.9403805057
 20
-171.4518341663
 30
0.0
 11
43.52556594
 21
-170.8047865536
 31
0.0
  0
LINE
  5
123
330
F5
100
AcDbEntity
  8
FORMAT
 62
     0
100
AcDbLine
 10
50.7700096371
 20
-172.7459293918
 30
0.0
 11
62.8440824658
 21
-175.9811674556
 31
0.0
  0
LINE
  5
124
330
F5
100
AcDbEntity
  8
FORMAT
 62
     0
100
AcDbLine
 10
41.1107513743
 20
-170.1577389408
 30
0.0
 11
29.0366785456
 21
-166.922500877
 31
0.0
  0
LINE
  5
125
330
F5
100
AcDbEntity
  8
FORMAT
 62
     0
100
AcDbLine
 10
-125.5114536606
 20
-125.5114536606
 30
0.0
 11
-125.5114536606
 21
-123.0114536606
 31
0.0
  0
LINE
  5
126
330
F5
100
AcDbEntity
  8
FORMAT
 62
     0
100
AcDbLine
 10
-125.5114536606
 20
-125.5114536606
 30
0.0
 11
-128.0114536606
 21
-125.5114536606
 31
0.0
  0
LINE
  5
127
330
F5
100
AcDbEntity
  8
FORMAT
 62
     0
100
AcDbLine
 10
-125.5114536606
 20
-125.5114536606
 30
0.0
 11
-125.5114536606
 21
-128.0114536606
 31
0.0
  0
LINE
  5
128
330
F5
100
AcDbEntity
  8
FORMAT
 62
     0
100
AcDbLine
 10
-125.5114536606
 20
-125.5114536606
 30
0.0
 11
-123.0114536606
 21
-125.5114536606
 31
0.0
  0
LINE
  5
129
330
F5
100
AcDbEntity
  8
FORMAT
 62
     0
100
AcDbLine
 10
-125.5114536606
 20
-120.5114536606
 30
0.0
 11
-125.5114536606
 21
48.4403805057
 31
0.0
  0
LINE
  5
12A
330
F5
100
AcDbEntity
  8
FORMAT
 62
     0
100
AcDbLine
 10
-130.5114536606
 20
-125.5114536606
 30
0.0
 11
-299.4632878269
 21
-125.5114536606
 31
0.0
  0
LINE
  5
12B
330
F5
100
AcDbEntity
  8
FORMAT
 62
     0
100
AcDbLine
 10
-125.5114536606
 20
-130.5114536606
 30
0.0
 11
-125.5114536606
 21
-299.4632878269
 31
0.0
  0
LINE
  5
12C
330
F5
100
AcDbEntity
  8
FORMAT
 62
     0
100
AcDbLine
 10
-120.5114536606
 20
-125.5114536606
 30
0.0
 11
48.4403805057
 21
-125.5114536606
 31
0.0
  0
LINE
  5
12D
330
F5
100
AcDbEntity
  8
FORMAT
 62
     0
100
AcDbLine
 10
0.0
 20
-251.0229073212
 30
0.0
 11
1.767766953
 21
-252.7906742742
 31
0.0
  0
LINE
  5
12E
330
F5
100
AcDbEntity
  8
FORMAT
 62
     0
100
AcDbLine
 10
0.0
 20
-251.0229073212
 30
0.0
 11
-1.767766953
 21
-249.2551403683
 31
0.0
  0
LINE
  5
12F
330
F5
100
AcDbEntity
  8
FORMAT
 62
     0
100
AcDbLine
 10
3.5355339059
 20
-254.5584412272
 30
0.0
 11
12.3743686708
 21
-263.397275992
 31
0.0
  0
LINE
  5
130
330
F5
100
AcDbEntity
  8
FORMAT
 62
     0
100
AcDbLine
 10
-3.5355339059
 20
-247.4873734153
 30
0.0
 11
-12.3743686708
 21
-238.6485386505
 31
0.0
  0
LINE
  5
131
330
F5
100
AcDbEntity
  8
FORMAT
 62
     0
100
AcDbLine
 10
-79.5710731549
 20
-296.9632878269
 30
0.0
 11
-78.9240255422
 21
-299.3781023926
 31
0.0
  0
LINE
  5
132
330
F5
100
AcDbEntity
  8
FORMAT
 62
     0
100
AcDbLine
 10
-79.5710731549
 20
-296.9632878269
 30
0.0
 11
-80.2181207677
 21
-294.5484732612
 31
0.0
  0
LINE
  5
133
330
F5
100
AcDbEntity
  8
FORMAT
 62
     0
100
AcDbLine
 10
-78.2769779294
 20
-301.7929169584
 30
0.0
 11
-75.0417398656
 21
-313.866989787
 31
0.0
  0
LINE
  5
134
330
F5
100
AcDbEntity
  8
FORMAT
 62
     0
100
AcDbLine
 10
-80.8651683804
 20
-292.1336586955
 30
0.0
 11
-84.1004064442
 21
-280.0595858669
 31
0.0
  0
LINE
  5
135
330
F5
100
AcDbEntity
  8
FORMAT
 62
     0
100
AcDbLine
 10
-171.4518341663
 20
-296.9632878269
 30
0.0
 11
-172.0988817791
 21
-299.3781023926
 31
0.0
  0
LINE
  5
136
330
F5
100
AcDbEntity
  8
FORMAT
 62
     0
100
AcDbLine
 10
-171.4518341663
 20
-296.9632878269
 30
0.0
 11
-170.8047865536
 21
-294.5484732612
 31
0.0
  0
LINE
  5
137
330
F5
100
AcDbEntity
  8
FORMAT
 62
     0
100
AcDbLine
 10
-172.7459293918
 20
-301.7929169584
 30
0.0
 11
-175.9811674556
 21
-313.866989787
 31
0.0
  0
LINE
  5
138
330
F5
100
AcDbEntity
  8
FORMAT
 62
     0
100
AcDbLine
 10
-170.1577389408
 20
-292.1336586955
 30
0.0
 11
-166.922500877
 21
-280.0595858669
 31
0.0
  0
LINE
  5
139
330
F5
100
AcDbEntity
  8
FORMAT
 62
     0
100
AcDbLine
 10
-251.0229073212
 20
-251.0229073212
 30
0.0
 11
-252.7906742742
 21
-252.7906742742
 31
0.0
  0
LINE
  5
13A
330
F5
100
AcDbEntity
  8
FORMAT
 62
     0
100
AcDbLine
 10
-251.0229073212
 20
-251.0229073212
 30
0.0
 11
-249.2551403683
 21
-249.2551403683
 31
0.0
  0
LINE
  5
13B
330
F5
100
AcDbEntity
  8
FORMAT
 62
     0
100
AcDbLine
 10
-254.5584412272
 20
-254.5584412272
 30
0.0
 11
-263.397275992
 21
-263.397275992
 31
0.0
  0
LINE
  5
13C
330
F5
100
AcDbEntity
  8
FORMAT
 62
     0
100
AcDbLine
 10
-247.4873734153
 20
-247.4873734153
 30
0.0
 11
-238.6485386505
 21
-238.6485386505
 31
0.0
  0
LINE
  5
13D
330
F5
100
AcDbEntity
  8
FORMAT
 62
     0
100
AcDbLine
 10
-296.9632878269
 20
-171.4518341663
 30
0.0
 11
-299.3781023926
 21
-172.0988817791
 31
0.0
  0
LINE
  5
13E
330
F5
100
AcDbEntity
  8
FORMAT
 62
     0
100
AcDbLine
 10
-296.9632878269
 20
-171.4518341663
 30
0.0
 11
-294.5484732612
 21
-170.8047865536
 31
0.0
  0
LINE
  5
13F
330
F5
100
AcDbEntity
  8
FORMAT
 62
     0
100
AcDbLine
 10
-301.7929169584
 20
-172.7459293918
 30
0.0
 11
-313.866989787
 21
-175.9811674556
 31
0.0
  0
LINE
  5
140
330
F5
100
AcDbEntity
  8
FORMAT
 62
     0
100
AcDbLine
 10
-292.1336586955
 20
-170.1577389408
 30
0.0
 11
-280.0595858669
 21
-166.922500877
 31
0.0
  0
LINE
  5
141
330
F5
100
AcDbEntity
  8
FORMAT
 62
     0
100
AcDbLine
 10
-296.9632878269
 20
-79.5710731549
 30
0.0
 11
-299.3781023926
 21
-78.9240255422
 31
0.0
  0
LINE
  5
142
330
F5
100
AcDbEntity
  8
FORMAT
 62
     0
100
AcDbLine
 10
-296.9632878269
 20
-79.5710731549
 30
0.0
 11
-294.5484732612
 21
-80.2181207677
 31
0.0
  0
LINE
  5
143
330
F5
100
AcDbEntity
  8
FORMAT
 62
     0
100
AcDbLine
 10
-301.7929169584
 20
-78.2769779294
 30
0.0
 11
-313.866989787
 21
-75.0417398656
 31
0.0
  0
LINE
  5
144
330
F5
100
AcDbEntity
  8
FORMAT
 62
     0
100
AcDbLine
 10
-292.1336586955
 20
-80.8651683804
 30
0.0
 11
-280.0595858669
 21
-84.1004064442
 31
0.0
  0
LINE
  5
145
330
F5
100
AcDbEntity
  8
FORMAT
 62
     0
100
AcDbLine
 10
-251.0229073212
 20
0.0
 30
0.0
 11
-252.7906742742
 21
1.767766953
 31
0.0
  0
LINE
  5
146
330
F5
100
AcDbEntity
  8
FORMAT
 62
     0
100
AcDbLine
 10
-251.0229073212
 20
0.0
 30
0.0
 11
-249.2551403683
 21
-1.767766953
 31
0.0
  0
LINE
  5
147
330
F5
100
AcDbEntity
  8
FORMAT
 62
     0
100
AcDbLine
 10
-254.5584412272
 20
3.5355339059
 30
0.0
 11
-263.397275992
 21
12.3743686708
 31
0.0
  0
LINE
  5
148
330
F5
100
AcDbEntity
  8
FORMAT
 62
     0
100
AcDbLine
 10
-247.4873734153
 20
-3.5355339059
 30
0.0
 11
-238.6485386505
 21
-12.3743686708
 31
0.0
  0
LINE
  5
149
330
F5
100
AcDbEntity
  8
FORMAT
 62
     0
100
AcDbLine
 10
-171.4518341663
 20
45.9403805057
 30
0.0
 11
-172.0988817791
 21
48.3551950714
 31
0.0
  0
LINE
  5
14A
330
F5
100
AcDbEntity
  8
FORMAT
 62
     0
100
AcDbLine
 10
-171.4518341663
 20
45.9403805057
 30
0.0
 11
-170.8047865536
 21
43.52556594
 31
0.0
  0
LINE
  5
14B
330
F5
100
AcDbEntity
  8
FORMAT
 62
     0
100
AcDbLine
 10
-172.7459293918
 20
50.7700096371
 30
0.0
 11
-175.9811674556
 21
62.8440824658
 31
0.0
  0
LINE
  5
14C
330
F5
100
AcDbEntity
  8
FORMAT
 62
     0
100
AcDbLine
 10
-170.1577389408
 20
41.1107513743
 30
0.0
 11
-166.922500877
 21
29.0366785456
 31
0.0
  0
ENDBLK
  5
F7
330
F5
100
AcDbEntity
  8
0
100
AcDbBlockEnd
  0
BLOCK
  5
1E5
330
1E4
100
AcDbEntity
  8
0
100
AcDbBlockBegin
  2
SW_CENTERMARKSYMBOL_1
 70
     0
 10
0.0
 20
0.0
 30
0.0
  3
SW_CENTERMARKSYMBOL_1
  1

  0
LINE
  5
1E7
330
1E4
100
AcDbEntity
  8
FORMAT
 62
     0
100
AcDbLine
 10
0.0
 20
0.0
 30
0.0
 11
0.0
 21
2.5
 31
0.0
  0
LINE
  5
1E8
330
1E4
100
AcDbEntity
  8
FORMAT
 62
     0
100
AcDbLine
 10
0.0
 20
0.0
 30
0.0
 11
-2.5
 21
0.0
 31
0.0
  0
LINE
  5
1E9
330
1E4
100
AcDbEntity
  8
FORMAT
 62
     0
100
AcDbLine
 10
0.0
 20
0.0
 30
0.0
 11
0.0
 21
-2.5
 31
0.0
  0
LINE
  5
1EA
330
1E4
100
AcDbEntity
  8
FORMAT
 62
     0
100
AcDbLine
 10
0.0
 20
0.0
 30
0.0
 11
2.5
 21
0.0
 31
0.0
  0
LINE
  5
1EB
330
1E4
100
AcDbEntity
  8
FORMAT
 62
     0
100
AcDbLine
 10
0.0
 20
5.0
 30
0.0
 11
0.0
 21
79.1125859148
 31
0.0
  0
LINE
  5
1EC
330
1E4
100
AcDbEntity
  8
FORMAT
 62
     0
100
AcDbLine
 10
-5.0
 20
0.0
 30
0.0
 11
-78.2134958572
 21
0.0
 31
0.0
  0
LINE
  5
1ED
330
1E4
100
AcDbEntity
  8
FORMAT
 62
     0
100
AcDbLine
 10
0.0
 20
-5.0
 30
0.0
 11
0.0
 21
-81.7297314319
 31
0.0
  0
LINE
  5
1EE
330
1E4
100
AcDbEntity
  8
FORMAT
 62
     0
100
AcDbLine
 10
5.0
 20
0.0
 30
0.0
 11
107.4647675504
 21
0.0
 31
0.0
  0
ENDBLK
  5
1E6
330
1E4
100
AcDbEntity
  8
0
100
AcDbBlockEnd
  0
BLOCK
  5
33B
330
33A
100
AcDbEntity
  8
0
100
AcDbBlockBegin
  2
SW_CENTERMARKSYMBOL_2
 70
     0
 10
0.0
 20
0.0
 30
0.0
  3
SW_CENTERMARKSYMBOL_2
  1

  0
LINE
  5
33D
330
33A
100
AcDbEntity
  8
FORMAT
 62
     0
100
AcDbLine
 10
0.0
 20
0.0
 30
0.0
 11
0.0
 21
2.5
 31
0.0
  0
LINE
  5
33E
330
33A
100
AcDbEntity
  8
FORMAT
 62
     0
100
AcDbLine
 10
0.0
 20
0.0
 30
0.0
 11
-2.5
 21
0.0
 31
0.0
  0
LINE
  5
33F
330
33A
100
AcDbEntity
  8
FORMAT
 62
     0
100
AcDbLine
 10
0.0
 20
0.0
 30
0.0
 11
0.0
 21
-2.5
 31
0.0
  0
LINE
  5
340
330
33A
100
AcDbEntity
  8
FORMAT
 62
     0
100
AcDbLine
 10
0.0
 20
0.0
 30
0.0
 11
2.5
 21
0.0
 31
0.0
  0
LINE
  5
341
330
33A
100
AcDbEntity
  8
FORMAT
 62
     0
100
AcDbLine
 10
0.0
 20
5.0
 30
0.0
 11
0.0
 21
12.5
 31
0.0
  0
LINE
  5
342
330
33A
100
AcDbEntity
  8
FORMAT
 62
     0
100
AcDbLine
 10
-5.0
 20
0.0
 30
0.0
 11
-12.5
 21
0.0
 31
0.0
  0
LINE
  5
343
330
33A
100
AcDbEntity
  8
FORMAT
 62
     0
100
AcDbLine
 10
0.0
 20
-5.0
 30
0.0
 11
0.0
 21
-12.5
 31
0.0
  0
LINE
  5
344
330
33A
100
AcDbEntity
  8
FORMAT
 62
     0
100
AcDbLine
 10
5.0
 20
0.0
 30
0.0
 11
12.5
 21
0.0
 31
0.0
  0
ENDBLK
  5
33C
330
33A
100
AcDbEntity
  8
0
100
AcDbBlockEnd
  0
BLOCK
  5
347
330
346
100
AcDbEntity
  8
0
100
AcDbBlockBegin
  2
SW_CENTERMARKSYMBOL_3
 70
     0
 10
0.0
 20
0.0
 30
0.0
  3
SW_CENTERMARKSYMBOL_3
  1

  0
LINE
  5
349
330
346
100
AcDbEntity
  8
FORMAT
 62
     0
100
AcDbLine
 10
0.0
 20
0.0
 30
0.0
 11
0.0
 21
2.5
 31
0.0
  0
LINE
  5
34A
330
346
100
AcDbEntity
  8
FORMAT
 62
     0
100
AcDbLine
 10
0.0
 20
0.0
 30
0.0
 11
-2.5
 21
0.0
 31
0.0
  0
LINE
  5
34B
330
346
100
AcDbEntity
  8
FORMAT
 62
     0
100
AcDbLine
 10
0.0
 20
0.0
 30
0.0
 11
0.0
 21
-2.5
 31
0.0
  0
LINE
  5
34C
330
346
100
AcDbEntity
  8
FORMAT
 62
     0
100
AcDbLine
 10
0.0
 20
0.0
 30
0.0
 11
2.5
 21
0.0
 31
0.0
  0
LINE
  5
34D
330
346
100
AcDbEntity
  8
FORMAT
 62
     0
100
AcDbLine
 10
0.0
 20
5.0
 30
0.0
 11
0.0
 21
29.2341244722
 31
0.0
  0
LINE
  5
34E
330
346
100
AcDbEntity
  8
FORMAT
 62
     0
100
AcDbLine
 10
-5.0
 20
0.0
 30
0.0
 11
-44.2966579058
 21
0.0
 31
0.0
  0
LINE
  5
34F
330
346
100
AcDbEntity
  8
FORMAT
 62
     0
100
AcDbLine
 10
0.0
 20
-5.0
 30
0.0
 11
0.0
 21
-34.9484630841
 31
0.0
  0
LINE
  5
350
330
346
100
AcDbEntity
  8
FORMAT
 62
     0
100
AcDbLine
 10
5.0
 20
0.0
 30
0.0
 11
37.0012863322
 21
0.0
 31
0.0
  0
ENDBLK
  5
348
330
346
100
AcDbEntity
  8
0
100
AcDbBlockEnd
  0
BLOCK
  5
353
330
352
100
AcDbEntity
  8
0
100
AcDbBlockBegin
  2
SW_CENTERMARKSYMBOL_4
 70
     0
 10
0.0
 20
0.0
 30
0.0
  3
SW_CENTERMARKSYMBOL_4
  1

  0
LINE
  5
355
330
352
100
AcDbEntity
  8
FORMAT
 62
     0
100
AcDbLine
 10
0.0
 20
0.0
 30
0.0
 11
0.0
 21
2.5
 31
0.0
  0
LINE
  5
356
330
352
100
AcDbEntity
  8
FORMAT
 62
     0
100
AcDbLine
 10
0.0
 20
0.0
 30
0.0
 11
-2.5
 21
0.0
 31
0.0
  0
LINE
  5
357
330
352
100
AcDbEntity
  8
FORMAT
 62
     0
100
AcDbLine
 10
0.0
 20
0.0
 30
0.0
 11
0.0
 21
-2.5
 31
0.0
  0
LINE
  5
358
330
352
100
AcDbEntity
  8
FORMAT
 62
     0
100
AcDbLine
 10
0.0
 20
0.0
 30
0.0
 11
2.5
 21
0.0
 31
0.0
  0
LINE
  5
359
330
352
100
AcDbEntity
  8
FORMAT
 62
     0
100
AcDbLine
 10
0.0
 20
5.0
 30
0.0
 11
0.0
 21
22.1561649764
 31
0.0
  0
LINE
  5
35A
330
352
100
AcDbEntity
  8
FORMAT
 62
     0
100
AcDbLine
 10
-5.0
 20
0.0
 30
0.0
 11
-22.1561649764
 21
0.0
 31
0.0
  0
LINE
  5
35B
330
352
100
AcDbEntity
  8
FORMAT
 62
     0
100
AcDbLine
 10
0.0
 20
-5.0
 30
0.0
 11
0.0
 21
-22.1561649764
 31
0.0
  0
LINE
  5
35C
330
352
100
AcDbEntity
  8
FORMAT
 62
     0
100
AcDbLine
 10
5.0
 20
0.0
 30
0.0
 11
22.1561649764
 21
0.0
 31
0.0
  0
ENDBLK
  5
354
330
352
100
AcDbEntity
  8
0
100
AcDbBlockEnd
  0
BLOCK
  5
35F
330
35E
100
AcDbEntity
  8
0
100
AcDbBlockBegin
  2
SW_CENTERMARKSYMBOL_5
 70
     0
 10
0.0
 20
0.0
 30
0.0
  3
SW_CENTERMARKSYMBOL_5
  1

  0
LINE
  5
361
330
35E
100
AcDbEntity
  8
FORMAT
 62
     0
100
AcDbLine
 10
0.0
 20
0.0
 30
0.0
 11
0.0
 21
2.5
 31
0.0
  0
LINE
  5
362
330
35E
100
AcDbEntity
  8
FORMAT
 62
     0
100
AcDbLine
 10
0.0
 20
0.0
 30
0.0
 11
-2.5
 21
0.0
 31
0.0
  0
LINE
  5
363
330
35E
100
AcDbEntity
  8
FORMAT
 62
     0
100
AcDbLine
 10
0.0
 20
0.0
 30
0.0
 11
0.0
 21
-2.5
 31
0.0
  0
LINE
  5
364
330
35E
100
AcDbEntity
  8
FORMAT
 62
     0
100
AcDbLine
 10
0.0
 20
0.0
 30
0.0
 11
2.5
 21
0.0
 31
0.0
  0
LINE
  5
365
330
35E
100
AcDbEntity
  8
FORMAT
 62
     0
100
AcDbLine
 10
0.0
 20
5.0
 30
0.0
 11
0.0
 21
22.1561649764
 31
0.0
  0
LINE
  5
366
330
35E
100
AcDbEntity
  8
FORMAT
 62
     0
100
AcDbLine
 10
-5.0
 20
0.0
 30
0.0
 11
-22.1561649764
 21
0.0
 31
0.0
  0
LINE
  5
367
330
35E
100
AcDbEntity
  8
FORMAT
 62
     0
100
AcDbLine
 10
0.0
 20
-5.0
 30
0.0
 11
0.0
 21
-22.1561649764
 31
0.0
  0
LINE
  5
368
330
35E
100
AcDbEntity
  8
FORMAT
 62
     0
100
AcDbLine
 10
5.0
 20
0.0
 30
0.0
 11
22.1561649764
 21
0.0
 31
0.0
  0
ENDBLK
  5
360
330
35E
100
AcDbEntity
  8
0
100
AcDbBlockEnd
  0
BLOCK
  5
36B
330
36A
100
AcDbEntity
  8
0
100
AcDbBlockBegin
  2
SW_CENTERMARKSYMBOL_6
 70
     0
 10
0.0
 20
0.0
 30
0.0
  3
SW_CENTERMARKSYMBOL_6
  1

  0
LINE
  5
36D
330
36A
100
AcDbEntity
  8
FORMAT
 62
     0
100
AcDbLine
 10
0.0
 20
0.0
 30
0.0
 11
0.0
 21
2.5
 31
0.0
  0
LINE
  5
36E
330
36A
100
AcDbEntity
  8
FORMAT
 62
     0
100
AcDbLine
 10
0.0
 20
0.0
 30
0.0
 11
-2.5
 21
0.0
 31
0.0
  0
LINE
  5
36F
330
36A
100
AcDbEntity
  8
FORMAT
 62
     0
100
AcDbLine
 10
0.0
 20
0.0
 30
0.0
 11
0.0
 21
-2.5
 31
0.0
  0
LINE
  5
370
330
36A
100
AcDbEntity
  8
FORMAT
 62
     0
100
AcDbLine
 10
0.0
 20
0.0
 30
0.0
 11
2.5
 21
0.0
 31
0.0
  0
LINE
  5
371
330
36A
100
AcDbEntity
  8
FORMAT
 62
     0
100
AcDbLine
 10
0.0
 20
5.0
 30
0.0
 11
0.0
 21
21.5
 31
0.0
  0
LINE
  5
372
330
36A
100
AcDbEntity
  8
FORMAT
 62
     0
100
AcDbLine
 10
-5.0
 20
0.0
 30
0.0
 11
-21.5
 21
0.0
 31
0.0
  0
LINE
  5
373
330
36A
100
AcDbEntity
  8
FORMAT
 62
     0
100
AcDbLine
 10
0.0
 20
-5.0
 30
0.0
 11
0.0
 21
-21.5
 31
0.0
  0
LINE
  5
374
330
36A
100
AcDbEntity
  8
FORMAT
 62
     0
100
AcDbLine
 10
5.0
 20
0.0
 30
0.0
 11
21.5
 21
0.0
 31
0.0
  0
ENDBLK
  5
36C
330
36A
100
AcDbEntity
  8
0
100
AcDbBlockEnd
  0
BLOCK
  5
377
330
376
100
AcDbEntity
  8
0
100
AcDbBlockBegin
  2
SW_CENTERMARKSYMBOL_7
 70
     0
 10
0.0
 20
0.0
 30
0.0
  3
SW_CENTERMARKSYMBOL_7
  1

  0
LINE
  5
379
330
376
100
AcDbEntity
  8
FORMAT
 62
     0
100
AcDbLine
 10
0.0
 20
0.0
 30
0.0
 11
0.0
 21
2.5
 31
0.0
  0
LINE
  5
37A
330
376
100
AcDbEntity
  8
FORMAT
 62
     0
100
AcDbLine
 10
0.0
 20
0.0
 30
0.0
 11
-2.5
 21
0.0
 31
0.0
  0
LINE
  5
37B
330
376
100
AcDbEntity
  8
FORMAT
 62
     0
100
AcDbLine
 10
0.0
 20
0.0
 30
0.0
 11
0.0
 21
-2.5
 31
0.0
  0
LINE
  5
37C
330
376
100
AcDbEntity
  8
FORMAT
 62
     0
100
AcDbLine
 10
0.0
 20
0.0
 30
0.0
 11
2.5
 21
0.0
 31
0.0
  0
LINE
  5
37D
330
376
100
AcDbEntity
  8
FORMAT
 62
     0
100
AcDbLine
 10
0.0
 20
5.0
 30
0.0
 11
0.0
 21
22.1561649764
 31
0.0
  0
LINE
  5
37E
330
376
100
AcDbEntity
  8
FORMAT
 62
     0
100
AcDbLine
 10
-5.0
 20
0.0
 30
0.0
 11
-22.1561649764
 21
0.0
 31
0.0
  0
LINE
  5
37F
330
376
100
AcDbEntity
  8
FORMAT
 62
     0
100
AcDbLine
 10
0.0
 20
-5.0
 30
0.0
 11
0.0
 21
-22.1561649764
 31
0.0
  0
LINE
  5
380
330
376
100
AcDbEntity
  8
FORMAT
 62
     0
100
AcDbLine
 10
5.0
 20
0.0
 30
0.0
 11
22.1561649764
 21
0.0
 31
0.0
  0
ENDBLK
  5
378
330
376
100
AcDbEntity
  8
0
100
AcDbBlockEnd
  0
ENDSEC
  0
SECTION
  2
ENTITIES
  0
LINE
  5
48
330
1F
100
AcDbEntity
  8
TOOLING_TABLE
 62
     7
100
AcDbLine
 10
558.0
 20
36.8671069427
 30
0.0
 11
644.0
 21
36.8671069427
 31
0.0
  0
LINE
  5
49
330
1F
100
AcDbEntity
  8
TOOLING_TABLE
 62
     7
100
AcDbLine
 10
558.0
 20
24.8671069427
 30
0.0
 11
644.0
 21
24.8671069427
 31
0.0
  0
LINE
  5
4A
330
1F
100
AcDbEntity
  8
TOOLING_TABLE
 62
     7
100
AcDbLine
 10
558.0
 20
63.8671069427
 30
0.0
 11
558.0
 21
12.8671069427
 31
0.0
  0
LINE
  5
4B
330
1F
100
AcDbEntity
  8
TOOLING_TABLE
100
AcDbLine
 10
558.0
 20
12.8671069427
 30
0.0
 11
644.0
 21
12.8671069427
 31
0.0
  0
LINE
  5
4C
330
1F
100
AcDbEntity
  8
TOOLING_TABLE
100
AcDbLine
 10
644.0
 20
63.8671069427
 30
0.0
 11
644.0
 21
12.8671069427
 31
0.0
  0
LINE
  5
4D
330
1F
100
AcDbEntity
  8
TOOLING_TABLE
 62
     7
100
AcDbLine
 10
558.0
 20
45.8671069427
 30
0.0
 11
644.0
 21
45.8671069427
 31
0.0
  0
LINE
  5
4E
330
1F
100
AcDbEntity
  8
TOOLING_TABLE
 62
     7
100
AcDbLine
 10
558.0
 20
54.8671069427
 30
0.0
 11
644.0
 21
54.8671069427
 31
0.0
  0
LINE
  5
4F
330
1F
100
AcDbEntity
  8
TOOLING_TABLE
 62
     7
100
AcDbLine
 10
558.0
 20
63.8671069427
 30
0.0
 11
644.0
 21
63.8671069427
 31
0.0
  0
LINE
  5
50
330
1F
100
AcDbEntity
  8
TOOLING_TABLE
 62
     7
100
AcDbLine
 10
601.0
 20
63.8671069427
 30
0.0
 11
601.0
 21
36.8671069427
 31
0.0
  0
LINE
  5
51
330
1F
100
AcDbEntity
  8
TOOLING_TABLE
 62
     7
370
     0
100
AcDbLine
 10
624.0
 20
54.8671069427
 30
0.0
 11
624.0
 21
45.8671069427
 31
0.0
  0
MTEXT
  5
53
330
1F
100
AcDbEntity
  8
TOOLING_TABLE
100
AcDbMText
 10
602.1062783613
 20
54.2702582207
 30
0.0
 40
1.2
 41
0.0
 71
     1
 72
     1
  1
Date:
  7
SLDTEXTSTYLE0
 73
     1
 44
1.0
  0
MTEXT
  5
54
330
1F
100
AcDbEntity
  8
TOOLING_TABLE
100
AcDbMText
 10
603.018097772
 20
49.8283199631
 30
0.0
 40
2.5
 41
0.0
 71
     1
 72
     1
  1
yyyy.mm.dd
  7
SLDTEXTSTYLE0
 73
     1
 44
1.0
  0
MTEXT
  5
55
330
1F
100
AcDbEntity
  8
TOOLING_TABLE
100
AcDbMText
 10
560.201296573
 20
19.1574227188
 30
0.0
 40
2.6458333333
 41
0.0
 71
     1
 72
     1
  1
-
  7
SLDTEXTSTYLE0
 73
     1
 44
1.0
  0
MTEXT
  5
56
330
1F
100
AcDbEntity
  8
TOOLING_TABLE
100
AcDbMText
 10
560.201296573
 20
31.4173726938
 30
0.0
 40
2.6458333333
 41
0.0
 71
     1
 72
     1
  1
-
  7
SLDTEXTSTYLE0
 73
     1
 44
1.0
  0
MTEXT
  5
57
330
1F
100
AcDbEntity
  8
TOOLING_TABLE
100
AcDbMText
 10
560.201296573
 20
41.3865649653
 30
0.0
 40
2.6458333333
 41
0.0
 71
     1
 72
     1
  1
-
  7
SLDTEXTSTYLE0
 73
     1
 44
1.0
  0
MTEXT
  5
58
330
1F
100
AcDbEntity
  8
TOOLING_TABLE
100
AcDbMText
 10
559.8363625628
 20
49.9958228804
 30
0.0
 40
2.6458333333
 41
0.0
 71
     1
 72
     1
  1
-
  7
SLDTEXTSTYLE0
 73
     1
 44
1.0
  0
MTEXT
  5
59
330
1F
100
AcDbEntity
  8
TOOLING_TABLE
100
AcDbMText
 10
603.9499678367
 20
41.662126356
 30
0.0
 40
2.5
 41
0.0
 71
     1
 72
     1
  1
-
  7
SLDTEXTSTYLE0
 73
     1
 44
1.0
  0
MTEXT
  5
5A
330
1F
100
AcDbEntity
  8
TOOLING_TABLE
100
AcDbMText
 10
630.2212650386
 20
50.3962796907
 30
0.0
 40
3.175
 41
0.0
 71
     1
 72
     1
  1
-
  7
SLDTEXTSTYLE0
 73
     1
 44
1.0
  0
MTEXT
  5
5B
330
1F
100
AcDbEntity
  8
TOOLING_TABLE
100
AcDbMText
 10
610.1822179805
 20
60.6243780584
 30
0.0
 40
3.175
 41
0.0
 71
     1
 72
     1
  1
T-
  7
SLDTEXTSTYLE0
 73
     1
 44
1.0
  0
MTEXT
  5
5C
330
1F
100
AcDbEntity
  8
TOOLING_TABLE
 62
     7
100
AcDbMText
 10
559.1184091958
 20
45.4874334828
 30
0.0
 40
1.2
 41
0.0
 71
     1
 72
     1
  1
Not specified chamfer:
  7
SLDTEXTSTYLE0
 73
     1
 44
1.0
  0
MTEXT
  5
5D
330
1F
100
AcDbEntity
  8
TOOLING_TABLE
100
AcDbMText
 10
559.1184091958
 20
54.2702582207
 30
0.0
 40
1.2
 41
0.0
 71
     1
 72
     1
  1
Not specified tolerance:
  7
SLDTEXTSTYLE0
 73
     1
 44
1.0
  0
MTEXT
  5
5E
330
1F
100
AcDbEntity
  8
TOOLING_TABLE
100
AcDbMText
 10
559.1184091958
 20
36.1184577829
 30
0.0
 40
1.2
 41
0.0
 71
     1
 72
     1
  1
Hardening & Surfacing:
  7
SLDTEXTSTYLE0
 73
     1
 44
1.0
  0
MTEXT
  5
5F
330
1F
100
AcDbEntity
  8
TOOLING_TABLE
100
AcDbMText
 10
559.1184091958
 20
24.3382170231
 30
0.0
 40
1.2
 41
0.0
 71
     1
 72
     1
  1
Notes:
  7
SLDTEXTSTYLE0
 73
     1
 44
1.0
  0
MTEXT
  5
60
330
1F
100
AcDbEntity
  8
TOOLING_TABLE
100
AcDbMText
 10
602.1062783613
 20
45.4874334828
 30
0.0
 40
1.2
 41
0.0
 71
     1
 72
     1
  1
Ekstern part no.:
  7
SLDTEXTSTYLE0
 73
     1
 44
1.0
  0
MTEXT
  5
61
330
1F
100
AcDbEntity
  8
TOOLING_TABLE
100
AcDbMText
 10
624.6246212708
 20
54.2702582207
 30
0.0
 40
1.2
 41
0.0
 71
     1
 72
     1
  1
Number:
  7
SLDTEXTSTYLE0
 73
     1
 44
1.0
  0
MTEXT
  5
62
330
1F
100
AcDbEntity
  8
TOOLING_TABLE
100
AcDbMText
 10
601.8747919494
 20
63.2637332969
 30
0.0
 40
1.2
 41
0.0
 71
     1
 72
     1
  1
Order no.:
  7
SLDTEXTSTYLE0
 73
     1
 44
1.0
  0
MTEXT
  5
63
330
1F
100
AcDbEntity
  8
TOOLING_TABLE
100
AcDbMText
 10
561.334242998
 20
60.6243780584
 30
0.0
 40
3.175
 41
0.0
 71
     1
 72
     1
  1
AVK Tech Tooling
  7
SLDTEXTSTYLE0
 73
     1
 44
1.0
  0
LINE
  5
64
330
1F
100
AcDbEntity
  8
0
  6
Continuous
 62
     7
370
    15
100
AcDbLine
 10
6.4552483474
 20
535.5920396095
 30
0.0
 11
6.4552483474
 21
639.5920417552
 31
0.0
  0
LINE
  5
65
330
1F
100
AcDbEntity
  8
0
  6
Continuous
 62
     7
370
    15
100
AcDbLine
 10
-13.5447623814
 20
639.5920417552
 30
0.0
 11
-13.5447623814
 21
535.5920396095
 31
0.0
  0
LINE
  5
66
330
1F
100
AcDbEntity
  8
0
  6
Continuous
 62
     7
370
    15
100
AcDbLine
 10
531.9552478706
 20
524.0920386558
 30
0.0
 11
487.4552396451
 21
524.0920386558
 31
0.0
  0
LINE
  5
67
330
1F
100
AcDbEntity
  8
0
  6
Continuous
 62
     7
370
    15
100
AcDbLine
 10
487.4552396451
 20
399.0920386558
 30
0.0
 11
531.9552478706
 21
399.0920386558
 31
0.0
  0
LINE
  5
68
330
1F
100
AcDbEntity
  8
0
  6
Continuous
 62
     7
370
    15
100
AcDbLine
 10
36.9552431022
 20
399.0920386558
 30
0.0
 11
54.455241314
 21
399.0920386558
 31
0.0
  0
LINE
  5
69
330
1F
100
AcDbEntity
  8
0
  6
Continuous
 62
     7
370
    15
100
AcDbLine
 10
54.455241314
 20
524.0920386558
 30
0.0
 11
36.9552431022
 21
524.0920386558
 31
0.0
  0
LINE
  5
6A
330
1F
100
AcDbEntity
  8
0
  6
Continuous
 62
     7
370
    15
100
AcDbLine
 10
-42.0447530831
 20
498.0920381193
 30
0.0
 11
-43.0447700108
 21
498.0920381193
 31
0.0
  0
LINE
  5
6B
330
1F
100
AcDbEntity
  8
0
  6
Continuous
 62
     7
370
    15
100
AcDbLine
 10
-43.0447700108
 20
425.0920391922
 30
0.0
 11
-42.0447530831
 21
425.0920391922
 31
0.0
  0
LINE
  5
6C
330
1F
100
AcDbEntity
  8
0
  6
Continuous
 62
     7
370
    15
100
AcDbLine
 10
-42.0447530831
 20
392.5920403843
 30
0.0
 11
-30.0547721471
 21
392.5920403843
 31
0.0
  0
LINE
  5
6D
330
1F
100
AcDbEntity
  8
0
  6
Continuous
 62
     7
370
    15
100
AcDbLine
 10
30.6352434074
 20
392.5920403843
 30
0.0
 11
36.9552431022
 21
392.5920403843
 31
0.0
  0
LINE
  5
6E
330
1F
100
AcDbEntity
  8
0
  6
Continuous
 62
     7
370
    15
100
AcDbLine
 10
36.9552431022
 20
530.5920369272
 30
0.0
 11
30.6352434074
 21
530.5920369272
 31
0.0
  0
LINE
  5
6F
330
1F
100
AcDbEntity
  8
0
  6
Continuous
 62
     7
370
    15
100
AcDbLine
 10
-30.0547721471
 20
530.5920369272
 30
0.0
 11
-42.0447530831
 21
530.5920369272
 31
0.0
  0
CIRCLE
  5
70
330
1F
100
AcDbEntity
  8
0
  6
Continuous
 62
     7
370
    15
100
AcDbCircle
 10
270.9552404796
 20
456.5920386558
 30
0.0
 40
125.0
  0
CIRCLE
  5
71
330
1F
100
AcDbEntity
  8
0
  6
Continuous
 62
     7
370
    15
100
AcDbCircle
 10
270.9552404796
 20
456.5920386558
 30
0.0
 40
159.5
  0
LINE
  5
72
330
1F
100
AcDbEntity
  8
0
  6
Continuous
 62
     7
370
    15
100
AcDbLine
 10
275.9552403678
 20
661.592041636
 30
0.0
 11
310.9552395855
 21
661.592041636
 31
0.0
  0
LINE
  5
73
330
1F
100
AcDbEntity
  8
0
  6
Continuous
 62
     7
370
    15
100
AcDbLine
 10
310.9552395855
 20
661.592041636
 30
0.0
 11
320.9552412246
 21
671.5920320993
 31
0.0
  0
LINE
  5
74
330
1F
100
AcDbEntity
  8
0
  6
Continuous
 62
     7
370
    15
100
AcDbLine
 10
320.9552412246
 20
671.5920320993
 30
0.0
 11
355.9552413736
 21
671.5920320993
 31
0.0
  0
LINE
  5
75
330
1F
100
AcDbEntity
  8
0
  6
Continuous
 62
     7
370
    15
100
AcDbLine
 10
355.9552413736
 20
671.5920320993
 30
0.0
 11
355.9552413736
 21
640.3888068443
 31
0.0
  0
ARC
  5
76
330
1F
100
AcDbEntity
  8
0
  6
Continuous
 62
     7
370
    15
100
AcDbCircle
 10
270.9552404796
 20
456.5920386558
 30
0.0
 40
202.5
100
AcDbArc
 50
294.8189997873
 51
65.1810002127
  0
LINE
  5
77
330
1F
100
AcDbEntity
  8
0
  6
Continuous
 62
     7
370
    15
100
AcDbLine
 10
355.9552413736
 20
241.5920398479
 30
0.0
 11
355.9552413736
 21
272.795280004
 31
0.0
  0
LINE
  5
78
330
1F
100
AcDbEntity
  8
0
  6
Continuous
 62
     7
370
    15
100
AcDbLine
 10
320.9552412246
 20
241.5920398479
 30
0.0
 11
355.9552413736
 21
241.5920398479
 31
0.0
  0
LINE
  5
79
330
1F
100
AcDbEntity
  8
0
  6
Continuous
 62
     7
370
    15
100
AcDbLine
 10
310.9552395855
 20
251.5920452123
 30
0.0
 11
320.9552412246
 21
241.5920398479
 31
0.0
  0
LINE
  5
7A
330
1F
100
AcDbEntity
  8
0
  6
Continuous
 62
     7
370
    15
100
AcDbLine
 10
230.9552413736
 20
251.5920452123
 30
0.0
 11
310.9552395855
 21
251.5920452123
 31
0.0
  0
LINE
  5
7B
330
1F
100
AcDbEntity
  8
0
  6
Continuous
 62
     7
370
    15
100
AcDbLine
 10
220.9552397345
 20
241.5920398479
 30
0.0
 11
230.9552413736
 21
251.5920452123
 31
0.0
  0
LINE
  5
7C
330
1F
100
AcDbEntity
  8
0
  6
Continuous
 62
     7
370
    15
100
AcDbLine
 10
185.9552395855
 20
241.5920398479
 30
0.0
 11
220.9552397345
 21
241.5920398479
 31
0.0
  0
LINE
  5
7D
330
1F
100
AcDbEntity
  8
0
  6
Continuous
 62
     7
370
    15
100
AcDbLine
 10
185.9552395855
 20
272.795280004
 30
0.0
 11
185.9552395855
 21
241.5920398479
 31
0.0
  0
ARC
  5
7E
330
1F
100
AcDbEntity
  8
0
  6
Continuous
 62
     7
370
    15
100
AcDbCircle
 10
270.9552404796
 20
456.5920386558
 30
0.0
 40
202.5
100
AcDbArc
 50
114.8189997873
 51
245.1810002127
  0
LINE
  5
7F
330
1F
100
AcDbEntity
  8
0
  6
Continuous
 62
     7
370
    15
100
AcDbLine
 10
185.9552395855
 20
640.3888068443
 30
0.0
 11
185.9552395855
 21
671.5920320993
 31
0.0
  0
LINE
  5
80
330
1F
100
AcDbEntity
  8
0
  6
Continuous
 62
     7
370
    15
100
AcDbLine
 10
185.9552395855
 20
671.5920320993
 30
0.0
 11
220.9552397345
 21
671.5920320993
 31
0.0
  0
LINE
  5
81
330
1F
100
AcDbEntity
  8
0
  6
Continuous
 62
     7
370
    15
100
AcDbLine
 10
220.9552397345
 20
671.5920320993
 30
0.0
 11
230.9552413736
 21
661.592041636
 31
0.0
  0
LINE
  5
82
330
1F
100
AcDbEntity
  8
0
  6
Continuous
 62
     7
370
    15
100
AcDbLine
 10
230.9552413736
 20
661.592041636
 30
0.0
 11
265.9552405913
 21
661.592041636
 31
0.0
  0
LINE
  5
83
330
1F
100
AcDbEntity
  8
0
  6
Continuous
 62
     7
370
    15
100
AcDbLine
 10
265.9552405913
 20
661.592041636
 30
0.0
 11
270.9552404796
 21
658.5920355563
 31
0.0
  0
LINE
  5
84
330
1F
100
AcDbEntity
  8
0
  6
Continuous
 62
     7
370
    15
100
AcDbLine
 10
270.9552404796
 20
658.5920355563
 30
0.0
 11
275.9552403678
 21
661.592041636
 31
0.0
  0
CIRCLE
  5
85
330
1F
100
AcDbEntity
  8
0
  6
Continuous
 62
     7
370
    15
100
AcDbCircle
 10
316.8956209853
 20
628.0438728221
 30
0.0
 40
15.0
  0
CIRCLE
  5
86
330
1F
100
AcDbEntity
  8
0
  6
Continuous
 62
     7
370
    15
100
AcDbCircle
 10
396.4666941402
 20
582.1034923164
 30
0.0
 40
15.00000000000005
  0
CIRCLE
  5
87
330
1F
100
AcDbEntity
  8
0
  6
Continuous
 62
     7
370
    15
100
AcDbCircle
 10
442.4070746459
 20
502.5324191615
 30
0.0
 40
14.99999999999997
  0
CIRCLE
  5
88
330
1F
100
AcDbEntity
  8
0
  6
Continuous
 62
     7
370
    15
100
AcDbCircle
 10
442.4070746459
 20
410.6516581501
 30
0.0
 40
15.0
  0
CIRCLE
  5
89
330
1F
100
AcDbEntity
  8
0
  6
Continuous
 62
     7
370
    15
100
AcDbCircle
 10
396.4666941402
 20
331.0805849952
 30
0.0
 40
15.00000000000003
  0
CIRCLE
  5
8A
330
1F
100
AcDbEntity
  8
0
  6
Continuous
 62
     7
370
    15
100
AcDbCircle
 10
316.8956209853
 20
285.1402044895
 30
0.0
 40
15.00000000000002
  0
CIRCLE
  5
8B
330
1F
100
AcDbEntity
  8
0
  6
Continuous
 62
     7
370
    15
100
AcDbCircle
 10
225.0148599739
 20
285.1402044895
 30
0.0
 40
15.0
  0
CIRCLE
  5
8C
330
1F
100
AcDbEntity
  8
0
  6
Continuous
 62
     7
370
    15
100
AcDbCircle
 10
145.443786819
 20
331.0805849952
 30
0.0
 40
15.00000000000007
  0
CIRCLE
  5
8D
330
1F
100
AcDbEntity
  8
0
  6
Continuous
 62
     7
370
    15
100
AcDbCircle
 10
99.5034063133
 20
410.6516581501
 30
0.0
 40
15.00000000000005
  0
CIRCLE
  5
8E
330
1F
100
AcDbEntity
  8
0
  6
Continuous
 62
     7
370
    15
100
AcDbCircle
 10
99.5034063133
 20
502.5324191615
 30
0.0
 40
15.00000000000001
  0
CIRCLE
  5
8F
330
1F
100
AcDbEntity
  8
0
  6
Continuous
 62
     7
370
    15
100
AcDbCircle
 10
145.443786819
 20
582.1034923164
 30
0.0
 40
15.00000000000004
  0
CIRCLE
  5
90
330
1F
100
AcDbEntity
  8
0
  6
Continuous
 62
     7
370
    15
100
AcDbCircle
 10
225.0148599739
 20
628.0438728221
 30
0.0
 40
15.00000000000008
  0
LINE
  5
91
330
1F
100
AcDbEntity
  8
0
  6
Continuous
 62
     7
370
    15
100
AcDbLine
 10
-42.0447530831
 20
398.5920376425
 30
0.0
 11
-42.0447530831
 21
408.5920392816
 31
0.0
  0
SPLINE
  5
92
330
1F
100
AcDbEntity
  8
0
  6
Continuous
 62
     7
370
    15
100
AcDbSpline
210
0.0
220
0.0
230
1.0
 70
     8
 71
     3
 72
    32
 73
    28
 74
     0
 42
0.00000001
 43
0.00000001
 12
1.0
 22
0.0
 32
0.0
 13
1.0
 23
0.0
 33
0.0
 40
0.0
 40
0.0
 40
0.0
 40
0.0
 40
0.0156250000000015
 40
0.0156250000000015
 40
0.0312500000000029
 40
0.0312500000000029
 40
0.0625000000000024
 40
0.0625000000000024
 40
0.0937500000000018
 40
0.0937500000000018
 40
0.1250000000000012
 40
0.1250000000000012
 40
0.187500000000001
 40
0.187500000000001
 40
0.2500000000000007
 40
0.2500000000000007
 40
0.3750000000000005
 40
0.3750000000000005
 40
0.5000000000000003
 40
0.5000000000000003
 40
0.6250000000000001
 40
0.6250000000000001
 40
0.75
 40
0.75
 40
0.875
 40
0.875
 40
1.0
 40
1.0
 40
1.0
 40
1.0
 10
2.307590434941553
 20
408.592038655781
 30
0.0
 10
2.307590434941498
 20
408.4589995669335
 30
0.0
 10
2.323022814333497
 20
408.3289431203049
 30
0.0
 10
2.380476587396874
 20
408.0739727219217
 30
0.0
 10
2.423065516324707
 20
407.9478712249376
 30
0.0
 10
2.579529470357722
 20
407.5863351161726
 30
0.0
 10
2.719657516141005
 20
407.3667899282157
 30
0.0
 10
3.037723947744098
 20
406.9506178538738
 30
0.0
 10
3.212202499709438
 20
406.7592054496282
 30
0.0
 10
3.576179252410383
 20
406.3958364778594
 30
0.0
 10
3.76622983878333
 20
406.2238360646222
 30
0.0
 10
4.351082948590879
 20
405.7261807738436
 30
0.0
 10
4.761529245438822
 20
405.417501972241
 30
0.0
 10
5.593407294103847
 20
404.8296839022854
 30
0.0
 10
6.014425157596648
 20
404.5515405906787
 30
0.0
 10
7.283650890602567
 20
403.747948765998
 30
0.0
 10
8.137750420196877
 20
403.2527639741825
 30
0.0
 10
9.84654366718074
 20
402.3182190000779
 30
0.0
 10
10.70174713804289
 20
401.8797707917918
 30
0.0
 10
12.41053761271177
 20
401.0598894385506
 30
0.0
 10
13.26771102710084
 20
400.6774146206706
 30
0.0
 10
14.94618190574526
 20
399.9943402349587
 30
0.0
 10
15.77100634719625
 20
399.6917991462909
 30
0.0
 10
17.39229176042234
 20
399.1803824136479
 30
0.0
 10
18.18873909069879
 20
398.9712383641707
 30
0.0
 10
19.75435252720742
 20
398.6758841372942
 30
0.0
 10
20.51190225178246
 20
398.592038655781
 30
0.0
 10
21.23930794236573
 20
398.592038655781
 30
0.0
  0
LINE
  5
93
330
1F
100
AcDbEntity
  8
0
  6
Continuous
 62
     7
370
    15
100
AcDbLine
 10
21.2393013154
 20
398.5920376425
 30
0.0
 11
17.9062840854
 21
398.5920376425
 31
0.0
  0
SPLINE
  5
94
330
1F
100
AcDbEntity
  8
0
  6
Continuous
 62
     7
370
    15
100
AcDbSpline
210
0.0
220
0.0
230
1.0
 70
     8
 71
     3
 72
    24
 73
    20
 74
     0
 42
0.00000001
 43
0.00000001
 12
1.0
 22
0.0
 32
0.0
 13
1.0
 23
0.0
 33
0.0
 40
0.0
 40
0.0
 40
0.0
 40
0.0
 40
0.1250000000000107
 40
0.1250000000000107
 40
0.2500000000000214
 40
0.2500000000000214
 40
0.3125000000000232
 40
0.3125000000000232
 40
0.375000000000025
 40
0.375000000000025
 40
0.5000000000000223
 40
0.5000000000000223
 40
0.7500000000000172
 40
0.7500000000000172
 40
0.8125000000000113
 40
0.8125000000000113
 40
0.8750000000000053
 40
0.8750000000000053
 40
1.0
 40
1.0
 40
1.0
 40
1.0
 10
-4.364759520422479
 20
402.5920386557809
 30
0.0
 10
-3.341229415988689
 20
402.5920386557809
 30
0.0
 10
-2.326609344647013
 20
402.5311135561852
 30
0.0
 10
-0.3131650980823242
 20
402.3070237983582
 30
0.0
 10
0.6857138297142185
 20
402.1444566227086
 30
0.0
 10
2.174635574300421
 20
401.8508123656156
 30
0.0
 10
2.670371605608457
 20
401.7444390680806
 30
0.0
 10
3.649829711404429
 20
401.5219179101081
 30
0.0
 10
4.134521119040945
 20
401.4056153565724
 30
0.0
 10
5.575271541936488
 20
401.0481525370505
 30
0.0
 10
6.518093880954923
 20
400.7986331653173
 30
0.0
 10
9.304014379833747
 20
400.0598733241594
 30
0.0
 10
11.10500878047033
 20
399.5793226241071
 30
0.0
 10
13.30634140191833
 20
399.11945753143
 30
0.0
 10
13.74499596443746
 20
399.0344767599622
 30
0.0
 10
14.608768879527
 20
398.8840847020494
 30
0.0
 10
15.0347392141883
 20
398.8184602485128
 30
0.0
 10
16.29517528034502
 20
398.6556627092846
 30
0.0
 10
17.1121918698382
 20
398.5920390919268
 30
0.0
 10
17.90628985851444
 20
398.5920386557832
 30
0.0
  0
LINE
  5
95
330
1F
100
AcDbEntity
  8
0
  6
Continuous
 62
     7
370
    15
100
AcDbLine
 10
-30.0547721471
 20
402.5920382982
 30
0.0
 11
-4.3647530164
 21
402.5920382982
 31
0.0
  0
LINE
  5
96
330
1F
100
AcDbEntity
  8
0
  6
Continuous
 62
     7
370
    15
100
AcDbLine
 10
-30.0547721471
 20
398.5920376425
 30
0.0
 11
-42.0447530831
 21
398.5920376425
 31
0.0
  0
LINE
  5
97
330
1F
100
AcDbEntity
  8
0
  6
Continuous
 62
     7
370
    15
100
AcDbLine
 10
30.6352434074
 20
398.5920376425
 30
0.0
 11
30.6352434074
 21
524.5920396691
 31
0.0
  0
LINE
  5
98
330
1F
100
AcDbEntity
  8
0
  6
Continuous
 62
     7
370
    15
100
AcDbLine
 10
30.6352434074
 20
398.5920376425
 30
0.0
 11
21.2393013154
 21
398.5920376425
 31
0.0
  0
LINE
  5
99
330
1F
100
AcDbEntity
  8
0
  6
Continuous
 62
     7
370
    15
100
AcDbLine
 10
2.3075995361
 20
408.5920392816
 30
0.0
 11
2.3075995361
 21
514.5920380299
 31
0.0
  0
SPLINE
  5
9A
330
1F
100
AcDbEntity
  8
0
  6
Continuous
 62
     7
370
    15
100
AcDbSpline
210
0.0
220
0.0
230
1.0
 70
     8
 71
     3
 72
    34
 73
    30
 74
     0
 42
0.00000001
 43
0.00000001
 12
1.0
 22
0.0
 32
0.0
 13
1.0
 23
0.0
 33
0.0
 40
0.0
 40
0.0
 40
0.0
 40
0.0
 40
0.1249999999999944
 40
0.1249999999999944
 40
0.2499999999999888
 40
0.2499999999999888
 40
0.312499999999986
 40
0.312499999999986
 40
0.3749999999999831
 40
0.3749999999999831
 40
0.4999999999999835
 40
0.4999999999999835
 40
0.6249999999999839
 40
0.6249999999999839
 40
0.6874999999999867
 40
0.6874999999999867
 40
0.7499999999999893
 40
0.7499999999999893
 40
0.8124999999999921
 40
0.8124999999999921
 40
0.8749999999999949
 40
0.8749999999999949
 40
0.9062499999999962
 40
0.9062499999999962
 40
0.9374999999999974
 40
0.9374999999999974
 40
0.9687499999999988
 40
0.9687499999999988
 40
1.0
 40
1.0
 40
1.0
 40
1.0
 10
21.23930794236573
 20
524.5920386557809
 30
0.0
 10
20.51055536554364
 20
524.5920386557809
 30
0.0
 10
19.75926626126656
 20
524.5084169396017
 30
0.0
 10
18.21149765897873
 20
524.2178231282087
 30
0.0
 10
17.41503255589777
 20
524.0103610889207
 30
0.0
 10
16.18612051266533
 20
523.6234684637574
 30
0.0
 10
15.77141980848412
 20
523.4819036786389
 30
0.0
 10
14.94154043982188
 20
523.1795470940593
 30
0.0
 10
14.52500509294724
 20
523.0183360289383
 30
0.0
 10
13.27036845159835
 20
522.507740079564
 30
0.0
 10
12.42717138217991
 20
522.1316905679234
 30
0.0
 10
10.72736839772859
 20
521.3170661384123
 30
0.0
 10
9.870667869307681
 20
520.878653235315
 30
0.0
 10
8.577938634294124
 20
520.1722474064532
 30
0.0
 10
8.145362251503919
 20
519.9282881140551
 30
0.0
 10
7.284611251385076
 20
519.4249799500413
 30
0.0
 10
6.855758662538847
 20
519.1653606112017
 30
0.0
 10
6.003917866651776
 20
518.625735726158
 30
0.0
 10
5.580636437412966
 20
518.3457561768006
 30
0.0
 10
4.749862243631164
 20
517.7579328613926
 30
0.0
 10
4.340223782576979
 20
517.4494257617099
 30
0.0
 10
3.755631161370621
 20
516.9508220724217
 30
0.0
 10
3.565975526695631
 20
516.7786652645021
 30
0.0
 10
3.203602231358738
 20
516.4156423574958
 30
0.0
 10
3.030617616696041
 20
516.2250573263999
 30
0.0
 10
2.715371605102435
 20
515.8107505137585
 30
0.0
 10
2.575814052692305
 20
515.5910220319709
 30
0.0
 10
2.369174944590713
 20
515.1097683397829
 30
0.0
 10
2.307590434941553
 20
514.856392851694
 30
0.0
 10
2.307590434941553
 20
514.5920386557809
 30
0.0
  0
LINE
  5
9B
330
1F
100
AcDbEntity
  8
0
  6
Continuous
 62
     7
370
    15
100
AcDbLine
 10
21.2393013154
 20
524.5920396691
 30
0.0
 11
30.6352434074
 21
524.5920396691
 31
0.0
  0
LINE
  5
9C
330
1F
100
AcDbEntity
  8
0
  6
Continuous
 62
     7
370
    15
100
AcDbLine
 10
-42.0447530831
 20
408.5920392816
 30
0.0
 11
-42.0447530831
 21
514.5920380299
 31
0.0
  0
SPLINE
  5
9D
330
1F
100
AcDbEntity
  8
0
  6
Continuous
 62
     7
370
    15
100
AcDbSpline
210
0.0
220
0.0
230
1.0
 70
     8
 71
     3
 72
    24
 73
    20
 74
     0
 42
0.00000001
 43
0.00000001
 12
1.0
 22
0.0
 32
0.0
 13
1.0
 23
0.0
 33
0.0
 40
0.0
 40
0.0
 40
0.0
 40
0.0
 40
0.1250000000000068
 40
0.1250000000000068
 40
0.2500000000000136
 40
0.2500000000000136
 40
0.5000000000000261
 40
0.5000000000000261
 40
0.5625000000000261
 40
0.5625000000000261
 40
0.625000000000026
 40
0.625000000000026
 40
0.7500000000000195
 40
0.7500000000000195
 40
0.8750000000000132
 40
0.8750000000000132
 40
0.9375000000000066
 40
0.9375000000000066
 40
1.0
 40
1.0
 40
1.0
 40
1.0
 10
17.90629027850365
 20
524.592038655779
 30
0.0
 10
17.11815614074336
 20
524.592038245432
 30
0.0
 10
16.30113870037675
 20
524.5291831983463
 30
0.0
 10
14.60872686287856
 20
524.3105950745856
 30
0.0
 10
13.74876217199639
 20
524.1568573031703
 30
0.0
 10
11.12852895856137
 20
523.6100362334462
 30
0.0
 10
9.326603401971944
 20
523.1302012741351
 30
0.0
 10
6.984898307453857
 20
522.509227787076
 30
0.0
 10
6.511073221867447
 20
522.3837581071722
 30
0.0
 10
5.559937907487988
 20
522.1359630433498
 30
0.0
 10
5.082362077108272
 20
522.0135624821543
 30
0.0
 10
3.642722049655989
 20
521.6565791613872
 30
0.0
 10
2.67379424628239
 20
521.43203874741
 30
0.0
 10
0.7117383861305893
 20
521.0444280335238
 30
0.0
 10
-0.2814286889281092
 20
520.8816048043091
 30
0.0
 10
-1.794600353224041
 20
520.711687218839
 30
0.0
 10
-2.302900010574371
 20
520.6674350572187
 30
0.0
 10
-3.328123078043754
 20
520.6075813881052
 30
0.0
 10
-3.847688432970342
 20
520.5920386557809
 30
0.0
 10
-4.364759520422368
 20
520.5920386557809
 30
0.0
  0
LINE
  5
9E
330
1F
100
AcDbEntity
  8
0
  6
Continuous
 62
     7
370
    15
100
AcDbLine
 10
17.9062840854
 20
524.5920396691
 30
0.0
 11
21.2393013154
 21
524.5920396691
 31
0.0
  0
LINE
  5
9F
330
1F
100
AcDbEntity
  8
0
  6
Continuous
 62
     7
370
    15
100
AcDbLine
 10
-42.0447530831
 20
524.5920396691
 30
0.0
 11
-30.0547721471
 21
524.5920396691
 31
0.0
  0
LINE
  5
A0
330
1F
100
AcDbEntity
  8
0
  6
Continuous
 62
     7
370
    15
100
AcDbLine
 10
-4.3647530164
 20
520.5920390134
 30
0.0
 11
-30.0547721471
 21
520.5920390134
 31
0.0
  0
LINE
  5
A1
330
1F
100
AcDbEntity
  8
0
  6
Continuous
 62
     7
370
    15
100
AcDbLine
 10
-42.0447530831
 20
514.5920380299
 30
0.0
 11
-42.0447530831
 21
524.5920396691
 31
0.0
  0
LINE
  5
A2
330
1F
100
AcDbEntity
  8
0
  6
Continuous
 62
     7
370
    15
100
AcDbLine
 10
68.4706774865
 20
454.0920388234
 30
0.0
 11
54.2545226728
 21
454.0920388234
 31
0.0
  0
ELLIPSE
  5
A3
330
1F
100
AcDbEntity
  8
0
  6
Continuous
 62
     7
370
    15
100
AcDbEllipse
 10
26.6774627018
 20
461.5920386558
 30
0.0
 11
0.0
 21
62.5
 31
0.0
210
0.0
220
0.0
230
1.0
 40
0.4444444444
 41
4.592099097989908
 42
4.832678862779485
  0
LINE
  5
A4
330
1F
100
AcDbEntity
  8
0
  6
Continuous
 62
     7
370
    15
100
AcDbLine
 10
68.841418377
 20
469.0920384881
 30
0.0
 11
54.2545226728
 21
469.0920384881
 31
0.0
  0
ELLIPSE
  5
A5
330
1F
100
AcDbEntity
  8
0
  6
Continuous
 62
     7
370
    15
100
AcDbEllipse
 10
515.2330182574
 20
461.5920386558
 30
0.0
 11
0.0
 21
62.5
 31
0.0
210
0.0
220
0.0
230
1.0
 40
0.4444444444
 41
1.450506444400109
 42
1.691086209189684
  0
LINE
  5
A6
330
1F
100
AcDbEntity
  8
0
  6
Continuous
 62
     7
370
    15
100
AcDbLine
 10
473.0690625821
 20
469.0920384881
 30
0.0
 11
487.6559582864
 21
469.0920384881
 31
0.0
  0
LINE
  5
A7
330
1F
100
AcDbEntity
  8
0
  6
Continuous
 62
     7
370
    15
100
AcDbLine
 10
473.4398034726
 20
454.0920388234
 30
0.0
 11
487.6559582864
 21
454.0920388234
 31
0.0
  0
LINE
  5
A8
330
1F
100
AcDbEntity
  8
0
  6
Continuous
 62
     7
370
    15
100
AcDbLine
 10
-4.3647530164
 20
387.5920377021
 30
0.0
 11
30.6352434074
 21
387.5920377021
 31
0.0
  0
LINE
  5
A9
330
1F
100
AcDbEntity
  8
0
  6
Continuous
 62
     7
370
    15
100
AcDbLine
 10
30.6352434074
 20
398.5920376425
 30
0.0
 11
30.6352434074
 21
387.5920377021
 31
0.0
  0
LINE
  5
AA
330
1F
100
AcDbEntity
  8
0
  6
Continuous
 62
     7
370
    15
100
AcDbLine
 10
-30.0547721471
 20
387.5920377021
 30
0.0
 11
-4.3647530164
 21
387.5920377021
 31
0.0
  0
LINE
  5
AB
330
1F
100
AcDbEntity
  8
0
  6
Continuous
 62
     7
370
    15
100
AcDbLine
 10
-30.0547721471
 20
402.5920382982
 30
0.0
 11
-30.0547721471
 21
387.5920377021
 31
0.0
  0
LINE
  5
AC
330
1F
100
AcDbEntity
  8
0
  6
Continuous
 62
     7
370
    15
100
AcDbLine
 10
-4.3647530164
 20
535.5920396095
 30
0.0
 11
30.6352434074
 21
535.5920396095
 31
0.0
  0
LINE
  5
AD
330
1F
100
AcDbEntity
  8
0
  6
Continuous
 62
     7
370
    15
100
AcDbLine
 10
30.6352434074
 20
535.5920396095
 30
0.0
 11
30.6352434074
 21
524.5920396691
 31
0.0
  0
LINE
  5
AE
330
1F
100
AcDbEntity
  8
0
  6
Continuous
 62
     7
370
    15
100
AcDbLine
 10
-30.0547721471
 20
535.5920396095
 30
0.0
 11
-4.3647530164
 21
535.5920396095
 31
0.0
  0
LINE
  5
AF
330
1F
100
AcDbEntity
  8
0
  6
Continuous
 62
     7
370
    15
100
AcDbLine
 10
-30.0547721471
 20
535.5920396095
 30
0.0
 11
-30.0547721471
 21
520.5920390134
 31
0.0
  0
LINE
  5
B0
330
1F
100
AcDbEntity
  8
0
  6
Continuous
 62
     7
370
    15
100
AcDbLine
 10
-24.0047516908
 20
383.5920370465
 30
0.0
 11
-19.0047564591
 21
383.5920370465
 31
0.0
  0
LINE
  5
B1
330
1F
100
AcDbEntity
  8
0
  6
Continuous
 62
     7
370
    15
100
AcDbLine
 10
-24.0047516908
 20
387.5920377021
 30
0.0
 11
-24.0047516908
 21
383.5920370465
 31
0.0
  0
LINE
  5
B2
330
1F
100
AcDbEntity
  8
0
  6
Continuous
 62
     7
370
    15
100
AcDbLine
 10
-19.0047564591
 20
387.5920377021
 30
0.0
 11
-19.0047564591
 21
383.5920370465
 31
0.0
  0
LINE
  5
B3
330
1F
100
AcDbEntity
  8
0
  6
Continuous
 62
     7
370
    15
100
AcDbLine
 10
-29.0047469224
 20
383.5920370465
 30
0.0
 11
-24.0047516908
 21
383.5920370465
 31
0.0
  0
LINE
  5
B4
330
1F
100
AcDbEntity
  8
0
  6
Continuous
 62
     7
370
    15
100
AcDbLine
 10
-29.0047469224
 20
387.5920377021
 30
0.0
 11
-29.0047469224
 21
383.5920370465
 31
0.0
  0
LINE
  5
B5
330
1F
100
AcDbEntity
  8
0
  6
Continuous
 62
     7
370
    15
100
AcDbLine
 10
-24.0047516908
 20
539.5920402651
 30
0.0
 11
-24.0047516908
 21
535.5920396095
 31
0.0
  0
LINE
  5
B6
330
1F
100
AcDbEntity
  8
0
  6
Continuous
 62
     7
370
    15
100
AcDbLine
 10
-24.0047516908
 20
539.5920402651
 30
0.0
 11
-19.0047564591
 21
539.5920402651
 31
0.0
  0
LINE
  5
B7
330
1F
100
AcDbEntity
  8
0
  6
Continuous
 62
     7
370
    15
100
AcDbLine
 10
-19.0047564591
 20
539.5920402651
 30
0.0
 11
-19.0047564591
 21
535.5920396095
 31
0.0
  0
LINE
  5
B8
330
1F
100
AcDbEntity
  8
0
  6
Continuous
 62
     7
370
    15
100
AcDbLine
 10
-29.0047469224
 20
539.5920402651
 30
0.0
 11
-29.0047469224
 21
535.5920396095
 31
0.0
  0
LINE
  5
B9
330
1F
100
AcDbEntity
  8
0
  6
Continuous
 62
     7
370
    15
100
AcDbLine
 10
-29.0047469224
 20
539.5920402651
 30
0.0
 11
-24.0047516908
 21
539.5920402651
 31
0.0
  0
LINE
  5
BA
330
1F
100
AcDbEntity
  8
0
  6
Continuous
 62
     7
370
    15
100
AcDbLine
 10
15.9500596439
 20
383.5920370465
 30
0.0
 11
20.3318653022
 21
383.5920370465
 31
0.0
  0
LINE
  5
BB
330
1F
100
AcDbEntity
  8
0
  6
Continuous
 62
     7
370
    15
100
AcDbLine
 10
15.9500596439
 20
387.5920377021
 30
0.0
 11
15.9500596439
 21
383.5920370465
 31
0.0
  0
LINE
  5
BC
330
1F
100
AcDbEntity
  8
0
  6
Continuous
 62
     7
370
    15
100
AcDbLine
 10
20.3318653022
 20
387.5920377021
 30
0.0
 11
20.3318653022
 21
383.5920370465
 31
0.0
  0
LINE
  5
BD
330
1F
100
AcDbEntity
  8
0
  6
Continuous
 62
     7
370
    15
100
AcDbLine
 10
10.5034170066
 20
387.5920377021
 30
0.0
 11
10.5034170066
 21
383.5920370465
 31
0.0
  0
LINE
  5
BE
330
1F
100
AcDbEntity
  8
0
  6
Continuous
 62
     7
370
    15
100
AcDbLine
 10
10.5034170066
 20
383.5920370465
 30
0.0
 11
15.9500596439
 21
383.5920370465
 31
0.0
  0
LINE
  5
BF
330
1F
100
AcDbEntity
  8
0
  6
Continuous
 62
     7
370
    15
100
AcDbLine
 10
10.5034170066
 20
539.5920402651
 30
0.0
 11
10.5034170066
 21
535.5920396095
 31
0.0
  0
LINE
  5
C0
330
1F
100
AcDbEntity
  8
0
  6
Continuous
 62
     7
370
    15
100
AcDbLine
 10
10.5034170066
 20
539.5920402651
 30
0.0
 11
15.9500596439
 21
539.5920402651
 31
0.0
  0
LINE
  5
C1
330
1F
100
AcDbEntity
  8
0
  6
Continuous
 62
     7
370
    15
100
AcDbLine
 10
15.9500596439
 20
539.5920402651
 30
0.0
 11
15.9500596439
 21
535.5920396095
 31
0.0
  0
LINE
  5
C2
330
1F
100
AcDbEntity
  8
0
  6
Continuous
 62
     7
370
    15
100
AcDbLine
 10
15.9500596439
 20
539.5920402651
 30
0.0
 11
20.3318653022
 21
539.5920402651
 31
0.0
  0
LINE
  5
C3
330
1F
100
AcDbEntity
  8
0
  6
Continuous
 62
     7
370
    15
100
AcDbLine
 10
20.3318653022
 20
539.5920402651
 30
0.0
 11
20.3318653022
 21
535.5920396095
 31
0.0
  0
LINE
  5
C4
330
1F
100
AcDbEntity
  8
0
  6
Continuous
 62
     7
370
    15
100
AcDbLine
 10
9.43860983
 20
387.5920377021
 30
0.0
 11
9.43860983
 21
383.5920370465
 31
0.0
  0
LINE
  5
C5
330
1F
100
AcDbEntity
  8
0
  6
Continuous
 62
     7
370
    15
100
AcDbLine
 10
9.43860983
 20
383.5920370465
 30
0.0
 11
10.5034170066
 21
383.5920370465
 31
0.0
  0
LINE
  5
C6
330
1F
100
AcDbEntity
  8
0
  6
Continuous
 62
     7
370
    15
100
AcDbLine
 10
9.43860983
 20
539.5920402651
 30
0.0
 11
9.43860983
 21
535.5920396095
 31
0.0
  0
LINE
  5
C7
330
1F
100
AcDbEntity
  8
0
  6
Continuous
 62
     7
370
    15
100
AcDbLine
 10
9.43860983
 20
539.5920402651
 30
0.0
 11
10.5034170066
 21
539.5920402651
 31
0.0
  0
LINE
  5
C8
330
1F
100
AcDbEntity
  8
0
  6
Continuous
 62
     7
370
    15
100
AcDbLine
 10
-13.5447623814
 20
639.5920417552
 30
0.0
 11
6.4552483474
 21
639.5920417552
 31
0.0
  0
LINE
  5
C9
330
1F
100
AcDbEntity
  8
0
  6
Continuous
 62
     7
370
    15
100
AcDbLine
 10
36.9552431022
 20
524.5920396691
 30
0.0
 11
36.9552431022
 21
398.5920376425
 31
0.0
  0
LINE
  5
CA
330
1F
100
AcDbEntity
  8
0
  6
Continuous
 62
     7
370
    15
100
AcDbLine
 10
30.6352434074
 20
524.5920396691
 30
0.0
 11
36.9552431022
 21
524.5920396691
 31
0.0
  0
LINE
  5
CB
330
1F
100
AcDbEntity
  8
0
  6
Continuous
 62
     7
370
    15
100
AcDbLine
 10
36.9552431022
 20
398.5920376425
 30
0.0
 11
30.6352434074
 21
398.5920376425
 31
0.0
  0
LINE
  5
CC
330
1F
100
AcDbEntity
  8
0
  6
Continuous
 62
     7
370
    15
100
AcDbLine
 10
531.9552478706
 20
524.0920386558
 30
0.0
 11
531.9552478706
 21
399.0920386558
 31
0.0
  0
LINE
  5
CD
330
1F
100
AcDbEntity
  8
0
  6
Continuous
 62
     7
370
    15
100
AcDbLine
 10
487.4552396451
 20
524.0920386558
 30
0.0
 11
487.4552396451
 21
469.0920384881
 31
0.0
  0
LINE
  5
CE
330
1F
100
AcDbEntity
  8
0
  6
Continuous
 62
     7
370
    15
100
AcDbLine
 10
487.4552396451
 20
454.0920388234
 30
0.0
 11
487.4552396451
 21
399.0920386558
 31
0.0
  0
LINE
  5
CF
330
1F
100
AcDbEntity
  8
0
  6
Continuous
 62
     7
370
    15
100
AcDbLine
 10
54.455241314
 20
524.0920386558
 30
0.0
 11
54.455241314
 21
469.0920384881
 31
0.0
  0
LINE
  5
D0
330
1F
100
AcDbEntity
  8
0
  6
Continuous
 62
     7
370
    15
100
AcDbLine
 10
54.455241314
 20
454.0920388234
 30
0.0
 11
54.455241314
 21
399.0920386558
 31
0.0
  0
SPLINE
  5
D1
330
1F
100
AcDbEntity
  8
0
  6
Continuous
 62
     7
370
    15
100
AcDbSpline
210
0.0
220
0.0
230
1.0
 70
     8
 71
     3
 72
     9
 73
     5
 74
     0
 42
0.00000001
 43
0.00000001
 12
1.0
 22
0.0
 32
0.0
 13
1.0
 23
0.0
 33
0.0
 40
0.0
 40
0.0
 40
0.0
 40
0.0
 40
0.5123579302795618
 40
1.0
 40
1.0
 40
1.0
 40
1.0
 10
487.4552396451126
 20
423.1671444421041
 30
0.0
 10
484.8104211292147
 20
424.7242280651806
 30
0.0
 10
479.6483686662914
 20
427.7632824665183
 30
0.0
 10
474.4996726800703
 20
430.8249096904236
 30
0.0
 10
471.9889519129882
 20
432.3178879266012
 30
0.0
  0
SPLINE
  5
D2
330
1F
100
AcDbEntity
  8
0
  6
Continuous
 62
     7
370
    15
100
AcDbSpline
210
0.0
220
0.0
230
1.0
 70
     8
 71
     3
 72
     8
 73
     4
 74
     0
 42
0.00000001
 43
0.00000001
 12
1.0
 22
0.0
 32
0.0
 13
1.0
 23
0.0
 33
0.0
 40
0.0
 40
0.0
 40
0.0
 40
0.0
 40
1.0
 40
1.0
 40
1.0
 40
1.0
 10
54.45524047957756
 20
500.016932930196
 30
0.0
 10
59.74601000796492
 20
496.9046626797272
 30
0.0
 10
65.03131512570678
 20
493.7831406253871
 30
0.0
 10
70.30350536883273
 20
490.6394137523362
 30
0.0
  0
LINE
  5
D3
330
1F
100
AcDbEntity
  8
0
  6
Continuous
 62
     7
370
    15
100
AcDbLine
 10
70.3035054122
 20
490.6394142007
 30
0.0
 11
70.3035054122
 21
483.8891304379
 31
0.0
  0
SPLINE
  5
D4
330
1F
100
AcDbEntity
  8
0
  6
Continuous
 62
     7
370
    15
100
AcDbSpline
210
0.0
220
0.0
230
1.0
 70
     8
 71
     3
 72
     9
 73
     5
 74
     0
 42
0.00000001
 43
0.00000001
 12
1.0
 22
0.0
 32
0.0
 13
1.0
 23
0.0
 33
0.0
 40
0.0
 40
0.0
 40
0.0
 40
0.0
 40
0.4876412461030478
 40
1.0
 40
1.0
 40
1.0
 40
1.0
 10
69.9216184531341
 20
432.3179493938911
 30
0.0
 10
67.41088791626507
 20
430.8249628102527
 30
0.0
 10
62.26216319920427
 20
427.7633132972767
 30
0.0
 10
57.10007988726174
 20
424.7242401651052
 30
0.0
 10
54.45524131404261
 20
423.1671444421041
 30
0.0
  0
LINE
  5
D5
330
1F
100
AcDbEntity
  8
0
  6
Continuous
 62
     7
370
    15
100
AcDbLine
 10
471.6069755469
 20
483.8891304379
 30
0.0
 11
471.6069755469
 21
490.6394142007
 31
0.0
  0
SPLINE
  5
D6
330
1F
100
AcDbEntity
  8
0
  6
Continuous
 62
     7
370
    15
100
AcDbSpline
210
0.0
220
0.0
230
1.0
 70
     8
 71
     3
 72
     8
 73
     4
 74
     0
 42
0.00000001
 43
0.00000001
 12
1.0
 22
0.0
 32
0.0
 13
1.0
 23
0.0
 33
0.0
 40
0.0
 40
0.0
 40
0.0
 40
0.0
 40
1.0
 40
1.0
 40
1.0
 40
1.0
 10
471.6069755903225
 20
490.6394137523362
 30
0.0
 10
476.8791688614245
 20
493.7831424309232
 30
0.0
 10
482.1644732563539
 20
496.9046640357289
 30
0.0
 10
487.4552404795776
 20
500.016932930196
 30
0.0
  0
LINE
  5
D7
330
1F
100
AcDbEntity
  8
0
  6
Continuous
 62
     7
370
    15
100
AcDbLine
 10
-43.0447700108
 20
461.5920386558
 30
0.0
 11
-43.0447700108
 21
498.0920381193
 31
0.0
  0
LINE
  5
D8
330
1F
100
AcDbEntity
  8
0
  6
Continuous
 62
     7
370
    15
100
AcDbLine
 10
-43.0447700108
 20
425.0920391922
 30
0.0
 11
-43.0447700108
 21
461.5920386558
 31
0.0
  0
LINE
  5
D9
330
1F
100
AcDbEntity
  8
0
  6
Continuous
 62
     7
370
    15
100
AcDbLine
 10
36.9552431022
 20
397.8325478082
 30
0.0
 11
36.9552431022
 21
398.5920376425
 31
0.0
  0
LINE
  5
DA
330
1F
100
AcDbEntity
  8
0
  6
Continuous
 62
     7
370
    15
100
AcDbLine
 10
-42.0447530831
 20
397.8325478082
 30
0.0
 11
-42.0447530831
 21
398.5920376425
 31
0.0
  0
LINE
  5
DB
330
1F
100
AcDbEntity
  8
0
  6
Continuous
 62
     7
370
    15
100
AcDbLine
 10
36.9552431022
 20
524.5920396691
 30
0.0
 11
36.9552431022
 21
525.3515295034
 31
0.0
  0
LINE
  5
DC
330
1F
100
AcDbEntity
  8
0
  6
Continuous
 62
     7
370
    15
100
AcDbLine
 10
-42.0447530831
 20
524.5920396691
 30
0.0
 11
-42.0447530831
 21
525.3515295034
 31
0.0
  0
LINE
  5
DD
330
1F
100
AcDbEntity
  8
0
  6
Continuous
 62
     7
370
    15
100
AcDbLine
 10
70.3035054122
 20
490.6394142007
 30
0.0
 11
71.3380483304
 21
490.6394142007
 31
0.0
  0
LINE
  5
DE
330
1F
100
AcDbEntity
  8
0
  6
Continuous
 62
     7
370
    15
100
AcDbLine
 10
90.3624800359
 20
490.6394142007
 30
0.0
 11
108.6443272744
 21
490.6394142007
 31
0.0
  0
LINE
  5
DF
330
1F
100
AcDbEntity
  8
0
  6
Continuous
 62
     7
370
    15
100
AcDbLine
 10
433.2661536847
 20
490.6394142007
 30
0.0
 11
451.5480009233
 21
490.6394142007
 31
0.0
  0
LINE
  5
E0
330
1F
100
AcDbEntity
  8
0
  6
Continuous
 62
     7
370
    15
100
AcDbLine
 10
470.5724326287
 20
490.6394142007
 30
0.0
 11
471.6069755469
 21
490.6394142007
 31
0.0
  0
LINE
  5
E1
330
1F
100
AcDbEntity
  8
0
  6
Continuous
 62
     7
370
    15
100
AcDbLine
 10
36.9552431022
 20
392.5920403843
 30
0.0
 11
36.9552431022
 21
397.8325478082
 31
0.0
  0
LINE
  5
E2
330
1F
100
AcDbEntity
  8
0
  6
Continuous
 62
     7
370
    15
100
AcDbLine
 10
-42.0447530831
 20
392.5920403843
 30
0.0
 11
-42.0447530831
 21
397.8325478082
 31
0.0
  0
LINE
  5
E3
330
1F
100
AcDbEntity
  8
0
  6
Continuous
 62
     7
370
    15
100
AcDbLine
 10
36.9552431022
 20
525.3515295034
 30
0.0
 11
36.9552431022
 21
530.5920369272
 31
0.0
  0
LINE
  5
E4
330
1F
100
AcDbEntity
  8
0
  6
Continuous
 62
     7
370
    15
100
AcDbLine
 10
-42.0447530831
 20
525.3515295034
 30
0.0
 11
-42.0447530831
 21
530.5920369272
 31
0.0
  0
LINE
  5
E5
330
1F
100
AcDbEntity
  8
0
  6
Continuous
 62
     7
370
    15
100
AcDbLine
 10
54.455241314
 20
504.0920391028
 30
0.0
 11
74.1050449525
 21
504.0920391028
 31
0.0
  0
LINE
  5
E6
330
1F
100
AcDbEntity
  8
0
  6
Continuous
 62
     7
370
    15
100
AcDbLine
 10
84.5847037946
 20
504.0920391028
 30
0.0
 11
114.4221035157
 21
504.0920391028
 31
0.0
  0
LINE
  5
E7
330
1F
100
AcDbEntity
  8
0
  6
Continuous
 62
     7
370
    15
100
AcDbLine
 10
487.4552396451
 20
504.0920391028
 30
0.0
 11
467.8054360067
 21
504.0920391028
 31
0.0
  0
LINE
  5
E8
330
1F
100
AcDbEntity
  8
0
  6
Continuous
 62
     7
370
    15
100
AcDbLine
 10
457.3257771646
 20
504.0920391028
 30
0.0
 11
427.4883774434
 21
504.0920391028
 31
0.0
  0
LINE
  5
E9
330
1F
100
AcDbEntity
  8
0
  6
Continuous
 62
     7
370
    15
100
AcDbLine
 10
487.4552396451
 20
419.0920382087
 30
0.0
 11
469.952723137
 21
419.0920382087
 31
0.0
  0
LINE
  5
EA
330
1F
100
AcDbEntity
  8
0
  6
Continuous
 62
     7
370
    15
100
AcDbLine
 10
454.8070785915
 20
419.0920382087
 30
0.0
 11
430.0070760165
 21
419.0920382087
 31
0.0
  0
LINE
  5
EB
330
1F
100
AcDbEntity
  8
0
  6
Continuous
 62
     7
370
    15
100
AcDbLine
 10
54.455241314
 20
419.0920382087
 30
0.0
 11
71.9577578221
 21
419.0920382087
 31
0.0
  0
LINE
  5
EC
330
1F
100
AcDbEntity
  8
0
  6
Continuous
 62
     7
370
    15
100
AcDbLine
 10
87.1034023677
 20
419.0920382087
 30
0.0
 11
111.9034049426
 21
419.0920382087
 31
0.0
  0
LINE
  5
ED
330
1F
100
AcDbEntity
  8
0
  6
Continuous
 62
     8
370
     0
100
AcDbLine
 10
-42.0447530831
 20
408.5920392816
 30
0.0
 11
2.3075995361
 21
408.5920392816
 31
0.0
  0
LINE
  5
EE
330
1F
100
AcDbEntity
  8
0
  6
Continuous
 62
     8
370
     0
100
AcDbLine
 10
2.3075995361
 20
514.5920380299
 30
0.0
 11
-42.0447530831
 21
514.5920380299
 31
0.0
  0
LINE
  5
EF
330
1F
100
AcDbEntity
  8
0
  6
Continuous
 62
     8
370
     0
100
AcDbLine
 10
-4.3647530164
 20
402.5920382982
 30
0.0
 11
-4.3647530164
 21
387.5920377021
 31
0.0
  0
LINE
  5
F0
330
1F
100
AcDbEntity
  8
0
  6
Continuous
 62
     8
370
     0
100
AcDbLine
 10
-4.3647530164
 20
535.5920396095
 30
0.0
 11
-4.3647530164
 21
520.5920390134
 31
0.0
  0
LINE
  5
F1
330
1F
100
AcDbEntity
  8
0
  6
Continuous
 62
     8
370
     0
100
AcDbLine
 10
-42.0447530831
 20
397.8325478082
 30
0.0
 11
-30.0547721471
 21
397.8325478082
 31
0.0
  0
LINE
  5
F2
330
1F
100
AcDbEntity
  8
0
  6
Continuous
 62
     8
370
     0
100
AcDbLine
 10
30.6352434074
 20
397.8325478082
 30
0.0
 11
36.9552431022
 21
397.8325478082
 31
0.0
  0
LINE
  5
F3
330
1F
100
AcDbEntity
  8
0
  6
Continuous
 62
     8
370
     0
100
AcDbLine
 10
-42.0447530831
 20
525.3515295034
 30
0.0
 11
-30.0547721471
 21
525.3515295034
 31
0.0
  0
LINE
  5
F4
330
1F
100
AcDbEntity
  8
0
  6
Continuous
 62
     8
370
     0
100
AcDbLine
 10
30.6352434074
 20
525.3515295034
 30
0.0
 11
36.9552431022
 21
525.3515295034
 31
0.0
  0
INSERT
  5
14D
330
1F
100
AcDbEntity
  8
FORMAT
 62
     7
100
AcDbBlockReference
  2
SW_CENTERMARKSYMBOL_0
 10
396.4666941402
 20
582.1034923164
 30
0.0
  0
LINE
  5
14E
330
1F
100
AcDbEntity
  8
FORMAT
  6
CENTERX2
 62
     7
370
     0
100
AcDbLine
 10
469.4124254283
 20
461.5920386558
 30
0.0
 11
538.2037547332
 21
461.5920386558
 31
0.0
  0
LINE
  5
14F
330
1F
100
AcDbEntity
  8
FORMAT
  6
CENTERX2
 62
     7
370
     0
100
AcDbLine
 10
74.9507523254
 20
461.5920386558
 30
0.0
 11
-54.7949194016
 21
461.5920386558
 31
0.0
  0
LINE
  5
150
330
1F
100
AcDbEntity
  8
0
  6
Continuous
 62
     7
370
    15
100
AcDbLine
 10
785.3853365973
 20
535.5920396095
 30
0.0
 11
785.3853365973
 21
639.5920417552
 31
0.0
  0
LINE
  5
151
330
1F
100
AcDbEntity
  8
0
  6
Continuous
 62
     7
370
    15
100
AcDbLine
 10
765.3853370443
 20
639.5920417552
 30
0.0
 11
765.3853370443
 21
535.5920396095
 31
0.0
  0
LINE
  5
152
330
1F
100
AcDbEntity
  8
0
  6
Continuous
 62
     7
370
    15
100
AcDbLine
 10
579.3853363589
 20
297.0920405631
 30
0.0
 11
582.3853349879
 21
297.0920405631
 31
0.0
  0
LINE
  5
153
330
1F
100
AcDbEntity
  8
0
  6
Continuous
 62
     7
370
    15
100
AcDbLine
 10
582.3853349879
 20
616.092031384
 30
0.0
 11
579.3853363589
 21
616.092031384
 31
0.0
  0
LINE
  5
154
330
1F
100
AcDbEntity
  8
0
  6
Continuous
 62
     7
370
    15
100
AcDbLine
 10
826.3853377298
 20
297.0920405631
 30
0.0
 11
829.3853363589
 21
297.0920405631
 31
0.0
  0
LINE
  5
155
330
1F
100
AcDbEntity
  8
0
  6
Continuous
 62
     7
370
    15
100
AcDbLine
 10
829.3853363589
 20
616.092031384
 30
0.0
 11
826.3853377298
 21
616.092031384
 31
0.0
  0
LINE
  5
156
330
1F
100
AcDbEntity
  8
0
  6
Continuous
 62
     7
370
    15
100
AcDbLine
 10
601.3853362396
 20
308.5920415168
 30
0.0
 11
637.1025404528
 21
321.5920380597
 31
0.0
  0
LINE
  5
157
330
1F
100
AcDbEntity
  8
0
  6
Continuous
 62
     7
370
    15
100
AcDbLine
 10
771.6681322649
 20
321.5920380597
 30
0.0
 11
807.3853364781
 21
308.5920415168
 31
0.0
  0
LINE
  5
158
330
1F
100
AcDbEntity
  8
0
  6
Continuous
 62
     7
370
    15
100
AcDbLine
 10
637.1025404528
 20
591.5920338874
 30
0.0
 11
601.3853362396
 21
604.5920453315
 31
0.0
  0
LINE
  5
159
330
1F
100
AcDbEntity
  8
0
  6
Continuous
 62
     7
370
    15
100
AcDbLine
 10
807.3853364781
 20
604.5920453315
 30
0.0
 11
785.3853365973
 21
596.5846977477
 31
0.0
  0
LINE
  5
15A
330
1F
100
AcDbEntity
  8
0
  6
Continuous
 62
     7
370
    15
100
AcDbLine
 10
686.0625593558
 20
591.5920338874
 30
0.0
 11
637.1025404528
 21
591.5920338874
 31
0.0
  0
LINE
  5
15B
330
1F
100
AcDbEntity
  8
0
  6
Continuous
 62
     7
370
    15
100
AcDbLine
 10
765.3853370443
 20
591.5920338874
 30
0.0
 11
722.7114288703
 21
591.5920338874
 31
0.0
  0
LINE
  5
15C
330
1F
100
AcDbEntity
  8
0
  6
Continuous
 62
     7
370
    15
100
AcDbLine
 10
722.7114288703
 20
321.5920380597
 30
0.0
 11
771.6681322649
 21
321.5920380597
 31
0.0
  0
LINE
  5
15D
330
1F
100
AcDbEntity
  8
0
  6
Continuous
 62
     7
370
    15
100
AcDbLine
 10
637.1025404528
 20
321.5920380597
 30
0.0
 11
686.0625593558
 21
321.5920380597
 31
0.0
  0
LINE
  5
15E
330
1F
100
AcDbEntity
  8
0
  6
Continuous
 62
     7
370
    15
100
AcDbLine
 10
686.0473434076
 20
321.5937218909
 30
0.0
 11
686.8853362843
 21
289.5920328145
 31
0.0
  0
LINE
  5
15F
330
1F
100
AcDbEntity
  8
0
  6
Continuous
 62
     7
370
    15
100
AcDbLine
 10
721.8853364334
 20
289.5920328145
 30
0.0
 11
722.7233199969
 21
321.5933493619
 31
0.0
  0
LINE
  5
160
330
1F
100
AcDbEntity
  8
0
  6
Continuous
 62
     7
370
    15
100
AcDbLine
 10
722.7233199969
 20
591.5907225852
 30
0.0
 11
721.8853364334
 21
623.5920391326
 31
0.0
  0
LINE
  5
161
330
1F
100
AcDbEntity
  8
0
  6
Continuous
 62
     7
370
    15
100
AcDbLine
 10
686.8853362843
 20
623.5920391326
 30
0.0
 11
686.0473434076
 21
591.5903649574
 31
0.0
  0
CIRCLE
  5
162
330
1F
100
AcDbEntity
  8
0
  6
Continuous
 62
     7
370
    15
100
AcDbCircle
 10
704.3853363589
 20
461.5920386558
 30
0.0
 40
36.5
  0
ARC
  5
163
330
1F
100
AcDbEntity
  8
0
  6
Continuous
 62
     7
370
    15
100
AcDbCircle
 10
799.3853363589
 20
408.5920386558
 30
0.0
 40
10.0
100
AcDbArc
 50
270.0
 51
0.0
  0
LINE
  5
164
330
1F
100
AcDbEntity
  8
0
  6
Continuous
 62
     7
370
    15
100
AcDbLine
 10
734.5846741095
 20
398.5920376425
 30
0.0
 11
799.3853351668
 21
398.5920376425
 31
0.0
  0
ARC
  5
165
330
1F
100
AcDbEntity
  8
0
  6
Continuous
 62
     7
370
    15
100
AcDbCircle
 10
734.5846740999
 20
388.5920386558
 30
0.0
 40
9.999999999999979
100
AcDbArc
 50
90.0
 51
112.4743688205
  0
ARC
  5
166
330
1F
100
AcDbEntity
  8
0
  6
Continuous
 62
     7
370
    15
100
AcDbCircle
 10
704.3853363589
 20
461.5920386558
 30
0.0
 40
69.0
100
AcDbArc
 50
251.672627473
 51
292.4743688205
  0
LINE
  5
167
330
1F
100
AcDbEntity
  8
0
  6
Continuous
 62
     7
370
    15
100
AcDbLine
 10
648.8853356436
 20
396.0920400267
 30
0.0
 11
682.6885620698
 21
396.0920400267
 31
0.0
  0
LINE
  5
168
330
1F
100
AcDbEntity
  8
0
  6
Continuous
 62
     7
370
    15
100
AcDbLine
 10
638.8853377298
 20
439.8952643668
 30
0.0
 11
638.8853377298
 21
406.0920379405
 31
0.0
  0
ARC
  5
169
330
1F
100
AcDbEntity
  8
0
  6
Continuous
 62
     7
370
    15
100
AcDbCircle
 10
704.3853363589
 20
461.5920386558
 30
0.0
 40
69.00000000000009
100
AcDbArc
 50
161.672627473
 51
198.327372527
  0
LINE
  5
16A
330
1F
100
AcDbEntity
  8
0
  6
Continuous
 62
     7
370
    15
100
AcDbLine
 10
638.8853377298
 20
517.092039371
 30
0.0
 11
638.8853377298
 21
483.2888129448
 31
0.0
  0
LINE
  5
16B
330
1F
100
AcDbEntity
  8
0
  6
Continuous
 62
     7
370
    15
100
AcDbLine
 10
682.6885620698
 20
527.0920372849
 30
0.0
 11
648.8853356436
 21
527.0920372849
 31
0.0
  0
ARC
  5
16C
330
1F
100
AcDbEntity
  8
0
  6
Continuous
 62
     7
370
    15
100
AcDbCircle
 10
704.3853363589
 20
461.5920386558
 30
0.0
 40
68.99999999999973
100
AcDbArc
 50
67.5256311795
 51
108.327372527
  0
ARC
  5
16D
330
1F
100
AcDbEntity
  8
0
  6
Continuous
 62
     7
370
    15
100
AcDbCircle
 10
734.5846740999
 20
534.5920386558
 30
0.0
 40
10.00000000000028
100
AcDbArc
 50
247.5256311795
 51
270.0
  0
LINE
  5
16E
330
1F
100
AcDbEntity
  8
0
  6
Continuous
 62
     7
370
    15
100
AcDbLine
 10
799.3853351668
 20
524.5920396691
 30
0.0
 11
734.5846741095
 21
524.5920396691
 31
0.0
  0
ARC
  5
16F
330
1F
100
AcDbEntity
  8
0
  6
Continuous
 62
     7
370
    15
100
AcDbCircle
 10
799.3853363589
 20
514.5920386558
 30
0.0
 40
10.0
100
AcDbArc
 50
0.0
 51
90.0
  0
LINE
  5
170
330
1F
100
AcDbEntity
  8
0
  6
Continuous
 62
     7
370
    15
100
AcDbLine
 10
809.3853330806
 20
408.5920392816
 30
0.0
 11
809.3853330806
 21
514.5920380299
 31
0.0
  0
ARC
  5
171
330
1F
100
AcDbEntity
  8
0
  6
Continuous
 62
     7
370
    15
100
AcDbCircle
 10
648.8853363589
 20
517.0920386558
 30
0.0
 40
10.00000000000011
100
AcDbArc
 50
90.0
 51
180.0
  0
ARC
  5
172
330
1F
100
AcDbEntity
  8
0
  6
Continuous
 62
     7
370
    15
100
AcDbCircle
 10
648.8853363589
 20
406.0920386558
 30
0.0
 40
10.0
100
AcDbArc
 50
180.0
 51
270.0
  0
LINE
  5
173
330
1F
100
AcDbEntity
  8
0
  6
Continuous
 62
     7
370
    15
100
AcDbLine
 10
807.3853364781
 20
402.5920382982
 30
0.0
 11
807.3853364781
 21
387.5920377021
 31
0.0
  0
LINE
  5
174
330
1F
100
AcDbEntity
  8
0
  6
Continuous
 62
     7
370
    15
100
AcDbLine
 10
749.885335435
 20
387.5920377021
 30
0.0
 11
807.3853364781
 21
387.5920377021
 31
0.0
  0
LINE
  5
175
330
1F
100
AcDbEntity
  8
0
  6
Continuous
 62
     7
370
    15
100
AcDbLine
 10
749.885335435
 20
398.5920376425
 30
0.0
 11
749.885335435
 21
387.5920377021
 31
0.0
  0
LINE
  5
176
330
1F
100
AcDbEntity
  8
0
  6
Continuous
 62
     7
370
    15
100
AcDbLine
 10
807.3853364781
 20
535.5920396095
 30
0.0
 11
807.3853364781
 21
520.5920390134
 31
0.0
  0
LINE
  5
177
330
1F
100
AcDbEntity
  8
0
  6
Continuous
 62
     7
370
    15
100
AcDbLine
 10
749.885335435
 20
535.5920396095
 30
0.0
 11
749.885335435
 21
524.5920396691
 31
0.0
  0
LINE
  5
178
330
1F
100
AcDbEntity
  8
0
  6
Continuous
 62
     7
370
    15
100
AcDbLine
 10
749.885335435
 20
535.5920396095
 30
0.0
 11
807.3853364781
 21
535.5920396095
 31
0.0
  0
LINE
  5
179
330
1F
100
AcDbEntity
  8
0
  6
Continuous
 62
     7
370
    15
100
AcDbLine
 10
753.2285860375
 20
539.5920402651
 30
0.0
 11
753.2285860375
 21
535.5920396095
 31
0.0
  0
LINE
  5
17A
330
1F
100
AcDbEntity
  8
0
  6
Continuous
 62
     7
370
    15
100
AcDbLine
 10
753.2285860375
 20
539.5920402651
 30
0.0
 11
759.0020893708
 21
539.5920402651
 31
0.0
  0
LINE
  5
17B
330
1F
100
AcDbEntity
  8
0
  6
Continuous
 62
     7
370
    15
100
AcDbLine
 10
759.0020893708
 20
539.5920402651
 30
0.0
 11
759.0020893708
 21
535.5920396095
 31
0.0
  0
LINE
  5
17C
330
1F
100
AcDbEntity
  8
0
  6
Continuous
 62
     7
370
    15
100
AcDbLine
 10
750.3418325082
 20
387.5920377021
 30
0.0
 11
750.3418325082
 21
383.5920370465
 31
0.0
  0
LINE
  5
17D
330
1F
100
AcDbEntity
  8
0
  6
Continuous
 62
     7
370
    15
100
AcDbLine
 10
753.2285860375
 20
387.5920377021
 30
0.0
 11
753.2285860375
 21
383.5920370465
 31
0.0
  0
LINE
  5
17E
330
1F
100
AcDbEntity
  8
0
  6
Continuous
 62
     7
370
    15
100
AcDbLine
 10
750.3418325082
 20
383.5920370465
 30
0.0
 11
753.2285860375
 21
383.5920370465
 31
0.0
  0
LINE
  5
17F
330
1F
100
AcDbEntity
  8
0
  6
Continuous
 62
     7
370
    15
100
AcDbLine
 10
759.0020893708
 20
387.5920377021
 30
0.0
 11
759.0020893708
 21
383.5920370465
 31
0.0
  0
LINE
  5
180
330
1F
100
AcDbEntity
  8
0
  6
Continuous
 62
     7
370
    15
100
AcDbLine
 10
753.2285860375
 20
383.5920370465
 30
0.0
 11
759.0020893708
 21
383.5920370465
 31
0.0
  0
LINE
  5
181
330
1F
100
AcDbEntity
  8
0
  6
Continuous
 62
     7
370
    15
100
AcDbLine
 10
761.8888391748
 20
387.5920377021
 30
0.0
 11
761.8888391748
 21
383.5920370465
 31
0.0
  0
LINE
  5
182
330
1F
100
AcDbEntity
  8
0
  6
Continuous
 62
     7
370
    15
100
AcDbLine
 10
759.0020893708
 20
383.5920370465
 30
0.0
 11
761.8888391748
 21
383.5920370465
 31
0.0
  0
LINE
  5
183
330
1F
100
AcDbEntity
  8
0
  6
Continuous
 62
     7
370
    15
100
AcDbLine
 10
750.3418325082
 20
539.5920402651
 30
0.0
 11
750.3418325082
 21
535.5920396095
 31
0.0
  0
LINE
  5
184
330
1F
100
AcDbEntity
  8
0
  6
Continuous
 62
     7
370
    15
100
AcDbLine
 10
750.3418325082
 20
539.5920402651
 30
0.0
 11
753.2285860375
 21
539.5920402651
 31
0.0
  0
LINE
  5
185
330
1F
100
AcDbEntity
  8
0
  6
Continuous
 62
     7
370
    15
100
AcDbLine
 10
761.8888391748
 20
539.5920402651
 30
0.0
 11
761.8888391748
 21
535.5920396095
 31
0.0
  0
LINE
  5
186
330
1F
100
AcDbEntity
  8
0
  6
Continuous
 62
     7
370
    15
100
AcDbLine
 10
759.0020893708
 20
539.5920402651
 30
0.0
 11
761.8888391748
 21
539.5920402651
 31
0.0
  0
LINE
  5
187
330
1F
100
AcDbEntity
  8
0
  6
Continuous
 62
     7
370
    15
100
AcDbLine
 10
789.2318329409
 20
383.5920370465
 30
0.0
 11
792.1185827449
 21
383.5920370465
 31
0.0
  0
LINE
  5
188
330
1F
100
AcDbEntity
  8
0
  6
Continuous
 62
     7
370
    15
100
AcDbLine
 10
789.2318329409
 20
387.5920377021
 30
0.0
 11
789.2318329409
 21
383.5920370465
 31
0.0
  0
LINE
  5
189
330
1F
100
AcDbEntity
  8
0
  6
Continuous
 62
     7
370
    15
100
AcDbLine
 10
792.1185827449
 20
387.5920377021
 30
0.0
 11
792.1185827449
 21
383.5920370465
 31
0.0
  0
LINE
  5
18A
330
1F
100
AcDbEntity
  8
0
  6
Continuous
 62
     7
370
    15
100
AcDbLine
 10
789.2318329409
 20
539.5920402651
 30
0.0
 11
789.2318329409
 21
535.5920396095
 31
0.0
  0
LINE
  5
18B
330
1F
100
AcDbEntity
  8
0
  6
Continuous
 62
     7
370
    15
100
AcDbLine
 10
789.2318329409
 20
539.5920402651
 30
0.0
 11
792.1185827449
 21
539.5920402651
 31
0.0
  0
LINE
  5
18C
330
1F
100
AcDbEntity
  8
0
  6
Continuous
 62
     7
370
    15
100
AcDbLine
 10
792.1185827449
 20
539.5920402651
 30
0.0
 11
792.1185827449
 21
535.5920396095
 31
0.0
  0
LINE
  5
18D
330
1F
100
AcDbEntity
  8
0
  6
Continuous
 62
     7
370
    15
100
AcDbLine
 10
797.8920898035
 20
539.5920402651
 30
0.0
 11
797.8920898035
 21
535.5920396095
 31
0.0
  0
LINE
  5
18E
330
1F
100
AcDbEntity
  8
0
  6
Continuous
 62
     7
370
    15
100
AcDbLine
 10
792.1185827449
 20
539.5920402651
 30
0.0
 11
797.8920898035
 21
539.5920402651
 31
0.0
  0
LINE
  5
18F
330
1F
100
AcDbEntity
  8
0
  6
Continuous
 62
     7
370
    15
100
AcDbLine
 10
797.8920898035
 20
387.5920377021
 30
0.0
 11
797.8920898035
 21
383.5920370465
 31
0.0
  0
LINE
  5
190
330
1F
100
AcDbEntity
  8
0
  6
Continuous
 62
     7
370
    15
100
AcDbLine
 10
792.1185827449
 20
383.5920370465
 30
0.0
 11
797.8920898035
 21
383.5920370465
 31
0.0
  0
LINE
  5
191
330
1F
100
AcDbEntity
  8
0
  6
Continuous
 62
     7
370
    15
100
AcDbLine
 10
800.7788396075
 20
387.5920377021
 30
0.0
 11
800.7788396075
 21
383.5920370465
 31
0.0
  0
LINE
  5
192
330
1F
100
AcDbEntity
  8
0
  6
Continuous
 62
     7
370
    15
100
AcDbLine
 10
797.8920898035
 20
383.5920370465
 30
0.0
 11
800.7788396075
 21
383.5920370465
 31
0.0
  0
LINE
  5
193
330
1F
100
AcDbEntity
  8
0
  6
Continuous
 62
     7
370
    15
100
AcDbLine
 10
800.7788396075
 20
539.5920402651
 30
0.0
 11
800.7788396075
 21
535.5920396095
 31
0.0
  0
LINE
  5
194
330
1F
100
AcDbEntity
  8
0
  6
Continuous
 62
     7
370
    15
100
AcDbLine
 10
797.8920898035
 20
539.5920402651
 30
0.0
 11
800.7788396075
 21
539.5920402651
 31
0.0
  0
LINE
  5
195
330
1F
100
AcDbEntity
  8
0
  6
Continuous
 62
     7
370
    15
100
AcDbLine
 10
765.3853370443
 20
639.5920417552
 30
0.0
 11
785.3853365973
 21
639.5920417552
 31
0.0
  0
LINE
  5
196
330
1F
100
AcDbEntity
  8
0
  6
Continuous
 62
     7
370
    15
100
AcDbLine
 10
612.38533618
 20
430.4577498977
 30
0.0
 11
638.8853377298
 21
430.4577498977
 31
0.0
  0
LINE
  5
197
330
1F
100
AcDbEntity
  8
0
  6
Continuous
 62
     7
370
    15
100
AcDbLine
 10
612.38533618
 20
436.0984633957
 30
0.0
 11
612.38533618
 21
430.4577498977
 31
0.0
  0
LINE
  5
198
330
1F
100
AcDbEntity
  8
0
  6
Continuous
 62
     7
370
    15
100
AcDbLine
 10
612.38533618
 20
436.0984633957
 30
0.0
 11
638.8853377298
 21
436.0984633957
 31
0.0
  0
LINE
  5
199
330
1F
100
AcDbEntity
  8
0
  6
Continuous
 62
     7
370
    15
100
AcDbLine
 10
612.38533618
 20
492.7263274138
 30
0.0
 11
638.8853377298
 21
492.7263274138
 31
0.0
  0
LINE
  5
19A
330
1F
100
AcDbEntity
  8
0
  6
Continuous
 62
     7
370
    15
100
AcDbLine
 10
612.38533618
 20
504.0077506845
 30
0.0
 11
612.38533618
 21
492.7263274138
 31
0.0
  0
LINE
  5
19B
330
1F
100
AcDbEntity
  8
0
  6
Continuous
 62
     7
370
    15
100
AcDbLine
 10
612.38533618
 20
504.0077506845
 30
0.0
 11
638.8853377298
 21
504.0077506845
 31
0.0
  0
LINE
  5
19C
330
1F
100
AcDbEntity
  8
0
  6
Continuous
 62
     7
370
    15
100
AcDbLine
 10
612.38533618
 20
413.5356149917
 30
0.0
 11
638.8853377298
 21
413.5356149917
 31
0.0
  0
LINE
  5
19D
330
1F
100
AcDbEntity
  8
0
  6
Continuous
 62
     7
370
    15
100
AcDbLine
 10
612.38533618
 20
419.176326627
 30
0.0
 11
638.8853377298
 21
419.176326627
 31
0.0
  0
LINE
  5
19E
330
1F
100
AcDbEntity
  8
0
  6
Continuous
 62
     7
370
    15
100
AcDbLine
 10
612.38533618
 20
419.176326627
 30
0.0
 11
612.38533618
 21
413.5356149917
 31
0.0
  0
LINE
  5
19F
330
1F
100
AcDbEntity
  8
0
  6
Continuous
 62
     7
370
    15
100
AcDbLine
 10
612.38533618
 20
487.0856139158
 30
0.0
 11
638.8853377298
 21
487.0856139158
 31
0.0
  0
LINE
  5
1A0
330
1F
100
AcDbEntity
  8
0
  6
Continuous
 62
     7
370
    15
100
AcDbLine
 10
612.38533618
 20
492.7263274138
 30
0.0
 11
612.38533618
 21
487.0856139158
 31
0.0
  0
LINE
  5
1A1
330
1F
100
AcDbEntity
  8
0
  6
Continuous
 62
     7
370
    15
100
AcDbLine
 10
612.38533618
 20
509.6484623199
 30
0.0
 11
638.8853377298
 21
509.6484623199
 31
0.0
  0
LINE
  5
1A2
330
1F
100
AcDbEntity
  8
0
  6
Continuous
 62
     7
370
    15
100
AcDbLine
 10
612.38533618
 20
509.6484623199
 30
0.0
 11
612.38533618
 21
504.0077506845
 31
0.0
  0
LINE
  5
1A3
330
1F
100
AcDbEntity
  8
0
  6
Continuous
 62
     7
370
    15
100
AcDbLine
 10
612.38533618
 20
430.4577498977
 30
0.0
 11
612.38533618
 21
419.176326627
 31
0.0
  0
LINE
  5
1A4
330
1F
100
AcDbEntity
  8
0
  6
Continuous
 62
     7
370
    15
100
AcDbLine
 10
601.3853362396
 20
454.0920388234
 30
0.0
 11
635.7941588953
 21
454.0920388234
 31
0.0
  0
LINE
  5
1A5
330
1F
100
AcDbEntity
  8
0
  6
Continuous
 62
     7
370
    15
100
AcDbLine
 10
601.3853362396
 20
469.0920384881
 30
0.0
 11
635.7941588953
 21
469.0920384881
 31
0.0
  0
LINE
  5
1A6
330
1F
100
AcDbEntity
  8
0
  6
Continuous
 62
     7
370
    15
100
AcDbLine
 10
601.3853362396
 20
640.3888068443
 30
0.0
 11
582.3853349879
 21
640.3888068443
 31
0.0
  0
LINE
  5
1A7
330
1F
100
AcDbEntity
  8
0
  6
Continuous
 62
     7
370
    15
100
AcDbLine
 10
601.3853362396
 20
272.795280004
 30
0.0
 11
601.3853362396
 21
640.3888068443
 31
0.0
  0
LINE
  5
1A8
330
1F
100
AcDbEntity
  8
0
  6
Continuous
 62
     7
370
    15
100
AcDbLine
 10
601.3853362396
 20
272.795280004
 30
0.0
 11
582.3853349879
 21
272.795280004
 31
0.0
  0
LINE
  5
1A9
330
1F
100
AcDbEntity
  8
0
  6
Continuous
 62
     7
370
    15
100
AcDbLine
 10
582.3853349879
 20
272.795280004
 30
0.0
 11
582.3853349879
 21
640.3888068443
 31
0.0
  0
LINE
  5
1AA
330
1F
100
AcDbEntity
  8
0
  6
Continuous
 62
     7
370
    15
100
AcDbLine
 10
826.3853377298
 20
272.795280004
 30
0.0
 11
826.3853377298
 21
640.3888068443
 31
0.0
  0
LINE
  5
1AB
330
1F
100
AcDbEntity
  8
0
  6
Continuous
 62
     7
370
    15
100
AcDbLine
 10
807.3853364781
 20
272.795280004
 30
0.0
 11
826.3853377298
 21
272.795280004
 31
0.0
  0
LINE
  5
1AC
330
1F
100
AcDbEntity
  8
0
  6
Continuous
 62
     7
370
    15
100
AcDbLine
 10
807.3853364781
 20
640.3888068443
 30
0.0
 11
826.3853377298
 21
640.3888068443
 31
0.0
  0
LINE
  5
1AD
330
1F
100
AcDbEntity
  8
0
  6
Continuous
 62
     7
370
    15
100
AcDbLine
 10
807.3853364781
 20
272.795280004
 30
0.0
 11
807.3853364781
 21
387.5920377021
 31
0.0
  0
LINE
  5
1AE
330
1F
100
AcDbEntity
  8
0
  6
Continuous
 62
     7
370
    15
100
AcDbLine
 10
807.3853364781
 20
535.5920396095
 30
0.0
 11
807.3853364781
 21
640.3888068443
 31
0.0
  0
LINE
  5
1AF
330
1F
100
AcDbEntity
  8
0
  6
Continuous
 62
     7
370
    15
100
AcDbLine
 10
579.3853363589
 20
297.0920405631
 30
0.0
 11
579.3853363589
 21
616.092031384
 31
0.0
  0
LINE
  5
1B0
330
1F
100
AcDbEntity
  8
0
  6
Continuous
 62
     7
370
    15
100
AcDbLine
 10
829.3853363589
 20
297.0920405631
 30
0.0
 11
829.3853363589
 21
616.092031384
 31
0.0
  0
LINE
  5
1B1
330
1F
100
AcDbEntity
  8
0
  6
Continuous
 62
     7
370
    15
100
AcDbLine
 10
637.1025404528
 20
321.5920380597
 30
0.0
 11
637.1025404528
 21
413.5356149917
 31
0.0
  0
LINE
  5
1B2
330
1F
100
AcDbEntity
  8
0
  6
Continuous
 62
     7
370
    15
100
AcDbLine
 10
637.1025404528
 20
436.0984633957
 30
0.0
 11
637.1025404528
 21
446.2941405644
 31
0.0
  0
LINE
  5
1B3
330
1F
100
AcDbEntity
  8
0
  6
Continuous
 62
     7
370
    15
100
AcDbLine
 10
771.6681322649
 20
321.5920380597
 30
0.0
 11
771.6681322649
 21
387.5920377021
 31
0.0
  0
LINE
  5
1B4
330
1F
100
AcDbEntity
  8
0
  6
Continuous
 62
     7
370
    15
100
AcDbLine
 10
637.1025404528
 20
476.8899367472
 30
0.0
 11
637.1025404528
 21
487.0856139158
 31
0.0
  0
LINE
  5
1B5
330
1F
100
AcDbEntity
  8
0
  6
Continuous
 62
     7
370
    15
100
AcDbLine
 10
637.1025404528
 20
509.6484623199
 30
0.0
 11
637.1025404528
 21
591.5920338874
 31
0.0
  0
SPLINE
  5
1B6
330
1F
100
AcDbEntity
  8
0
  6
Continuous
 62
     7
370
    15
100
AcDbSpline
210
0.0
220
0.0
230
1.0
 70
     8
 71
     3
 72
    17
 73
    13
 74
     0
 42
0.00000001
 43
0.00000001
 12
1.0
 22
0.0
 32
0.0
 13
1.0
 23
0.0
 33
0.0
 40
0.0
 40
0.0
 40
0.0
 40
0.0
 40
0.1051495922726954
 40
0.210299100110768
 40
0.3184923140050847
 40
0.4266851302726365
 40
0.5318396007495744
 40
0.6369936938935622
 40
0.7452336098167478
 40
0.853473099612664
 40
0.9580910414417333
 40
0.9999999999999999
 40
0.9999999999999999
 40
0.9999999999999999
 40
0.9999999999999999
 10
691.4931078076442
 20
590.9584067111242
 30
0.0
 10
691.1403461882115
 20
590.9932107664272
 30
0.0
 10
690.4348232326121
 20
591.0628188490858
 30
0.0
 10
689.4873832495044
 20
591.1655319649935
 30
0.0
 10
688.63109216102
 20
591.2633958800049
 30
0.0
 10
687.8900171915597
 20
591.3527156816207
 30
0.0
 10
687.2726104600864
 20
591.430095943104
 30
0.0
 10
686.7745448391706
 20
591.4946194522024
 30
0.0
 10
686.3960408359254
 20
591.544813343849
 30
0.0
 10
686.1560617520894
 20
591.5772339513907
 30
0.0
 10
686.0457291268522
 20
591.5922435046675
 30
0.0
 10
686.0588162393308
 20
591.5904699033863
 30
0.0
 10
686.0625593558033
 20
591.5899626260031
 30
0.0
  0
SPLINE
  5
1B7
330
1F
100
AcDbEntity
  8
0
  6
Continuous
 62
     7
370
    15
100
AcDbSpline
210
0.0
220
0.0
230
1.0
 70
     8
 71
     3
 72
    37
 73
    33
 74
     0
 42
0.00000001
 43
0.00000001
 12
1.0
 22
0.0
 32
0.0
 13
1.0
 23
0.0
 33
0.0
 40
0.0
 40
0.0
 40
0.0
 40
0.0
 40
0.0082589612772139
 40
0.0446273606055451
 40
0.0797540408604915
 40
0.1148808386373475
 40
0.1510229620769991
 40
0.1871652627665352
 40
0.2223905145216339
 40
0.2576159227670574
 40
0.2938506912194769
 40
0.3300855273264555
 40
0.3655462734644093
 40
0.4010069306670834
 40
0.4374995244480108
 40
0.4739919043702185
 40
0.5094085312433393
 40
0.54482493658384
 40
0.5812897746608747
 40
0.6177544291653558
 40
0.6528416386644859
 40
0.6879288224727326
 40
0.7240452351239471
 40
0.7601617737515212
 40
0.7950959260810562
 40
0.8300302978891744
 40
0.8659660552850904
 40
0.9019020694318112
 40
0.9262637339328916
 40
0.9506254459619194
 40
0.9753127124868213
 40
1.0
 40
1.0
 40
1.0
 40
1.0
 10
722.7114288702686
 20
591.5904096608389
 30
0.0
 10
722.7150181444011
 20
591.5908945874745
 30
0.0
 10
722.7344128147049
 20
591.5935148922695
 30
0.0
 10
722.6392306798522
 20
591.5806029881868
 30
0.0
 10
722.4240600358299
 20
591.5514558997133
 30
0.0
 10
722.0753064358563
 20
591.5050517519877
 30
0.0
 10
721.6010186805016
 20
591.4432794804609
 30
0.0
 10
721.0033646759099
 20
591.3678632196442
 30
0.0
 10
720.2945319945838
 20
591.2818095017253
 30
0.0
 10
719.4759817455096
 20
591.1869977727714
 30
0.0
 10
718.5426073696298
 20
591.0849409659953
 30
0.0
 10
717.5061135805154
 20
590.9791481028877
 30
0.0
 10
716.3840077587893
 20
590.8736770357812
 30
0.0
 10
715.1754211142862
 20
590.7704003263501
 30
0.0
 10
713.87688661941
 20
590.6716159848573
 30
0.0
 10
712.5095800976616
 20
590.5812122159338
 30
0.0
 10
711.0972603034644
 20
590.5026993544856
 30
0.0
 10
709.6378459889519
 20
590.4369385805593
 30
0.0
 10
708.1254244053598
 20
590.385802537754
 30
0.0
 10
706.590002367573
 20
590.3514911469827
 30
0.0
 10
705.058393124355
 20
590.3351277062799
 30
0.0
 10
703.5270652173633
 20
590.3360204250253
 30
0.0
 10
701.9869930596802
 20
590.3548853688094
 30
0.0
 10
700.4665383532051
 20
590.3910235772793
 30
0.0
 10
698.9909421023102
 20
590.4428222019211
 30
0.0
 10
697.5550899090824
 20
590.5086402196052
 30
0.0
 10
696.1541024478121
 20
590.5878470039288
 30
0.0
 10
694.9445593982581
 20
590.6686987114332
 30
0.0
 10
693.9260719472825
 20
590.745150322375
 30
0.0
 10
693.0781772338348
 20
590.8142633681109
 30
0.0
 10
692.261256193112
 20
590.8856684156485
 30
0.0
 10
691.7491573420283
 20
590.9341606057612
 30
0.0
 10
691.4931078076442
 20
590.9584067111242
 30
0.0
  0
SPLINE
  5
1B8
330
1F
100
AcDbEntity
  8
0
  6
Continuous
 62
     7
370
    15
100
AcDbSpline
210
0.0
220
0.0
230
1.0
 70
     8
 71
     3
 72
    17
 73
    13
 74
     0
 42
0.00000001
 43
0.00000001
 12
1.0
 22
0.0
 32
0.0
 13
1.0
 23
0.0
 33
0.0
 40
0.0
 40
0.0
 40
0.0
 40
0.0
 40
0.1051495926703344
 40
0.2102990330652365
 40
0.3184923114278607
 40
0.4266851281045599
 40
0.5318395989791553
 40
0.6369936925207992
 40
0.7452336088533102
 40
0.8534730990585505
 40
0.9580910412832483
 40
0.9999999999999999
 40
0.9999999999999999
 40
0.9999999999999999
 40
0.9999999999999999
 10
691.4931078076442
 20
322.2256652360189
 30
0.0
 10
691.1403462686842
 20
322.190859075097
 30
0.0
 10
690.4348237016261
 20
322.1212468036587
 30
0.0
 10
689.4873824719807
 20
322.0185655770866
 30
0.0
 10
688.6310925663033
 20
321.9206691429297
 30
0.0
 10
687.8900171246844
 20
321.831358067436
 30
0.0
 10
687.2726104777726
 20
321.7539755274962
 30
0.0
 10
686.7745448342756
 20
321.6894526268347
 30
0.0
 10
686.3960408372569
 20
321.6392585674187
 30
0.0
 10
686.1560617517374
 20
321.6068380052395
 30
0.0
 10
686.0457291268818
 20
321.5918284416734
 30
0.0
 10
686.0588162393373
 20
321.5936020435785
 30
0.0
 10
686.0625593558033
 20
321.5941093211401
 30
0.0
  0
SPLINE
  5
1B9
330
1F
100
AcDbEntity
  8
0
  6
Continuous
 62
     7
370
    15
100
AcDbSpline
210
0.0
220
0.0
230
1.0
 70
     8
 71
     3
 72
    37
 73
    33
 74
     0
 42
0.00000001
 43
0.00000001
 12
1.0
 22
0.0
 32
0.0
 13
1.0
 23
0.0
 33
0.0
 40
0.0
 40
0.0
 40
0.0
 40
0.0
 40
0.0082589612640371
 40
0.0446273634351335
 40
0.0797540368659419
 40
0.1148808449466008
 40
0.1510229683285894
 40
0.1871652522132491
 40
0.2223905039121478
 40
0.257615912101371
 40
0.2938507031187697
 40
0.3300855157725064
 40
0.3655462618538843
 40
0.4010069189999828
 40
0.4374995127226881
 40
0.4739918925866741
 40
0.5094085368804886
 40
0.5448249421644843
 40
0.5812897689098196
 40
0.6177544233561233
 40
0.6528416327992734
 40
0.6879288165515404
 40
0.724045229145133
 40
0.7601617596579565
 40
0.7950959235935164
 40
0.8300302953458986
 40
0.8659660526844809
 40
0.9019020467179987
 40
0.9262637111802114
 40
0.9506254457077485
 40
0.9753126890216687
 40
1.0
 40
1.0
 40
1.0
 40
1.0
 10
722.7114288702686
 20
321.5936622863043
 30
0.0
 10
722.7150181440638
 20
321.5931771580011
 30
0.0
 10
722.7344128138059
 20
321.5905557633236
 30
0.0
 10
722.6392307246698
 20
321.6034972894488
 30
0.0
 10
722.4240599457919
 20
321.6326039143317
 30
0.0
 10
722.075306490088
 20
321.6790412200651
 30
0.0
 10
721.6010188582527
 20
321.7408108973816
 30
0.0
 10
721.0033644530992
 20
321.8162034948396
 30
0.0
 10
720.2945320931404
 20
321.9022654737759
 30
0.0
 10
719.4759812836841
 20
321.9970671608281
 30
0.0
 10
718.5426082552327
 20
322.0991568455022
 30
0.0
 10
717.5061130446655
 20
322.2049170833523
 30
0.0
 10
716.3840078402793
 20
322.3103968011878
 30
0.0
 10
715.175421075339
 20
322.4136707562847
 30
0.0
 10
713.8768866933716
 20
322.5124575173976
 30
0.0
 10
712.5095796246334
 20
322.6028544805829
 30
0.0
 10
711.0972607454978
 20
322.6813915056125
 30
0.0
 10
709.6378462416471
 20
322.7471520514767
 30
0.0
 10
708.1254240922391
 20
322.7982643072151
 30
0.0
 10
706.5900024036602
 20
322.8325822363446
 30
0.0
 10
705.0583931260799
 20
322.8489434153888
 30
0.0
 10
703.5270651743878
 20
322.8480534436443
 30
0.0
 10
701.9869933512581
 20
322.8291795129512
 30
0.0
 10
700.4665377660999
 20
322.7930742678803
 30
0.0
 10
698.9909424875391
 20
322.7412426117561
 30
0.0
 10
697.555089788217
 20
322.6754348646842
 30
0.0
 10
696.1541029681201
 20
322.5962196161925
 30
0.0
 10
694.9445591188891
 20
322.5153888989096
 30
0.0
 10
693.9260713564275
 20
322.4389426822184
 30
0.0
 10
693.0781783492806
 20
322.3697970902261
 30
0.0
 10
692.2612551626831
 20
322.2984287273617
 30
0.0
 10
691.7491571599221
 20
322.2499197552925
 30
0.0
 10
691.4931078076442
 20
322.2256652360189
 30
0.0
  0
SPLINE
  5
1BA
330
1F
100
AcDbEntity
  8
0
  6
Continuous
 62
     7
370
    15
100
AcDbSpline
210
0.0
220
0.0
230
1.0
 70
     8
 71
     3
 72
    30
 73
    26
 74
     0
 42
0.00000001
 43
0.00000001
 12
1.0
 22
0.0
 32
0.0
 13
1.0
 23
0.0
 33
0.0
 40
0.0
 40
0.0
 40
0.0
 40
0.0
 40
0.0157563774558979
 40
0.0314806514577309
 40
0.0628449197717433
 40
0.0985853589325319
 40
0.1253426717982471
 40
0.1876815372208971
 40
0.2500669105894152
 40
0.2813161732062163
 40
0.3125755972002631
 40
0.3750840275239991
 40
0.4375441214590557
 40
0.4687371412194811
 40
0.4998833428146701
 40
0.5620969202397795
 40
0.624350306236861
 40
0.6866874658066938
 40
0.749123614087761
 40
0.8116596614098927
 40
0.8742966156826737
 40
0.9057205295589799
 40
0.9370677429946616
 40
0.9685823465613729
 40
1.0
 40
1.0
 40
1.0
 40
1.0
 10
724.3853363588531
 20
390.950850219455
 30
0.0
 10
724.4439715233254
 20
390.9504624057338
 30
0.0
 10
724.5611223837362
 20
390.9496875684578
 30
0.0
 10
724.7948269382067
 20
390.941408969753
 30
0.0
 10
725.1022546263769
 20
390.9204972616525
 30
0.0
 10
725.4486352217904
 20
390.8797155497878
 30
0.0
 10
725.9053284414553
 20
390.8049051601456
 30
0.0
 10
726.4512722147279
 20
390.6786489368998
 30
0.0
 10
726.9952727809278
 20
390.4994909463747
 30
0.0
 10
727.4164114794854
 20
390.327794923496
 30
0.0
 10
727.8273655275908
 20
390.1375548688364
 30
0.0
 10
728.3196549997966
 20
389.8668327254055
 30
0.0
 10
728.7787928302608
 20
389.5560328314211
 30
0.0
 10
729.1232840851301
 20
389.2857026368401
 30
0.0
 10
729.4514458457193
 20
389.0019127717982
 30
0.0
 10
729.83031537419
 20
388.621912897091
 30
0.0
 10
730.2316781280653
 20
388.131005872021
 30
0.0
 10
730.5777156873787
 20
387.6101957734068
 30
0.0
 10
730.8661011297062
 20
387.0645102450053
 30
0.0
 10
731.0945687716974
 20
386.4989478812781
 30
0.0
 10
731.2330195363294
 20
386.0150931525795
 30
0.0
 10
731.3115510914599
 20
385.6233165482166
 30
0.0
 10
731.3537265568226
 20
385.3271630891686
 30
0.0
 10
731.3803678348829
 20
385.0300864197616
 30
0.0
 10
731.3836818860141
 20
384.831720106645
 30
0.0
 10
731.3853363588531
 20
384.7326897464458
 30
0.0
  0
LINE
  5
1BB
330
1F
100
AcDbEntity
  8
0
  6
Continuous
 62
     7
370
    15
100
AcDbLine
 10
724.3853359118
 20
390.9508488422
 30
0.0
 11
684.3853368059
 21
390.9508488422
 31
0.0
  0
SPLINE
  5
1BC
330
1F
100
AcDbEntity
  8
0
  6
Continuous
 62
     7
370
    15
100
AcDbSpline
210
0.0
220
0.0
230
1.0
 70
     8
 71
     3
 72
    28
 73
    24
 74
     0
 42
0.00000001
 43
0.00000001
 12
1.0
 22
0.0
 32
0.0
 13
1.0
 23
0.0
 33
0.0
 40
0.0
 40
0.0
 40
0.0
 40
0.0
 40
0.0209704468456403
 40
0.0419002821617437
 40
0.0628103237040412
 40
0.0940360520395372
 40
0.125251057481395
 40
0.1875796624348945
 40
0.2500794432061061
 40
0.3126791310555214
 40
0.37516203812548
 40
0.4375666156565043
 40
0.4999389816392977
 40
0.5622991968171731
 40
0.6246587301391412
 40
0.6870378409219522
 40
0.7494435103556577
 40
0.8118867391114806
 40
0.8743998125675488
 40
0.9370534252845716
 40
0.9621901283936063
 40
0.9810841444152812
 40
1.0
 40
1.0
 40
1.0
 40
1.0
 10
677.3853363588531
 20
384.7326897464458
 30
0.0
 10
677.3860434341753
 20
384.7987664571427
 30
0.0
 10
677.3874562154922
 20
384.9307919138677
 30
0.0
 10
677.3988923662116
 20
385.1287817137811
 30
0.0
 10
677.4201635600343
 20
385.358864459531
 30
0.0
 10
677.4568043337341
 20
385.6207384825116
 30
0.0
 10
677.5333616162887
 20
386.0106636853295
 30
0.0
 10
677.6698057778224
 20
386.4930636313452
 30
0.0
 10
677.8968472621336
 20
387.0583460512722
 30
0.0
 10
678.1853913086093
 20
387.6048596429207
 30
0.0
 10
678.5329705230707
 20
388.1265243154801
 30
0.0
 10
678.9361482300038
 20
388.6180114463342
 30
0.0
 10
679.3915862278909
 20
389.0748684038633
 30
0.0
 10
679.8972793914315
 20
389.4910740726315
 30
0.0
 10
680.4485189501407
 20
389.8619771477463
 30
0.0
 10
681.0391740439702
 20
390.1846424375404
 30
0.0
 10
681.6636690043889
 20
390.455808102679
 30
0.0
 10
682.3163514263271
 20
390.6723321754443
 30
0.0
 10
682.9915299116211
 20
390.8309656151936
 30
0.0
 10
683.5447305268387
 20
390.9091002897315
 30
0.0
 10
683.9402945893944
 20
390.9387815098983
 30
0.0
 10
684.1742665077428
 20
390.9491037900544
 30
0.0
 10
684.3149526543227
 20
390.9502678521947
 30
0.0
 10
684.3853363588531
 20
390.950850219455
 30
0.0
  0
LINE
  5
1BD
330
1F
100
AcDbEntity
  8
0
  6
Continuous
 62
     7
370
    15
100
AcDbLine
 10
724.3853359118
 20
384.7128055339
 30
0.0
 11
684.3853368059
 21
384.7128055339
 31
0.0
  0
SPLINE
  5
1BE
330
1F
100
AcDbEntity
  8
0
  6
Continuous
 62
     7
370
    15
100
AcDbSpline
210
0.0
220
0.0
230
1.0
 70
     8
 71
     3
 72
    16
 73
    12
 74
     0
 42
0.00000001
 43
0.00000001
 12
1.0
 22
0.0
 32
0.0
 13
1.0
 23
0.0
 33
0.0
 40
0.0
 40
0.0
 40
0.0
 40
0.0
 40
0.1250000000000017
 40
0.1250000000000017
 40
0.2500000000000034
 40
0.2500000000000034
 40
0.3750000000000051
 40
0.3750000000000051
 40
0.5000000000000068
 40
0.5000000000000068
 40
1.0
 40
1.0
 40
1.0
 40
1.0
 10
682.3853363588531
 20
382.9649227934794
 30
0.0
 10
682.3853363588531
 20
383.0782226471987
 30
0.0
 10
682.3982908537715
 20
383.1897451351032
 30
0.0
 10
682.4483583532264
 20
383.4094700219189
 30
0.0
 10
682.4859689677896
 20
383.5186597942454
 30
0.0
 10
682.5843752565005
 20
383.7285774315928
 30
0.0
 10
682.6444951301506
 20
383.8284765769042
 30
0.0
 10
682.7866546336825
 20
384.0180647641651
 30
0.0
 10
682.869816802251
 20
384.1085668822002
 30
0.0
 10
683.3277415657211
 20
384.5153926993568
 30
0.0
 10
683.8497453590126
 20
384.7128079656791
 30
0.0
 10
684.3853363588531
 20
384.7128079656791
 30
0.0
  0
LINE
  5
1BF
330
1F
100
AcDbEntity
  8
0
  6
Continuous
 62
     7
370
    15
100
AcDbLine
 10
682.3853364781
 20
340.5385143404
 30
0.0
 11
682.3853364781
 21
382.9649216776
 31
0.0
  0
SPLINE
  5
1C0
330
1F
100
AcDbEntity
  8
0
  6
Continuous
 62
     7
370
    15
100
AcDbSpline
210
0.0
220
0.0
230
1.0
 70
     8
 71
     3
 72
    18
 73
    14
 74
     0
 42
0.00000001
 43
0.00000001
 12
1.0
 22
0.0
 32
0.0
 13
1.0
 23
0.0
 33
0.0
 40
0.0
 40
0.0
 40
0.0
 40
0.0
 40
0.1250000000000006
 40
0.1250000000000006
 40
0.2500000000000012
 40
0.2500000000000012
 40
0.3750000000000018
 40
0.3750000000000018
 40
0.5000000000000023
 40
0.5000000000000023
 40
0.7500000000000011
 40
0.7500000000000011
 40
1.0
 40
1.0
 40
1.0
 40
1.0
 10
684.3853363588531
 20
339.45797396974
 30
0.0
 10
684.2514445872974
 20
339.45797396974
 30
0.0
 10
684.1200416842291
 20
339.4653678630388
 30
0.0
 10
683.8617799921617
 20
339.4936760650301
 30
0.0
 10
683.73357481005
 20
339.5149474195262
 30
0.0
 10
683.4900779568179
 20
339.5697158130345
 30
0.0
 10
683.3746142373251
 20
339.6030296700629
 30
0.0
 10
683.1562973334496
 20
339.6816381413529
 30
0.0
 10
683.0536713169064
 20
339.7271030105535
 30
0.0
 10
682.7795275351813
 20
339.8764452107703
 30
0.0
 10
682.634096194556
 20
339.9968040938747
 30
0.0
 10
682.4382159309636
 20
340.2555249550298
 30
0.0
 10
682.3853363588531
 20
340.3961479938639
 30
0.0
 10
682.3853363588531
 20
340.5385159222865
 30
0.0
  0
LINE
  5
1C1
330
1F
100
AcDbEntity
  8
0
  6
Continuous
 62
     7
370
    15
100
AcDbLine
 10
724.3853359118
 20
339.4579715376
 30
0.0
 11
684.3853368059
 21
339.4579715376
 31
0.0
  0
SPLINE
  5
1C2
330
1F
100
AcDbEntity
  8
0
  6
Continuous
 62
     7
370
    15
100
AcDbSpline
210
0.0
220
0.0
230
1.0
 70
     8
 71
     3
 72
    16
 73
    12
 74
     0
 42
0.00000001
 43
0.00000001
 12
1.0
 22
0.0
 32
0.0
 13
1.0
 23
0.0
 33
0.0
 40
0.0
 40
0.0
 40
0.0
 40
0.0
 40
0.1250000000000003
 40
0.1250000000000003
 40
0.2500000000000007
 40
0.2500000000000007
 40
0.375000000000001
 40
0.375000000000001
 40
0.5000000000000013
 40
0.5000000000000013
 40
1.0
 40
1.0
 40
1.0
 40
1.0
 10
726.3853363588531
 20
340.5385159222865
 30
0.0
 10
726.3853363588531
 20
340.4672764781039
 30
0.0
 10
726.3723818639347
 20
340.3973894447104
 30
0.0
 10
726.3223143644799
 20
340.2601286179535
 30
0.0
 10
726.2847037499166
 20
340.1921428212838
 30
0.0
 10
726.1862974612058
 20
340.0618322129696
 30
0.0
 10
726.1261775875557
 20
340.0000169350549
 30
0.0
 10
725.9840180840238
 20
339.8830107583967
 30
0.0
 10
725.9008559154554
 20
339.8273230149414
 30
0.0
 10
725.4429311519854
 20
339.5775477318606
 30
0.0
 10
724.9209273586937
 20
339.45797396974
 30
0.0
 10
724.3853363588531
 20
339.45797396974
 30
0.0
  0
LINE
  5
1C3
330
1F
100
AcDbEntity
  8
0
  6
Continuous
 62
     7
370
    15
100
AcDbLine
 10
726.3853362396
 20
382.9649216776
 30
0.0
 11
726.3853362396
 21
340.5385143404
 31
0.0
  0
SPLINE
  5
1C4
330
1F
100
AcDbEntity
  8
0
  6
Continuous
 62
     7
370
    15
100
AcDbSpline
210
0.0
220
0.0
230
1.0
 70
     8
 71
     3
 72
    18
 73
    14
 74
     0
 42
0.00000001
 43
0.00000001
 12
1.0
 22
0.0
 32
0.0
 13
1.0
 23
0.0
 33
0.0
 40
0.0
 40
0.0
 40
0.0
 40
0.0
 40
0.125000000000002
 40
0.125000000000002
 40
0.2500000000000041
 40
0.2500000000000041
 40
0.3750000000000061
 40
0.3750000000000061
 40
0.5000000000000081
 40
0.5000000000000081
 40
0.750000000000004
 40
0.750000000000004
 40
1.0
 40
1.0
 40
1.0
 40
1.0
 10
724.3853363588531
 20
384.7128079656791
 30
0.0
 10
724.5192281304088
 20
384.7128079656791
 30
0.0
 10
724.6506310334772
 20
384.7006376918445
 30
0.0
 10
724.9088927255445
 20
384.6540896319879
 30
0.0
 10
725.0370979076565
 20
384.6191258611025
 30
0.0
 10
725.2805947608884
 20
384.529249717085
 30
0.0
 10
725.3960584803813
 20
384.4746372839278
 30
0.0
 10
725.6143753842566
 20
384.3460508472061
 30
0.0
 10
725.7170014007999
 20
384.271803202308
 30
0.0
 10
725.9911451825251
 20
384.0285557680657
 30
0.0
 10
726.1365765231502
 20
383.8333367602556
 30
0.0
 10
726.3324567867428
 20
383.4165520210971
 30
0.0
 10
726.3853363588531
 20
383.1913460292259
 30
0.0
 10
726.3853363588531
 20
382.9649227934794
 30
0.0
  0
LINE
  5
1C5
330
1F
100
AcDbEntity
  8
0
  6
Continuous
 62
     7
370
    15
100
AcDbLine
 10
731.3853370592
 20
382.9649216776
 30
0.0
 11
731.3853370592
 21
340.5385143404
 31
0.0
  0
SPLINE
  5
1C6
330
1F
100
AcDbEntity
  8
0
  6
Continuous
 62
     7
370
    15
100
AcDbSpline
210
0.0
220
0.0
230
1.0
 70
     8
 71
     3
 72
    12
 73
     8
 74
     0
 42
0.00000001
 43
0.00000001
 12
1.0
 22
0.0
 32
0.0
 13
1.0
 23
0.0
 33
0.0
 40
0.0
 40
0.0
 40
0.0
 40
0.0
 40
0.4999999999999994
 40
0.4999999999999994
 40
0.7499999999999998
 40
0.7499999999999998
 40
1.0
 40
1.0
 40
1.0
 40
1.0
 10
724.3853363588531
 20
336.8571814586841
 30
0.0
 10
726.2648455674636
 20
336.8571814586841
 30
0.0
 10
728.0898500836148
 20
337.2518107963275
 30
0.0
 10
730.0110662298898
 20
338.2610599478681
 30
0.0
 10
730.5193469888407
 20
338.6642336503137
 30
0.0
 10
731.2081327809644
 20
339.5576179357574
 30
0.0
 10
731.3853363588531
 20
340.0387271219648
 30
0.0
 10
731.3853363588531
 20
340.5385159222865
 30
0.0
  0
LINE
  5
1C7
330
1F
100
AcDbEntity
  8
0
  6
Continuous
 62
     7
370
    15
100
AcDbLine
 10
724.3853359118
 20
336.8571824675
 30
0.0
 11
684.3853368059
 21
336.8571824675
 31
0.0
  0
SPLINE
  5
1C8
330
1F
100
AcDbEntity
  8
0
  6
Continuous
 62
     7
370
    15
100
AcDbSpline
210
0.0
220
0.0
230
1.0
 70
     8
 71
     3
 72
    12
 73
     8
 74
     0
 42
0.00000001
 43
0.00000001
 12
1.0
 22
0.0
 32
0.0
 13
1.0
 23
0.0
 33
0.0
 40
0.0
 40
0.0
 40
0.0
 40
0.0
 40
0.5000000000000016
 40
0.5000000000000016
 40
0.7500000000000008
 40
0.7500000000000008
 40
1.0
 40
1.0
 40
1.0
 40
1.0
 10
677.3853363588531
 20
340.5385159222865
 30
0.0
 10
677.3853363588531
 20
339.5395047985441
 30
0.0
 10
678.124537017397
 20
338.5937906744799
 30
0.0
 10
680.042470305601
 20
337.5875916101864
 30
0.0
 10
680.819166856056
 20
337.3172484370355
 30
0.0
 10
682.5240686453297
 20
336.9524226025621
 30
0.0
 10
683.4461455322872
 20
336.8571814586841
 30
0.0
 10
684.3853363588531
 20
336.8571814586841
 30
0.0
  0
LINE
  5
1C9
330
1F
100
AcDbEntity
  8
0
  6
Continuous
 62
     7
370
    15
100
AcDbLine
 10
677.3853356585
 20
340.5385143404
 30
0.0
 11
677.3853356585
 21
382.9649216776
 31
0.0
  0
SPLINE
  5
1CA
330
1F
100
AcDbEntity
  8
0
  6
Continuous
 62
     7
370
    15
100
AcDbSpline
210
0.0
220
0.0
230
1.0
 70
     8
 71
     3
 72
    12
 73
     8
 74
     0
 42
0.00000001
 43
0.00000001
 12
1.0
 22
0.0
 32
0.0
 13
1.0
 23
0.0
 33
0.0
 40
0.0
 40
0.0
 40
0.0
 40
0.0
 40
0.4999999999999998
 40
0.4999999999999998
 40
0.7499999999999999
 40
0.7499999999999999
 40
1.0
 40
1.0
 40
1.0
 40
1.0
 10
684.3853363588531
 20
389.1830832664887
 30
0.0
 10
682.5058271502428
 20
389.1830832664887
 30
0.0
 10
680.6808226340914
 20
388.465203215287
 30
0.0
 10
678.7596064878164
 20
386.7179573927116
 30
0.0
 10
678.2513257288655
 20
386.0303939591051
 30
0.0
 10
677.5625399367418
 20
384.54375815375
 30
0.0
 10
677.3853363588531
 20
383.7597914033729
 30
0.0
 10
677.3853363588531
 20
382.9649227934794
 30
0.0
  0
LINE
  5
1CB
330
1F
100
AcDbEntity
  8
0
  6
Continuous
 62
     7
370
    15
100
AcDbLine
 10
724.3853359118
 20
389.1830868368
 30
0.0
 11
684.3853368059
 21
389.1830868368
 31
0.0
  0
SPLINE
  5
1CC
330
1F
100
AcDbEntity
  8
0
  6
Continuous
 62
     7
370
    15
100
AcDbSpline
210
0.0
220
0.0
230
1.0
 70
     8
 71
     3
 72
    12
 73
     8
 74
     0
 42
0.00000001
 43
0.00000001
 12
1.0
 22
0.0
 32
0.0
 13
1.0
 23
0.0
 33
0.0
 40
0.0
 40
0.0
 40
0.0
 40
0.0
 40
0.5000000000000004
 40
0.5000000000000004
 40
0.7500000000000002
 40
0.7500000000000002
 40
1.0
 40
1.0
 40
1.0
 40
1.0
 10
731.3853363588531
 20
382.9649227934794
 30
0.0
 10
731.3853363588531
 20
384.5537590833002
 30
0.0
 10
730.6461357003093
 20
386.1418573183751
 30
0.0
 10
728.7282024121054
 20
387.8839211487781
 30
0.0
 10
727.9515058616504
 20
388.3619656894141
 30
0.0
 10
726.2466040723765
 20
389.0111588217895
 30
0.0
 10
725.324527185419
 20
389.1830832664887
 30
0.0
 10
724.3853363588531
 20
389.1830832664887
 30
0.0
  0
LINE
  5
1CD
330
1F
100
AcDbEntity
  8
0
  6
Continuous
 62
     7
370
    15
100
AcDbLine
 10
731.3853370592
 20
384.7326911335
 30
0.0
 11
731.3853370592
 21
382.9649216776
 31
0.0
  0
LINE
  5
1CE
330
1F
100
AcDbEntity
  8
0
  6
Continuous
 62
     7
370
    15
100
AcDbLine
 10
677.3853356585
 20
384.7326911335
 30
0.0
 11
677.3853356585
 21
382.9649216776
 31
0.0
  0
SPLINE
  5
1CF
330
1F
100
AcDbEntity
  8
0
  6
Continuous
 62
     7
370
    15
100
AcDbSpline
210
0.0
220
0.0
230
1.0
 70
     8
 71
     3
 72
    16
 73
    12
 74
     0
 42
0.00000001
 43
0.00000001
 12
1.0
 22
0.0
 32
0.0
 13
1.0
 23
0.0
 33
0.0
 40
0.0
 40
0.0
 40
0.0
 40
0.0
 40
0.1249999999999991
 40
0.1249999999999991
 40
0.2499999999999981
 40
0.2499999999999981
 40
0.3749999999999972
 40
0.3749999999999972
 40
0.4999999999999962
 40
0.4999999999999962
 40
1.0
 40
1.0
 40
1.0
 40
1.0
 10
726.3853363588531
 20
342.3062828752528
 30
0.0
 10
726.3853363588531
 20
342.2350434310702
 30
0.0
 10
726.3723818639347
 20
342.1651563976767
 30
0.0
 10
726.3223143644799
 20
342.0278955709198
 30
0.0
 10
726.2847037499166
 20
341.9599097742501
 30
0.0
 10
726.1862974612058
 20
341.8295991659359
 30
0.0
 10
726.1261775875557
 20
341.7677838880213
 30
0.0
 10
725.9840180840238
 20
341.650777711363
 30
0.0
 10
725.9008559154554
 20
341.5950899679078
 30
0.0
 10
725.4429311519854
 20
341.3453146848271
 30
0.0
 10
724.9209273586937
 20
341.2257409227063
 30
0.0
 10
724.3853363588531
 20
341.2257409227063
 30
0.0
  0
LINE
  5
1D0
330
1F
100
AcDbEntity
  8
0
  6
Continuous
 62
     7
370
    15
100
AcDbLine
 10
724.3853359118
 20
341.2257409935
 30
0.0
 11
684.3853368059
 21
341.2257409935
 31
0.0
  0
SPLINE
  5
1D1
330
1F
100
AcDbEntity
  8
0
  6
Continuous
 62
     7
370
    15
100
AcDbSpline
210
0.0
220
0.0
230
1.0
 70
     8
 71
     3
 72
    18
 73
    14
 74
     0
 42
0.00000001
 43
0.00000001
 12
1.0
 22
0.0
 32
0.0
 13
1.0
 23
0.0
 33
0.0
 40
0.0
 40
0.0
 40
0.0
 40
0.0
 40
0.1250000000000002
 40
0.1250000000000002
 40
0.2500000000000004
 40
0.2500000000000004
 40
0.3750000000000007
 40
0.3750000000000007
 40
0.5000000000000009
 40
0.5000000000000009
 40
0.7500000000000004
 40
0.7500000000000004
 40
1.0
 40
1.0
 40
1.0
 40
1.0
 10
684.3853363588531
 20
341.2257409227063
 30
0.0
 10
684.2514445872974
 20
341.2257409227063
 30
0.0
 10
684.120041684229
 20
341.2331348160051
 30
0.0
 10
683.8617799921617
 20
341.2614430179964
 30
0.0
 10
683.7335748100498
 20
341.2827143724925
 30
0.0
 10
683.4900779568178
 20
341.3374827660009
 30
0.0
 10
683.3746142373251
 20
341.3707966230294
 30
0.0
 10
683.1562973334496
 20
341.4494050943194
 30
0.0
 10
683.0536713169064
 20
341.49486996352
 30
0.0
 10
682.7795275351813
 20
341.6442121637367
 30
0.0
 10
682.634096194556
 20
341.7645710468411
 30
0.0
 10
682.4382159309636
 20
342.0232919079962
 30
0.0
 10
682.3853363588531
 20
342.1639149468302
 30
0.0
 10
682.3853363588531
 20
342.3062828752528
 30
0.0
  0
LINE
  5
1D2
330
1F
100
AcDbEntity
  8
0
  6
Continuous
 62
     7
370
    15
100
AcDbLine
 10
601.3853362396
 20
671.5920320993
 30
0.0
 11
582.3853349879
 21
671.5920320993
 31
0.0
  0
LINE
  5
1D3
330
1F
100
AcDbEntity
  8
0
  6
Continuous
 62
     7
370
    15
100
AcDbLine
 10
601.3853362396
 20
640.3888068443
 30
0.0
 11
601.3853362396
 21
671.5920320993
 31
0.0
  0
LINE
  5
1D4
330
1F
100
AcDbEntity
  8
0
  6
Continuous
 62
     7
370
    15
100
AcDbLine
 10
582.3853349879
 20
640.3888068443
 30
0.0
 11
582.3853349879
 21
671.5920320993
 31
0.0
  0
LINE
  5
1D5
330
1F
100
AcDbEntity
  8
0
  6
Continuous
 62
     7
370
    15
100
AcDbLine
 10
601.3853362396
 20
241.5920398479
 30
0.0
 11
582.3853349879
 21
241.5920398479
 31
0.0
  0
LINE
  5
1D6
330
1F
100
AcDbEntity
  8
0
  6
Continuous
 62
     7
370
    15
100
AcDbLine
 10
601.3853362396
 20
272.795280004
 30
0.0
 11
601.3853362396
 21
241.5920398479
 31
0.0
  0
LINE
  5
1D7
330
1F
100
AcDbEntity
  8
0
  6
Continuous
 62
     7
370
    15
100
AcDbLine
 10
582.3853349879
 20
272.795280004
 30
0.0
 11
582.3853349879
 21
241.5920398479
 31
0.0
  0
LINE
  5
1D8
330
1F
100
AcDbEntity
  8
0
  6
Continuous
 62
     7
370
    15
100
AcDbLine
 10
807.3853364781
 20
671.5920320993
 30
0.0
 11
826.3853377298
 21
671.5920320993
 31
0.0
  0
LINE
  5
1D9
330
1F
100
AcDbEntity
  8
0
  6
Continuous
 62
     7
370
    15
100
AcDbLine
 10
826.3853377298
 20
640.3888068443
 30
0.0
 11
826.3853377298
 21
671.5920320993
 31
0.0
  0
LINE
  5
1DA
330
1F
100
AcDbEntity
  8
0
  6
Continuous
 62
     7
370
    15
100
AcDbLine
 10
807.3853364781
 20
640.3888068443
 30
0.0
 11
807.3853364781
 21
671.5920320993
 31
0.0
  0
LINE
  5
1DB
330
1F
100
AcDbEntity
  8
0
  6
Continuous
 62
     7
370
    15
100
AcDbLine
 10
807.3853364781
 20
241.5920398479
 30
0.0
 11
826.3853377298
 21
241.5920398479
 31
0.0
  0
LINE
  5
1DC
330
1F
100
AcDbEntity
  8
0
  6
Continuous
 62
     7
370
    15
100
AcDbLine
 10
826.3853377298
 20
272.795280004
 30
0.0
 11
826.3853377298
 21
241.5920398479
 31
0.0
  0
LINE
  5
1DD
330
1F
100
AcDbEntity
  8
0
  6
Continuous
 62
     7
370
    15
100
AcDbLine
 10
807.3853364781
 20
272.795280004
 30
0.0
 11
807.3853364781
 21
241.5920398479
 31
0.0
  0
LINE
  5
1DE
330
1F
100
AcDbEntity
  8
0
  6
Continuous
 62
     7
370
    15
100
AcDbLine
 10
686.8853362843
 20
289.5920328145
 30
0.0
 11
721.8853364334
 21
289.5920328145
 31
0.0
  0
LINE
  5
1DF
330
1F
100
AcDbEntity
  8
0
  6
Continuous
 62
     7
370
    15
100
AcDbLine
 10
686.8853362843
 20
623.5920391326
 30
0.0
 11
721.8853364334
 21
623.5920391326
 31
0.0
  0
LINE
  5
1E0
330
1F
100
AcDbEntity
  8
0
  6
Continuous
 62
     8
370
     0
100
AcDbLine
 10
684.3853368059
 20
390.9508488422
 30
0.0
 11
684.3853368059
 21
389.1830868368
 31
0.0
  0
LINE
  5
1E1
330
1F
100
AcDbEntity
  8
0
  6
Continuous
 62
     8
370
     0
100
AcDbLine
 10
724.3853359118
 20
390.9508488422
 30
0.0
 11
724.3853359118
 21
389.1830868368
 31
0.0
  0
LINE
  5
1E2
330
1F
100
AcDbEntity
  8
0
  6
Continuous
 62
     8
370
     0
100
AcDbLine
 10
724.3853359118
 20
341.2257409935
 30
0.0
 11
724.3853359118
 21
339.4579715376
 31
0.0
  0
LINE
  5
1E3
330
1F
100
AcDbEntity
  8
0
  6
Continuous
 62
     8
370
     0
100
AcDbLine
 10
684.3853368059
 20
341.2257409935
 30
0.0
 11
684.3853368059
 21
339.4579715376
 31
0.0
  0
INSERT
  5
1EF
330
1F
100
AcDbEntity
  8
FORMAT
 62
     7
100
AcDbBlockReference
  2
SW_CENTERMARKSYMBOL_1
 10
704.3853363589
 20
461.5920386558
 30
0.0
  0
LINE
  5
1F0
330
1F
100
AcDbEntity
  8
0
  6
Continuous
 62
     7
370
    15
100
AcDbLine
 10
473.4552410756
 20
159.437253733
 30
0.0
 11
473.4552410756
 21
178.4372549847
 31
0.0
  0
LINE
  5
1F1
330
1F
100
AcDbEntity
  8
0
  6
Continuous
 62
     7
370
    15
100
AcDbLine
 10
68.4552398835
 20
178.4372549847
 30
0.0
 11
68.4552398835
 21
159.437253733
 31
0.0
  0
LINE
  5
1F2
330
1F
100
AcDbEntity
  8
0
  6
Continuous
 62
     7
370
    15
100
AcDbLine
 10
473.4552410756
 20
-65.5627477571
 30
0.0
 11
473.4552410756
 21
-46.5627465054
 31
0.0
  0
LINE
  5
1F3
330
1F
100
AcDbEntity
  8
0
  6
Continuous
 62
     7
370
    15
100
AcDbLine
 10
68.4552398835
 20
-46.5627465054
 30
0.0
 11
68.4552398835
 21
-65.5627477571
 31
0.0
  0
LINE
  5
1F4
330
1F
100
AcDbEntity
  8
0
  6
Continuous
 62
     7
370
    15
100
AcDbLine
 10
111.4552376186
 20
181.4372536138
 30
0.0
 11
111.4552376186
 21
178.4372549847
 31
0.0
  0
LINE
  5
1F5
330
1F
100
AcDbEntity
  8
0
  6
Continuous
 62
     7
370
    15
100
AcDbLine
 10
430.4552433406
 20
178.4372549847
 30
0.0
 11
430.4552433406
 21
181.4372536138
 31
0.0
  0
LINE
  5
1F6
330
1F
100
AcDbEntity
  8
0
  6
Continuous
 62
     7
370
    15
100
AcDbLine
 10
111.4552376186
 20
-65.5627477571
 30
0.0
 11
111.4552376186
 21
-68.5627463862
 31
0.0
  0
LINE
  5
1F7
330
1F
100
AcDbEntity
  8
0
  6
Continuous
 62
     7
370
    15
100
AcDbLine
 10
430.4552433406
 20
-68.5627463862
 30
0.0
 11
430.4552433406
 21
-65.5627477571
 31
0.0
  0
LINE
  5
1F8
330
1F
100
AcDbEntity
  8
0
  6
Continuous
 62
     7
370
    15
100
AcDbLine
 10
310.4985935007
 20
72.4562980577
 30
0.0
 11
309.4379325722
 21
72.4562980577
 31
0.0
  0
LINE
  5
1F9
330
1F
100
AcDbEntity
  8
0
  6
Continuous
 62
     7
370
    15
100
AcDbLine
 10
327.0043266331
 20
78.4157846466
 30
0.0
 11
325.9436284517
 21
78.4157846466
 31
0.0
  0
LINE
  5
1FA
330
1F
100
AcDbEntity
  8
0
  6
Continuous
 62
     7
370
    15
100
AcDbLine
 10
325.9436768805
 20
60.6775960296
 30
0.0
 11
327.0044011389
 21
60.6775960296
 31
0.0
  0
LINE
  5
1FB
330
1F
100
AcDbEntity
  8
0
  6
Continuous
 62
     7
370
    15
100
AcDbLine
 10
327.004363886
 20
52.196907007
 30
0.0
 11
325.9436284517
 21
52.196907007
 31
0.0
  0
LINE
  5
1FC
330
1F
100
AcDbEntity
  8
0
  6
Continuous
 62
     7
370
    15
100
AcDbLine
 10
325.9436768805
 20
31.7884419456
 30
0.0
 11
327.0044011389
 21
31.7884419456
 31
0.0
  0
LINE
  5
1FD
330
1F
100
AcDbEntity
  8
0
  6
Continuous
 62
     7
370
    15
100
AcDbLine
 10
36.9552431022
 20
-6.0627463862
 30
0.0
 11
54.455241314
 21
-6.0627463862
 31
0.0
  0
LINE
  5
1FE
330
1F
100
AcDbEntity
  8
0
  6
Continuous
 62
     7
370
    15
100
AcDbLine
 10
54.455241314
 20
118.9372536138
 30
0.0
 11
36.9552431022
 21
118.9372536138
 31
0.0
  0
LINE
  5
1FF
330
1F
100
AcDbEntity
  8
0
  6
Continuous
 62
     7
370
    15
100
AcDbLine
 10
531.9552478706
 20
118.9372536138
 30
0.0
 11
487.4552396451
 21
118.9372536138
 31
0.0
  0
LINE
  5
200
330
1F
100
AcDbEntity
  8
0
  6
Continuous
 62
     7
370
    15
100
AcDbLine
 10
487.4552396451
 20
-6.0627463862
 30
0.0
 11
531.9552478706
 21
-6.0627463862
 31
0.0
  0
LINE
  5
201
330
1F
100
AcDbEntity
  8
0
  6
Continuous
 62
     7
370
    15
100
AcDbLine
 10
-42.0447530831
 20
92.9372530773
 30
0.0
 11
-43.0447700108
 21
92.9372530773
 31
0.0
  0
LINE
  5
202
330
1F
100
AcDbEntity
  8
0
  6
Continuous
 62
     7
370
    15
100
AcDbLine
 10
-43.0447700108
 20
19.9372541502
 30
0.0
 11
-42.0447530831
 21
19.9372541502
 31
0.0
  0
LINE
  5
203
330
1F
100
AcDbEntity
  8
0
  6
Continuous
 62
     7
370
    15
100
AcDbLine
 10
36.9552431022
 20
125.4372518852
 30
0.0
 11
6.545251361
 21
125.4372518852
 31
0.0
  0
LINE
  5
204
330
1F
100
AcDbEntity
  8
0
  6
Continuous
 62
     7
370
    15
100
AcDbLine
 10
-12.9947605218
 20
125.4372518852
 30
0.0
 11
-42.0447530831
 21
125.4372518852
 31
0.0
  0
LINE
  5
205
330
1F
100
AcDbEntity
  8
0
  6
Continuous
 62
     7
370
    15
100
AcDbLine
 10
355.9552413736
 20
159.437253733
 30
0.0
 11
355.9552413736
 21
178.4372549847
 31
0.0
  0
LINE
  5
206
330
1F
100
AcDbEntity
  8
0
  6
Continuous
 62
     7
370
    15
100
AcDbLine
 10
320.9552412246
 20
159.437253733
 30
0.0
 11
355.9552413736
 21
159.437253733
 31
0.0
  0
LINE
  5
207
330
1F
100
AcDbEntity
  8
0
  6
Continuous
 62
     7
370
    15
100
AcDbLine
 10
320.9552412246
 20
159.437253733
 30
0.0
 11
320.9552412246
 21
178.4372549847
 31
0.0
  0
LINE
  5
208
330
1F
100
AcDbEntity
  8
0
  6
Continuous
 62
     7
370
    15
100
AcDbLine
 10
320.9552412246
 20
178.4372549847
 30
0.0
 11
355.9552413736
 21
178.4372549847
 31
0.0
  0
LINE
  5
209
330
1F
100
AcDbEntity
  8
0
  6
Continuous
 62
     7
370
    15
100
AcDbLine
 10
220.9552397345
 20
159.437253733
 30
0.0
 11
220.9552397345
 21
178.4372549847
 31
0.0
  0
LINE
  5
20A
330
1F
100
AcDbEntity
  8
0
  6
Continuous
 62
     7
370
    15
100
AcDbLine
 10
185.9552395855
 20
159.437253733
 30
0.0
 11
220.9552397345
 21
159.437253733
 31
0.0
  0
LINE
  5
20B
330
1F
100
AcDbEntity
  8
0
  6
Continuous
 62
     7
370
    15
100
AcDbLine
 10
185.9552395855
 20
178.4372549847
 30
0.0
 11
220.9552397345
 21
178.4372549847
 31
0.0
  0
LINE
  5
20C
330
1F
100
AcDbEntity
  8
0
  6
Continuous
 62
     7
370
    15
100
AcDbLine
 10
185.9552395855
 20
159.437253733
 30
0.0
 11
185.9552395855
 21
178.4372549847
 31
0.0
  0
LINE
  5
20D
330
1F
100
AcDbEntity
  8
0
  6
Continuous
 62
     7
370
    15
100
AcDbLine
 10
310.9552395855
 20
159.437253733
 30
0.0
 11
320.9552412246
 21
159.437253733
 31
0.0
  0
LINE
  5
20E
330
1F
100
AcDbEntity
  8
0
  6
Continuous
 62
     7
370
    15
100
AcDbLine
 10
310.9552395855
 20
159.437253733
 30
0.0
 11
310.9552395855
 21
178.4372549847
 31
0.0
  0
LINE
  5
20F
330
1F
100
AcDbEntity
  8
0
  6
Continuous
 62
     7
370
    15
100
AcDbLine
 10
310.9552395855
 20
178.4372549847
 30
0.0
 11
320.9552412246
 21
178.4372549847
 31
0.0
  0
LINE
  5
210
330
1F
100
AcDbEntity
  8
0
  6
Continuous
 62
     7
370
    15
100
AcDbLine
 10
230.9552413736
 20
159.437253733
 30
0.0
 11
230.9552413736
 21
178.4372549847
 31
0.0
  0
LINE
  5
211
330
1F
100
AcDbEntity
  8
0
  6
Continuous
 62
     7
370
    15
100
AcDbLine
 10
220.9552397345
 20
159.437253733
 30
0.0
 11
230.9552413736
 21
159.437253733
 31
0.0
  0
LINE
  5
212
330
1F
100
AcDbEntity
  8
0
  6
Continuous
 62
     7
370
    15
100
AcDbLine
 10
220.9552397345
 20
178.4372549847
 30
0.0
 11
230.9552413736
 21
178.4372549847
 31
0.0
  0
LINE
  5
213
330
1F
100
AcDbEntity
  8
0
  6
Continuous
 62
     7
370
    15
100
AcDbLine
 10
320.9552412246
 20
-46.5627465054
 30
0.0
 11
320.9552412246
 21
-65.5627477571
 31
0.0
  0
LINE
  5
214
330
1F
100
AcDbEntity
  8
0
  6
Continuous
 62
     7
370
    15
100
AcDbLine
 10
320.9552412246
 20
-46.5627465054
 30
0.0
 11
355.9552413736
 21
-46.5627465054
 31
0.0
  0
LINE
  5
215
330
1F
100
AcDbEntity
  8
0
  6
Continuous
 62
     7
370
    15
100
AcDbLine
 10
320.9552412246
 20
-65.5627477571
 30
0.0
 11
355.9552413736
 21
-65.5627477571
 31
0.0
  0
LINE
  5
216
330
1F
100
AcDbEntity
  8
0
  6
Continuous
 62
     7
370
    15
100
AcDbLine
 10
355.9552413736
 20
-46.5627465054
 30
0.0
 11
355.9552413736
 21
-65.5627477571
 31
0.0
  0
LINE
  5
217
330
1F
100
AcDbEntity
  8
0
  6
Continuous
 62
     7
370
    15
100
AcDbLine
 10
220.9552397345
 20
-46.5627465054
 30
0.0
 11
220.9552397345
 21
-65.5627477571
 31
0.0
  0
LINE
  5
218
330
1F
100
AcDbEntity
  8
0
  6
Continuous
 62
     7
370
    15
100
AcDbLine
 10
185.9552395855
 20
-65.5627477571
 30
0.0
 11
220.9552397345
 21
-65.5627477571
 31
0.0
  0
LINE
  5
219
330
1F
100
AcDbEntity
  8
0
  6
Continuous
 62
     7
370
    15
100
AcDbLine
 10
185.9552395855
 20
-46.5627465054
 30
0.0
 11
220.9552397345
 21
-46.5627465054
 31
0.0
  0
LINE
  5
21A
330
1F
100
AcDbEntity
  8
0
  6
Continuous
 62
     7
370
    15
100
AcDbLine
 10
185.9552395855
 20
-46.5627465054
 30
0.0
 11
185.9552395855
 21
-65.5627477571
 31
0.0
  0
LINE
  5
21B
330
1F
100
AcDbEntity
  8
0
  6
Continuous
 62
     7
370
    15
100
AcDbLine
 10
310.9552395855
 20
-46.5627465054
 30
0.0
 11
310.9552395855
 21
-65.5627477571
 31
0.0
  0
LINE
  5
21C
330
1F
100
AcDbEntity
  8
0
  6
Continuous
 62
     7
370
    15
100
AcDbLine
 10
310.9552395855
 20
-65.5627477571
 30
0.0
 11
320.9552412246
 21
-65.5627477571
 31
0.0
  0
LINE
  5
21D
330
1F
100
AcDbEntity
  8
0
  6
Continuous
 62
     7
370
    15
100
AcDbLine
 10
310.9552395855
 20
-46.5627465054
 30
0.0
 11
320.9552412246
 21
-46.5627465054
 31
0.0
  0
LINE
  5
21E
330
1F
100
AcDbEntity
  8
0
  6
Continuous
 62
     7
370
    15
100
AcDbLine
 10
230.9552413736
 20
-46.5627465054
 30
0.0
 11
230.9552413736
 21
-65.5627477571
 31
0.0
  0
LINE
  5
21F
330
1F
100
AcDbEntity
  8
0
  6
Continuous
 62
     7
370
    15
100
AcDbLine
 10
220.9552397345
 20
-65.5627477571
 30
0.0
 11
230.9552413736
 21
-65.5627477571
 31
0.0
  0
LINE
  5
220
330
1F
100
AcDbEntity
  8
0
  6
Continuous
 62
     7
370
    15
100
AcDbLine
 10
220.9552397345
 20
-46.5627465054
 30
0.0
 11
230.9552413736
 21
-46.5627465054
 31
0.0
  0
LINE
  5
221
330
1F
100
AcDbEntity
  8
0
  6
Continuous
 62
     7
370
    15
100
AcDbLine
 10
275.9552403678
 20
159.437253733
 30
0.0
 11
275.9552403678
 21
178.4372549847
 31
0.0
  0
LINE
  5
222
330
1F
100
AcDbEntity
  8
0
  6
Continuous
 62
     7
370
    15
100
AcDbLine
 10
275.9552403678
 20
159.437253733
 30
0.0
 11
310.9552395855
 21
159.437253733
 31
0.0
  0
LINE
  5
223
330
1F
100
AcDbEntity
  8
0
  6
Continuous
 62
     7
370
    15
100
AcDbLine
 10
275.9552403678
 20
178.4372549847
 30
0.0
 11
310.9552395855
 21
178.4372549847
 31
0.0
  0
LINE
  5
224
330
1F
100
AcDbEntity
  8
0
  6
Continuous
 62
     7
370
    15
100
AcDbLine
 10
265.9552405913
 20
159.437253733
 30
0.0
 11
265.9552405913
 21
178.4372549847
 31
0.0
  0
LINE
  5
225
330
1F
100
AcDbEntity
  8
0
  6
Continuous
 62
     7
370
    15
100
AcDbLine
 10
270.9552404796
 20
159.437253733
 30
0.0
 11
270.9552404796
 21
178.4372549847
 31
0.0
  0
LINE
  5
226
330
1F
100
AcDbEntity
  8
0
  6
Continuous
 62
     7
370
    15
100
AcDbLine
 10
265.9552405913
 20
159.437253733
 30
0.0
 11
270.9552404796
 21
159.437253733
 31
0.0
  0
LINE
  5
227
330
1F
100
AcDbEntity
  8
0
  6
Continuous
 62
     7
370
    15
100
AcDbLine
 10
270.9552404796
 20
178.4372549847
 30
0.0
 11
265.9552405913
 21
178.4372549847
 31
0.0
  0
LINE
  5
228
330
1F
100
AcDbEntity
  8
0
  6
Continuous
 62
     7
370
    15
100
AcDbLine
 10
270.9552404796
 20
159.437253733
 30
0.0
 11
275.9552403678
 21
159.437253733
 31
0.0
  0
LINE
  5
229
330
1F
100
AcDbEntity
  8
0
  6
Continuous
 62
     7
370
    15
100
AcDbLine
 10
275.9552403678
 20
178.4372549847
 30
0.0
 11
270.9552404796
 21
178.4372549847
 31
0.0
  0
LINE
  5
22A
330
1F
100
AcDbEntity
  8
0
  6
Continuous
 62
     7
370
    15
100
AcDbLine
 10
230.9552413736
 20
159.437253733
 30
0.0
 11
265.9552405913
 21
159.437253733
 31
0.0
  0
LINE
  5
22B
330
1F
100
AcDbEntity
  8
0
  6
Continuous
 62
     7
370
    15
100
AcDbLine
 10
230.9552413736
 20
178.4372549847
 30
0.0
 11
265.9552405913
 21
178.4372549847
 31
0.0
  0
LINE
  5
22C
330
1F
100
AcDbEntity
  8
0
  6
Continuous
 62
     7
370
    15
100
AcDbLine
 10
265.9552405913
 20
-46.5627465054
 30
0.0
 11
265.9552405913
 21
-65.5627477571
 31
0.0
  0
LINE
  5
22D
330
1F
100
AcDbEntity
  8
0
  6
Continuous
 62
     7
370
    15
100
AcDbLine
 10
270.9552404796
 20
-65.5627477571
 30
0.0
 11
270.9552404796
 21
-46.5627465054
 31
0.0
  0
LINE
  5
22E
330
1F
100
AcDbEntity
  8
0
  6
Continuous
 62
     7
370
    15
100
AcDbLine
 10
265.9552405913
 20
-65.5627477571
 30
0.0
 11
270.9552404796
 21
-65.5627477571
 31
0.0
  0
LINE
  5
22F
330
1F
100
AcDbEntity
  8
0
  6
Continuous
 62
     7
370
    15
100
AcDbLine
 10
270.9552404796
 20
-46.5627465054
 30
0.0
 11
265.9552405913
 21
-46.5627465054
 31
0.0
  0
LINE
  5
230
330
1F
100
AcDbEntity
  8
0
  6
Continuous
 62
     7
370
    15
100
AcDbLine
 10
230.9552413736
 20
-65.5627477571
 30
0.0
 11
265.9552405913
 21
-65.5627477571
 31
0.0
  0
LINE
  5
231
330
1F
100
AcDbEntity
  8
0
  6
Continuous
 62
     7
370
    15
100
AcDbLine
 10
230.9552413736
 20
-46.5627465054
 30
0.0
 11
265.9552405913
 21
-46.5627465054
 31
0.0
  0
LINE
  5
232
330
1F
100
AcDbEntity
  8
0
  6
Continuous
 62
     7
370
    15
100
AcDbLine
 10
275.9552403678
 20
-65.5627477571
 30
0.0
 11
275.9552403678
 21
-46.5627465054
 31
0.0
  0
LINE
  5
233
330
1F
100
AcDbEntity
  8
0
  6
Continuous
 62
     7
370
    15
100
AcDbLine
 10
270.9552404796
 20
-65.5627477571
 30
0.0
 11
275.9552403678
 21
-65.5627477571
 31
0.0
  0
LINE
  5
234
330
1F
100
AcDbEntity
  8
0
  6
Continuous
 62
     7
370
    15
100
AcDbLine
 10
275.9552403678
 20
-46.5627465054
 30
0.0
 11
270.9552404796
 21
-46.5627465054
 31
0.0
  0
LINE
  5
235
330
1F
100
AcDbEntity
  8
0
  6
Continuous
 62
     7
370
    15
100
AcDbLine
 10
275.9552403678
 20
-65.5627477571
 30
0.0
 11
310.9552395855
 21
-65.5627477571
 31
0.0
  0
LINE
  5
236
330
1F
100
AcDbEntity
  8
0
  6
Continuous
 62
     7
370
    15
100
AcDbLine
 10
275.9552403678
 20
-46.5627465054
 30
0.0
 11
310.9552395855
 21
-46.5627465054
 31
0.0
  0
LINE
  5
237
330
1F
100
AcDbEntity
  8
0
  6
Continuous
 62
     7
370
    15
100
AcDbLine
 10
355.9552413736
 20
159.437253733
 30
0.0
 11
473.4552410756
 21
159.437253733
 31
0.0
  0
LINE
  5
238
330
1F
100
AcDbEntity
  8
0
  6
Continuous
 62
     7
370
    15
100
AcDbLine
 10
355.9552413736
 20
178.4372549847
 30
0.0
 11
473.4552410756
 21
178.4372549847
 31
0.0
  0
LINE
  5
239
330
1F
100
AcDbEntity
  8
0
  6
Continuous
 62
     7
370
    15
100
AcDbLine
 10
68.4552398835
 20
159.437253733
 30
0.0
 11
185.9552395855
 21
159.437253733
 31
0.0
  0
LINE
  5
23A
330
1F
100
AcDbEntity
  8
0
  6
Continuous
 62
     7
370
    15
100
AcDbLine
 10
68.4552398835
 20
178.4372549847
 30
0.0
 11
185.9552395855
 21
178.4372549847
 31
0.0
  0
LINE
  5
23B
330
1F
100
AcDbEntity
  8
0
  6
Continuous
 62
     7
370
    15
100
AcDbLine
 10
355.9552413736
 20
-65.5627477571
 30
0.0
 11
473.4552410756
 21
-65.5627477571
 31
0.0
  0
LINE
  5
23C
330
1F
100
AcDbEntity
  8
0
  6
Continuous
 62
     7
370
    15
100
AcDbLine
 10
355.9552413736
 20
-46.5627465054
 30
0.0
 11
473.4552410756
 21
-46.5627465054
 31
0.0
  0
LINE
  5
23D
330
1F
100
AcDbEntity
  8
0
  6
Continuous
 62
     7
370
    15
100
AcDbLine
 10
68.4552398835
 20
-65.5627477571
 30
0.0
 11
185.9552395855
 21
-65.5627477571
 31
0.0
  0
LINE
  5
23E
330
1F
100
AcDbEntity
  8
0
  6
Continuous
 62
     7
370
    15
100
AcDbLine
 10
68.4552398835
 20
-46.5627465054
 30
0.0
 11
185.9552395855
 21
-46.5627465054
 31
0.0
  0
CIRCLE
  5
23F
330
1F
100
AcDbEntity
  8
0
  6
Continuous
 62
     7
370
    15
100
AcDbCircle
 10
-3.5447595204
 20
-14.5627463862
 30
0.0
 40
10.0
  0
CIRCLE
  5
240
330
1F
100
AcDbEntity
  8
0
  6
Continuous
 62
     7
370
    15
100
AcDbCircle
 10
270.9552404796
 20
56.4372536138
 30
0.0
 40
17.5
  0
SPLINE
  5
241
330
1F
100
AcDbEntity
  8
0
  6
Continuous
 62
     7
370
    15
100
AcDbSpline
210
0.0
220
0.0
230
1.0
 70
     8
 71
     3
 72
   102
 73
    98
 74
     0
 42
0.00000001
 43
0.00000001
 12
1.0
 22
0.0
 32
0.0
 13
1.0
 23
0.0
 33
0.0
 40
-0.0312499999999999
 40
-0.0312499999999999
 40
0.0
 40
0.0
 40
0.0312500000000001
 40
0.0312500000000001
 40
0.0468750000000002
 40
0.0468750000000002
 40
0.0625000000000002
 40
0.0625000000000002
 40
0.0937500000000002
 40
0.0937500000000002
 40
0.1093750000000003
 40
0.1093750000000003
 40
0.1250000000000003
 40
0.1250000000000003
 40
0.1562500000000003
 40
0.1562500000000003
 40
0.1718750000000003
 40
0.1718750000000003
 40
0.1875000000000003
 40
0.1875000000000003
 40
0.2031250000000003
 40
0.2031250000000003
 40
0.2187500000000004
 40
0.2187500000000004
 40
0.2500000000000004
 40
0.2500000000000004
 40
0.2656250000000004
 40
0.2656250000000004
 40
0.2812500000000003
 40
0.2812500000000003
 40
0.3125000000000003
 40
0.3125000000000003
 40
0.3281250000000003
 40
0.3281250000000003
 40
0.3437500000000003
 40
0.3437500000000003
 40
0.3750000000000004
 40
0.3750000000000004
 40
0.4062500000000004
 40
0.4062500000000004
 40
0.4218750000000004
 40
0.4218750000000004
 40
0.4375000000000004
 40
0.4375000000000004
 40
0.4687500000000004
 40
0.4687500000000004
 40
0.4843750000000004
 40
0.4843750000000004
 40
0.5000000000000003
 40
0.5000000000000003
 40
0.5312500000000003
 40
0.5312500000000003
 40
0.5468750000000004
 40
0.5468750000000004
 40
0.5625000000000004
 40
0.5625000000000004
 40
0.5781250000000006
 40
0.5781250000000006
 40
0.5937500000000007
 40
0.5937500000000007
 40
0.6250000000000007
 40
0.6250000000000007
 40
0.6406250000000008
 40
0.6406250000000008
 40
0.6562500000000008
 40
0.6562500000000008
 40
0.6875000000000008
 40
0.6875000000000008
 40
0.7031250000000008
 40
0.7031250000000008
 40
0.7187500000000008
 40
0.7187500000000008
 40
0.7500000000000007
 40
0.7500000000000007
 40
0.7812500000000006
 40
0.7812500000000006
 40
0.7968750000000006
 40
0.7968750000000006
 40
0.8125000000000004
 40
0.8125000000000004
 40
0.8437500000000004
 40
0.8437500000000004
 40
0.8593750000000003
 40
0.8593750000000003
 40
0.8750000000000003
 40
0.8750000000000003
 40
0.9062500000000002
 40
0.9062500000000002
 40
0.9218750000000002
 40
0.9218750000000002
 40
0.9375000000000001
 40
0.9375000000000001
 40
0.9531250000000001
 40
0.9531250000000001
 40
0.9687500000000001
 40
0.9687500000000001
 40
1.0
 40
1.0
 40
1.03125
 40
1.03125
 10
257.0385842697315
 20
68.46897337625352
 30
0.0
 10
258.7430134228367
 20
70.18999185153511
 30
0.0
 10
259.6653924504859
 20
70.95269696138111
 30
0.0
 10
261.1502484489873
 20
71.95630762730931
 30
0.0
 10
261.6622081043707
 20
72.26725949350346
 30
0.0
 10
262.7209929672524
 20
72.84092785951428
 30
0.0
 10
263.2696758278189
 20
73.1040921054569
 30
0.0
 10
264.93313759
 20
73.80350201087019
 30
0.0
 10
266.0755325327884
 20
74.15699328022225
 30
0.0
 10
267.8390134625437
 20
74.51937098538453
 30
0.0
 10
268.4371998628122
 20
74.61218479874154
 30
0.0
 10
269.642223824633
 20
74.73829774882928
 30
0.0
 10
270.2431379052213
 20
74.77118610457262
 30
0.0
 10
272.0412363046271
 20
74.78220118411818
 30
0.0
 10
273.2338199398857
 20
74.6735074296616
 30
0.0
 10
275.0132668247975
 20
74.33236212148023
 30
0.0
 10
275.6042132101566
 20
74.18843382348076
 30
0.0
 10
276.7567843726961
 20
73.84708753320163
 30
0.0
 10
277.3217810857016
 20
73.64911268621496
 30
0.0
 10
278.4295831526504
 20
73.1994061822736
 30
0.0
 10
278.972388350054
 20
72.94767430983605
 30
0.0
 10
280.0355523278036
 20
72.38972679323948
 30
0.0
 10
280.558627454301
 20
72.08163953503852
 30
0.0
 10
282.0704964498232
 20
71.08728792657246
 30
0.0
 10
282.9995702020431
 20
70.33543065739936
 30
0.0
 10
284.2782054393468
 20
69.07723413301392
 30
0.0
 10
284.685115020594
 20
68.63594212925076
 30
0.0
 10
285.4591510341112
 20
67.70811342599889
 30
0.0
 10
285.8230391886224
 20
67.22506252580416
 30
0.0
 10
286.8333165234457
 20
65.73792484755052
 30
0.0
 10
287.4051678314538
 20
64.68905342185529
 30
0.0
 10
288.1089811818628
 20
63.02835204643113
 30
0.0
 10
288.3185799191717
 20
62.45688318772509
 30
0.0
 10
288.6771437358652
 20
61.30560511365737
 30
0.0
 10
288.8269462147849
 20
60.72474307804441
 30
0.0
 10
289.1898969998249
 20
58.96681885172332
 30
0.0
 10
289.3174436041695
 20
57.77456782294939
 30
0.0
 10
289.3338664257284
 20
55.34767043350379
 30
0.0
 10
289.2222307024612
 20
54.15180613570514
 30
0.0
 10
288.8828213877877
 20
52.38884591308462
 30
0.0
 10
288.7408127455852
 20
51.80604722893798
 30
0.0
 10
288.3978048241972
 20
50.65035640964086
 30
0.0
 10
288.1958524506401
 20
50.07597787433734
 30
0.0
 10
287.5139680875528
 20
48.40510959606944
 30
0.0
 10
286.9558727030532
 20
47.34820043322183
 30
0.0
 10
285.9649994031784
 20
45.84712023836769
 30
0.0
 10
285.6072556026662
 20
45.35892262391634
 30
0.0
 10
284.8458069553885
 20
44.4212101264703
 30
0.0
 10
284.4448653860795
 20
43.9746513898389
 30
0.0
 10
283.1831530732061
 20
42.69974824138434
 30
0.0
 10
282.2640642002352
 20
41.93555197085548
 30
0.0
 10
280.7650344936654
 20
40.92099372689394
 30
0.0
 10
280.2463629144508
 20
40.60620682689518
 30
0.0
 10
279.191110532769
 20
40.03446455872706
 30
0.0
 10
278.6518971292423
 20
39.77565675056134
 30
0.0
 10
277.5505552320188
 20
39.31145218340458
 30
0.0
 10
276.9884269161431
 20
39.106055176723
 30
0.0
 10
275.8408527006778
 20
38.74951894359361
 30
0.0
 10
275.252050363314
 20
38.59777164076507
 30
0.0
 10
273.4770606039662
 20
38.23291683163882
 30
0.0
 10
272.286052314678
 20
38.10839556627616
 30
0.0
 10
270.4882777628665
 20
38.09547167967602
 30
0.0
 10
269.8871293606675
 20
38.12034757463699
 30
0.0
 10
268.6809317770221
 20
38.2303381708436
 30
0.0
 10
268.0810438138929
 20
38.31522489205709
 30
0.0
 10
266.3122619494552
 20
38.65421528367488
 30
0.0
 10
265.1649382887
 20
38.99261068295691
 30
0.0
 10
263.4919654608537
 20
39.67005088230884
 30
0.0
 10
262.9397980997063
 20
39.92594326885325
 30
0.0
 10
261.8734812057263
 20
40.4855346522041
 30
0.0
 10
261.3573942402584
 20
40.78969742034088
 30
0.0
 10
259.8591201023303
 20
41.77370036984342
 30
0.0
 10
258.9256649719952
 20
42.52508513893484
 30
0.0
 10
257.199410407835
 20
44.22269447626246
 30
0.0
 10
256.4335657552173
 20
45.14212426769944
 30
0.0
 10
255.424957839028
 20
46.62356385510714
 30
0.0
 10
255.1122906230871
 20
47.13455310127789
 30
0.0
 10
254.5351716601541
 20
48.19180413475726
 30
0.0
 10
254.2704146039285
 20
48.73964845956774
 30
0.0
 10
253.5665594045876
 20
50.40064779295771
 30
0.0
 10
253.2102822314581
 20
51.54201370898664
 30
0.0
 10
252.8443998077805
 20
53.30499674914212
 30
0.0
 10
252.7505021207705
 20
53.90349399074088
 30
0.0
 10
252.6226949423958
 20
55.10796626324051
 30
0.0
 10
252.5890952040297
 20
55.70870596672837
 30
0.0
 10
252.5763992931623
 20
57.50657311746217
 30
0.0
 10
252.6845672204038
 20
58.69938927554012
 30
0.0
 10
253.0261276113321
 20
60.47976392921032
 30
0.0
 10
253.170207606024
 20
61.07027294440233
 30
0.0
 10
253.5121149294555
 20
62.22226437750223
 30
0.0
 10
253.7105039894609
 20
62.78703041448141
 30
0.0
 10
254.1613331502783
 20
63.89447632327601
 30
0.0
 10
254.4137733089154
 20
64.43715610619459
 30
0.0
 10
254.9734714695054
 20
65.50016263720067
 30
0.0
 10
255.2823782910228
 20
66.02282778421984
 30
0.0
 10
256.2802648119603
 20
67.5345920286645
 30
0.0
 10
257.0385842697315
 20
68.46897337625352
 30
0.0
 10
258.7430134228367
 20
70.18999185153511
 30
0.0
  0
LINE
  5
242
330
1F
100
AcDbEntity
  8
0
  6
Continuous
 62
     7
370
    15
100
AcDbLine
 10
270.9552404796
 20
181.4372536138
 30
0.0
 11
430.4552433406
 21
181.4372536138
 31
0.0
  0
LINE
  5
243
330
1F
100
AcDbEntity
  8
0
  6
Continuous
 62
     7
370
    15
100
AcDbLine
 10
111.4552376186
 20
181.4372536138
 30
0.0
 11
270.9552404796
 21
181.4372536138
 31
0.0
  0
LINE
  5
244
330
1F
100
AcDbEntity
  8
0
  6
Continuous
 62
     7
370
    15
100
AcDbLine
 10
270.9552404796
 20
-68.5627463862
 30
0.0
 11
430.4552433406
 21
-68.5627463862
 31
0.0
  0
LINE
  5
245
330
1F
100
AcDbEntity
  8
0
  6
Continuous
 62
     7
370
    15
100
AcDbLine
 10
111.4552376186
 20
-68.5627463862
 30
0.0
 11
270.9552404796
 21
-68.5627463862
 31
0.0
  0
LWPOLYLINE
  5
246
330
1F
100
AcDbEntity
  8
0
  6
Continuous
 62
     7
370
    15
100
AcDbPolyline
 90
        3
 70
   128
 43
0.0
 10
405.3752926503
 20
123.7200495198
 10
408.3671030913
 20
131.905428727
 10
418.4264299785
 20
159.437253733
  0
LINE
  5
247
330
1F
100
AcDbEntity
  8
0
  6
Continuous
 62
     7
370
    15
100
AcDbLine
 10
136.5351883088
 20
123.7200495198
 30
0.0
 11
405.3752926503
 21
123.7200495198
 31
0.0
  0
LWPOLYLINE
  5
248
330
1F
100
AcDbEntity
  8
0
  6
Continuous
 62
     7
370
    15
100
AcDbPolyline
 90
        3
 70
   128
 43
0.0
 10
123.4840509807
 20
159.437253733
 10
133.5430649434
 20
131.9062855437
 10
136.5351883088
 20
123.7200495198
  0
LWPOLYLINE
  5
249
330
1F
100
AcDbEntity
  8
0
  6
Continuous
 62
     7
370
    15
100
AcDbPolyline
 90
        3
 70
   128
 43
0.0
 10
418.4264299785
 20
-46.5627465054
 10
408.3671030913
 20
-19.0309214994
 10
405.3752926503
 20
-10.8455422923
  0
LWPOLYLINE
  5
24A
330
1F
100
AcDbEntity
  8
0
  6
Continuous
 62
     7
370
    15
100
AcDbPolyline
 90
        3
 70
   128
 43
0.0
 10
136.5351883088
 20
-10.8455422923
 10
133.5430649434
 20
-19.0317783162
 10
123.4840509807
 20
-46.5627465054
  0
LINE
  5
24B
330
1F
100
AcDbEntity
  8
0
  6
Continuous
 62
     7
370
    15
100
AcDbLine
 10
136.5351883088
 20
-10.8455422923
 30
0.0
 11
405.3752926503
 21
-10.8455422923
 31
0.0
  0
SPLINE
  5
24C
330
1F
100
AcDbEntity
  8
0
  6
Continuous
 62
     7
370
    15
100
AcDbSpline
210
0.0
220
0.0
230
1.0
 70
     8
 71
     3
 72
    26
 73
    22
 74
     0
 42
0.00000001
 43
0.00000001
 12
1.0
 22
0.0
 32
0.0
 13
1.0
 23
0.0
 33
0.0
 40
0.0
 40
0.0
 40
0.0
 40
0.0
 40
0.0624999999999997
 40
0.0624999999999997
 40
0.1249999999999995
 40
0.1249999999999995
 40
0.2499999999999992
 40
0.2499999999999992
 40
0.3749999999999989
 40
0.3749999999999989
 40
0.4999999999999988
 40
0.4999999999999988
 40
0.6249999999999984
 40
0.6249999999999984
 40
0.6874999999999987
 40
0.6874999999999987
 40
0.7499999999999988
 40
0.7499999999999988
 40
0.8749999999999994
 40
0.8749999999999994
 40
1.0
 40
1.0
 40
1.0
 40
1.0
 10
140.3191954956817
 20
63.93725361377549
 30
0.0
 10
140.2756289476085
 20
64.58466177300895
 30
0.0
 10
140.2266517277188
 20
65.22815840379465
 30
0.0
 10
140.1182331004399
 20
66.5071762260544
 30
0.0
 10
140.0590470708351
 20
67.13932430423424
 30
0.0
 10
139.8695382388518
 20
68.99711156883417
 30
0.0
 10
139.7266883389053
 20
70.19141969144299
 30
0.0
 10
139.4152439871229
 20
72.4943429293985
 30
0.0
 10
139.246629753537
 20
73.6029601626117
 30
0.0
 10
138.8904908619052
 20
75.73250650433891
 30
0.0
 10
138.7063106491614
 20
76.73347782617941
 30
0.0
 10
138.3358323571556
 20
78.60332173761488
 30
0.0
 10
138.1492031747532
 20
79.47400100239344
 30
0.0
 10
137.8729011150798
 20
80.68311996106999
 30
0.0
 10
137.7814050994858
 20
81.0699543735913
 30
0.0
 10
137.6005809924477
 20
81.81041884880787
 30
0.0
 10
137.5118682261845
 20
82.1614919203359
 30
0.0
 10
137.2537646080462
 20
83.15145915707248
 30
0.0
 10
137.0916527035074
 20
83.73050377739477
 30
0.0
 10
136.7929237044082
 20
84.72896068747707
 30
0.0
 10
136.6562880428924
 20
85.14839138358857
 30
0.0
 10
136.5351898918769
 20
85.48462871033112
 30
0.0
  0
LINE
  5
24D
330
1F
100
AcDbEntity
  8
0
  6
Continuous
 62
     7
370
    15
100
AcDbLine
 10
136.5351883088
 20
123.7200495198
 30
0.0
 11
136.5351883088
 21
85.4846291587
 31
0.0
  0
LINE
  5
24E
330
1F
100
AcDbEntity
  8
0
  6
Continuous
 62
     7
370
    15
100
AcDbLine
 10
405.3752926503
 20
85.4846291587
 30
0.0
 11
405.3752926503
 21
123.7200495198
 31
0.0
  0
SPLINE
  5
24F
330
1F
100
AcDbEntity
  8
0
  6
Continuous
 62
     7
370
    15
100
AcDbSpline
210
0.0
220
0.0
230
1.0
 70
     8
 71
     3
 72
    30
 73
    26
 74
     0
 42
0.00000001
 43
0.00000001
 12
1.0
 22
0.0
 32
0.0
 13
1.0
 23
0.0
 33
0.0
 40
0.0
 40
0.0
 40
0.0
 40
0.0
 40
0.0624999999999999
 40
0.0624999999999999
 40
0.1249999999999998
 40
0.1249999999999998
 40
0.2499999999999996
 40
0.2499999999999996
 40
0.3124999999999994
 40
0.3124999999999994
 40
0.3749999999999992
 40
0.3749999999999992
 40
0.4999999999999992
 40
0.4999999999999992
 40
0.6249999999999992
 40
0.6249999999999992
 40
0.6874999999999993
 40
0.6874999999999993
 40
0.7499999999999993
 40
0.7499999999999993
 40
0.8749999999999997
 40
0.8749999999999997
 40
0.9374999999999999
 40
0.9374999999999999
 40
1.0
 40
1.0
 40
1.0
 40
1.0
 10
405.3752910672782
 20
85.48462871033111
 30
0.0
 10
405.3150173781428
 20
85.31727467612143
 30
0.0
 10
405.2500671160302
 20
85.12685807744822
 30
0.0
 10
405.1129973374266
 20
84.70462653045604
 30
0.0
 10
405.041015500714
 20
84.47331537602875
 30
0.0
 10
404.8158971179549
 20
83.72033054931744
 30
0.0
 10
404.6535845579497
 20
83.1398708101141
 30
0.0
 10
404.3963363381913
 20
82.1525440414401
 30
0.0
 10
404.3082901463949
 20
81.80392866065544
 30
0.0
 10
404.128389704135
 20
81.06704136145949
 30
0.0
 10
404.0361887315377
 20
80.6772236964929
 30
0.0
 10
403.7581941319244
 20
79.46011788212671
 30
0.0
 10
403.5710946542386
 20
78.58623940471044
 30
0.0
 10
403.2010303655901
 20
76.71675976492412
 30
0.0
 10
403.0180407580094
 20
75.72115661874828
 30
0.0
 10
402.7526307023056
 20
74.1336664141234
 30
0.0
 10
402.6653734957561
 20
73.58670945996217
 30
0.0
 10
402.4966068892403
 20
72.47102551599676
 30
0.0
 10
402.4152331243122
 20
71.90342684906733
 30
0.0
 10
402.1813287476808
 20
70.17185405521028
 30
0.0
 10
402.0390008255613
 20
68.97922879822342
 30
0.0
 10
401.8508013793567
 20
67.13253933291449
 30
0.0
 10
401.7922863206349
 20
66.50731947773043
 30
0.0
 10
401.6845618474846
 20
65.23710936719328
 30
0.0
 10
401.6352520982961
 20
64.59060714709783
 30
0.0
 10
401.5912854634734
 20
63.93725361377548
 30
0.0
  0
LINE
  5
250
330
1F
100
AcDbEntity
  8
0
  6
Continuous
 62
     7
370
    15
100
AcDbLine
 10
397.3227647458
 20
48.9372537814
 30
0.0
 11
397.3227647458
 21
63.9372534461
 31
0.0
  0
SPLINE
  5
251
330
1F
100
AcDbEntity
  8
0
  6
Continuous
 62
     7
370
    15
100
AcDbSpline
210
0.0
220
0.0
230
1.0
 70
     8
 71
     3
 72
    26
 73
    22
 74
     0
 42
0.00000001
 43
0.00000001
 12
1.0
 22
0.0
 32
0.0
 13
1.0
 23
0.0
 33
0.0
 40
0.0
 40
0.0
 40
0.0
 40
0.0
 40
0.0625
 40
0.0625
 40
0.1249999999999999
 40
0.1249999999999999
 40
0.2499999999999996
 40
0.2499999999999996
 40
0.3749999999999993
 40
0.3749999999999993
 40
0.4999999999999989
 40
0.4999999999999989
 40
0.6249999999999987
 40
0.6249999999999987
 40
0.6874999999999987
 40
0.6874999999999987
 40
0.7499999999999988
 40
0.7499999999999988
 40
0.8749999999999994
 40
0.8749999999999994
 40
1.0
 40
1.0
 40
1.0
 40
1.0
 10
401.5912854634734
 20
48.93725361377548
 30
0.0
 10
401.6348520115466
 20
48.28984545454203
 30
0.0
 10
401.6838292314363
 20
47.64634882375634
 30
0.0
 10
401.7922478587151
 20
46.36733100149657
 30
0.0
 10
401.8514338883199
 20
45.73518292331674
 30
0.0
 10
402.0409427203033
 20
43.8773956587168
 30
0.0
 10
402.1837926202498
 20
42.68308753610798
 30
0.0
 10
402.4952369720322
 20
40.38016429815248
 30
0.0
 10
402.663851205618
 20
39.27154706493927
 30
0.0
 10
403.0199900972499
 20
37.14200072321207
 30
0.0
 10
403.2041703099937
 20
36.14102940137157
 30
0.0
 10
403.5746486019996
 20
34.2711854899361
 30
0.0
 10
403.7612777844018
 20
33.40050622515754
 30
0.0
 10
404.0375798440753
 20
32.19138726648099
 30
0.0
 10
404.1290758596692
 20
31.80455285395967
 30
0.0
 10
404.3098999667074
 20
31.06408837874309
 30
0.0
 10
404.3986127329706
 20
30.71301530721507
 30
0.0
 10
404.6567163511089
 20
29.7230480704785
 30
0.0
 10
404.8188282556476
 20
29.14400345015621
 30
0.0
 10
405.1175572547468
 20
28.14554654007392
 30
0.0
 10
405.2541929162626
 20
27.72611584396241
 30
0.0
 10
405.3752910672782
 20
27.38987851721985
 30
0.0
  0
LINE
  5
252
330
1F
100
AcDbEntity
  8
0
  6
Continuous
 62
     7
370
    15
100
AcDbLine
 10
405.3752926503
 20
-10.8455422923
 30
0.0
 11
405.3752926503
 21
27.3898780689
 31
0.0
  0
LINE
  5
253
330
1F
100
AcDbEntity
  8
0
  6
Continuous
 62
     7
370
    15
100
AcDbLine
 10
136.5351883088
 20
27.3898780689
 30
0.0
 11
136.5351883088
 21
-10.8455422923
 31
0.0
  0
SPLINE
  5
254
330
1F
100
AcDbEntity
  8
0
  6
Continuous
 62
     7
370
    15
100
AcDbSpline
210
0.0
220
0.0
230
1.0
 70
     8
 71
     3
 72
    30
 73
    26
 74
     0
 42
0.00000001
 43
0.00000001
 12
1.0
 22
0.0
 32
0.0
 13
1.0
 23
0.0
 33
0.0
 40
0.0
 40
0.0
 40
0.0
 40
0.0
 40
0.0624999999999997
 40
0.0624999999999997
 40
0.1249999999999995
 40
0.1249999999999995
 40
0.2499999999999991
 40
0.2499999999999991
 40
0.312499999999999
 40
0.312499999999999
 40
0.3749999999999989
 40
0.3749999999999989
 40
0.4999999999999989
 40
0.4999999999999989
 40
0.6249999999999988
 40
0.6249999999999988
 40
0.687499999999999
 40
0.687499999999999
 40
0.7499999999999991
 40
0.7499999999999991
 40
0.8749999999999999
 40
0.8749999999999999
 40
0.9374999999999999
 40
0.9374999999999999
 40
1.0
 40
1.0
 40
1.0
 40
1.0
 10
136.5351898918769
 20
27.38987851721987
 30
0.0
 10
136.5954635810122
 20
27.55723255142953
 30
0.0
 10
136.6604138431249
 20
27.74764915010278
 30
0.0
 10
136.7974836217285
 20
28.16988069709494
 30
0.0
 10
136.869465458441
 20
28.40119185152223
 30
0.0
 10
137.0945838412001
 20
29.15417667823354
 30
0.0
 10
137.2568964012053
 20
29.73463641743688
 30
0.0
 10
137.5141446209638
 20
30.72196318611091
 30
0.0
 10
137.6021908127601
 20
31.07057856689554
 30
0.0
 10
137.7820912550201
 20
31.80746586609148
 30
0.0
 10
137.8742922276174
 20
32.19728353105808
 30
0.0
 10
138.1522868272307
 20
33.41438934542426
 30
0.0
 10
138.3393863049165
 20
34.28826782284055
 30
0.0
 10
138.709450593565
 20
36.15774746262684
 30
0.0
 10
138.8924402011457
 20
37.15335060880268
 30
0.0
 10
139.1578502568495
 20
38.74084081342755
 30
0.0
 10
139.245107463399
 20
39.28779776758881
 30
0.0
 10
139.4138740699147
 20
40.40348171155421
 30
0.0
 10
139.4952478348429
 20
40.97108037848361
 30
0.0
 10
139.7291522114743
 20
42.70265317234067
 30
0.0
 10
139.8714801335937
 20
43.89527842932753
 30
0.0
 10
140.0596795797983
 20
45.74196789463645
 30
0.0
 10
140.1181946385201
 20
46.36718774982052
 30
0.0
 10
140.2259191116705
 20
47.63739786035765
 30
0.0
 10
140.2752288608589
 20
48.28390008045312
 30
0.0
 10
140.3191954956817
 20
48.93725361377547
 30
0.0
  0
LINE
  5
255
330
1F
100
AcDbEntity
  8
0
  6
Continuous
 62
     7
370
    15
100
AcDbLine
 10
144.5877162133
 20
63.9372534461
 30
0.0
 11
144.5877162133
 21
48.9372537814
 31
0.0
  0
SPLINE
  5
256
330
1F
100
AcDbEntity
  8
0
  6
Continuous
 62
     7
370
    15
100
AcDbSpline
210
0.0
220
0.0
230
1.0
 70
     8
 71
     3
 72
    20
 73
    16
 74
     0
 42
0.00000001
 43
0.00000001
 12
1.0
 22
0.0
 32
0.0
 13
1.0
 23
0.0
 33
0.0
 40
0.0
 40
0.0
 40
0.0
 40
0.0
 40
0.3001475179114689
 40
0.3001475179114689
 40
0.3001475179114689
 40
0.5674542422903908
 40
0.5674542422903908
 40
0.5674542422903908
 40
0.7601446884183614
 40
0.7601446884183614
 40
0.7601446884183614
 40
0.9541791965496724
 40
0.9541791965496724
 40
0.9541791965496724
 40
1.0
 40
1.0
 40
1.0
 40
1.0
 10
302.1033622636156
 20
81.08525361377548
 30
0.0
 10
302.0637448157777
 20
81.08525361377548
 30
0.0
 10
302.0233798489406
 20
81.07756709665708
 30
0.0
 10
301.9865877301978
 20
81.0624468374073
 30
0.0
 10
301.9537921809397
 20
81.04896902683356
 30
0.0
 10
301.9226924919577
 20
81.02904337532372
 30
0.0
 10
301.8972851034641
 20
81.0038269073718
 30
0.0
 10
301.8788440170505
 20
80.985524394122
 30
0.0
 10
301.8629337495981
 20
80.96394657690745
 30
0.0
 10
301.8513135812166
 20
80.94046425064563
 30
0.0
 10
301.8396450591515
 20
80.91688421005325
 30
0.0
 10
301.8320302046571
 20
80.89063586242835
 30
0.0
 10
301.8296292139569
 20
80.86429928513786
 30
0.0
 10
301.8290523356666
 20
80.85797148066962
 30
0.0
 10
301.8287624273148
 20
80.85160910467133
 30
0.0
 10
301.8287624273148
 20
80.84525361377548
 30
0.0
  0
LINE
  5
257
330
1F
100
AcDbEntity
  8
0
  6
Continuous
 62
     7
370
    15
100
AcDbLine
 10
301.828762642
 20
63.1496167153
 30
0.0
 11
301.828762642
 21
80.8452532038
 31
0.0
  0
SPLINE
  5
258
330
1F
100
AcDbEntity
  8
0
  6
Continuous
 62
     7
370
    15
100
AcDbSpline
210
0.0
220
0.0
230
1.0
 70
     8
 71
     3
 72
    17
 73
    13
 74
     0
 42
0.00000001
 43
0.00000001
 12
1.0
 22
0.0
 32
0.0
 13
1.0
 23
0.0
 33
0.0
 40
0.0
 40
0.0
 40
0.0
 40
0.0
 40
0.2401720794336365
 40
0.2401720794336365
 40
0.2401720794336365
 40
0.4793715288039356
 40
0.4793715288039356
 40
0.4793715288039356
 40
0.7322095889391904
 40
0.7322095889391904
 40
0.7322095889391904
 40
1.0
 40
1.0
 40
1.0
 40
1.0
 10
301.8287624273148
 20
63.14961648687611
 30
0.0
 10
301.8287624273148
 20
63.12568076076247
 30
0.0
 10
301.8330163288861
 20
63.10141275727501
 30
0.0
 10
301.8409599417648
 20
63.07891091818851
 30
0.0
 10
301.8488854424091
 20
63.05646038555274
 30
0.0
 10
301.8606444380202
 20
63.03516488183966
 30
0.0
 10
301.8749983769526
 20
63.01638011696295
 30
0.0
 10
301.8901832077306
 20
62.99650797753165
 30
0.0
 10
301.9085944525601
 20
62.9789494349184
 30
0.0
 10
301.9287272468579
 20
62.96444444195176
 30
0.0
 10
301.9500639014516
 20
62.94907210862171
 30
0.0
 10
301.973759904329
 20
62.93678412192772
 30
0.0
 10
301.9983353462202
 20
62.92788539907243
 30
0.0
  0
SPLINE
  5
259
330
1F
100
AcDbEntity
  8
0
  6
Continuous
 62
     7
370
    15
100
AcDbSpline
210
0.0
220
0.0
230
1.0
 70
     8
 71
     3
 72
    19
 73
    15
 74
     0
 42
0.00000001
 43
0.00000001
 12
1.0
 22
0.0
 32
0.0
 13
1.0
 23
0.0
 33
0.0
 40
0.0
 40
0.0
 40
0.0
 40
0.0
 40
0.0622776493548689
 40
0.1245760206651382
 40
0.1868987459609247
 40
0.2492494530163661
 40
0.3116317647238573
 40
0.3740492984725196
 40
0.4365056655314337
 40
0.4990044704381508
 40
0.6240722814614694
 40
0.7492417116702998
 40
0.8745414259791023
 40
1.0
 40
1.0
 40
1.0
 40
1.0
 10
301.9983353462206
 20
62.92788539907237
 30
0.0
 10
302.346253172943
 20
62.80165740209832
 30
0.0
 10
303.0422045908355
 20
62.54915940767413
 30
0.0
 10
304.083063568728
 20
62.16827257901344
 30
0.0
 10
305.1218658592306
 20
61.7857509729358
 30
0.0
 10
306.1583813443518
 20
61.40144427073446
 30
0.0
 10
307.1926718964032
 20
61.01539281005335
 30
0.0
 10
308.2247202152571
 20
60.62758566919526
 30
0.0
 10
309.2545335347069
 20
60.23802619728387
 30
0.0
 10
310.6247482445791
 20
59.71622593712798
 30
0.0
 10
312.3312426004345
 20
59.0598925678385
 30
0.0
 10
314.3676925557902
 20
58.26598529749585
 30
0.0
 10
316.394347882358
 20
57.46612596408384
 30
0.0
 10
317.7348521379969
 20
56.92814539574457
 30
0.0
 10
318.4055288821303
 20
56.65898470157818
 30
0.0
  0
SPLINE
  5
25A
330
1F
100
AcDbEntity
  8
0
  6
Continuous
 62
     7
370
    15
100
AcDbSpline
210
0.0
220
0.0
230
1.0
 70
     8
 71
     3
 72
    29
 73
    25
 74
     0
 42
0.00000001
 43
0.00000001
 12
1.0
 22
0.0
 32
0.0
 13
1.0
 23
0.0
 33
0.0
 40
0.0
 40
0.0
 40
0.0
 40
0.0
 40
0.1517483289423335
 40
0.1517483289423335
 40
0.1517483289423335
 40
0.3042354389975067
 40
0.3042354389975067
 40
0.3042354389975067
 40
0.445606164268522
 40
0.445606164268522
 40
0.445606164268522
 40
0.5755804929910142
 40
0.5755804929910142
 40
0.5755804929910142
 40
0.7016952972328517
 40
0.7016952972328517
 40
0.7016952972328517
 40
0.8316475163682052
 40
0.8316475163682052
 40
0.8316475163682052
 40
0.9712284690231228
 40
0.9712284690231228
 40
0.9712284690231228
 40
1.0
 40
1.0
 40
1.0
 40
1.0
 10
318.4055288821303
 20
56.65898470157818
 30
0.0
 10
318.431317124834
 20
56.64859573485741
 30
0.0
 10
318.4558942824852
 20
56.63358117478739
 30
0.0
 10
318.4771148527691
 20
56.61480090450696
 30
0.0
 10
318.4983952365426
 20
56.59596769910349
 30
0.0
 10
318.5168984446112
 20
56.57273815267889
 30
0.0
 10
318.530483173338
 20
56.54703052114711
 30
0.0
 10
318.543086366695
 20
56.52318033926547
 30
0.0
 10
318.5518134008919
 20
56.4964512816735
 30
0.0
 10
318.5555698971528
 20
56.46935735182402
 30
0.0
 10
318.5590308328199
 20
56.44439516853794
 30
0.0
 10
318.5583785841573
 20
56.41841192107329
 30
0.0
 10
318.5536882945378
 20
56.39368000947108
 30
0.0
 10
318.5491305987115
 20
56.36964726534878
 30
0.0
 10
318.5406629659641
 20
56.34615608941141
 30
0.0
 10
318.5291314411741
 20
56.32495554641109
 30
0.0
 10
318.5172434001004
 20
56.30309955333443
 30
0.0
 10
318.5018242423535
 20
56.28311695741871
 30
0.0
 10
318.4842091369713
 20
56.26623932688517
 30
0.0
 10
318.465295292238
 20
56.24811733008454
 30
0.0
 10
318.4433997309456
 20
56.2331124737591
 30
0.0
 10
318.420218515299
 20
56.22199542891524
 30
0.0
 10
318.4153864503605
 20
56.2196781094343
 30
0.0
 10
318.4104850352348
 20
56.21751914552755
 30
0.0
 10
318.4055288821303
 20
56.21552252597277
 30
0.0
  0
SPLINE
  5
25B
330
1F
100
AcDbEntity
  8
0
  6
Continuous
 62
     7
370
    15
100
AcDbSpline
210
0.0
220
0.0
230
1.0
 70
     8
 71
     3
 72
    19
 73
    15
 74
     0
 42
0.00000001
 43
0.00000001
 12
1.0
 22
0.0
 32
0.0
 13
1.0
 23
0.0
 33
0.0
 40
0.0
 40
0.0
 40
0.0
 40
0.0
 40
0.062744784549353
 40
0.1254481739849627
 40
0.1881137304126792
 40
0.2507450223935222
 40
0.3133456243482668
 40
0.3759191159570611
 40
0.4384690815545566
 40
0.5009991095210662
 40
0.6259421967812634
 40
0.7507374114412345
 40
0.8754136770497345
 40
1.0
 40
1.0
 40
1.0
 40
1.0
 10
318.4055288821303
 20
56.21552252597277
 30
0.0
 10
318.0704409712231
 20
56.08078720825483
 30
0.0
 10
317.4004862196108
 20
55.81140546281739
 30
0.0
 10
316.3915555339598
 20
55.40910083439672
 30
0.0
 10
315.3801460980538
 20
55.00827170006357
 30
0.0
 10
314.365944920898
 20
54.6090341230276
 30
0.0
 10
313.3490358527641
 20
54.21135695081271
 30
0.0
 10
312.3293962803205
 20
53.81524885033355
 30
0.0
 10
311.3070329229998
 20
53.4207063091811
 30
0.0
 10
309.9408008253718
 20
52.89695750766269
 30
0.0
 10
308.2269809685698
 20
52.2464372892933
 30
0.0
 10
306.1603783383135
 20
51.47263227351515
 30
0.0
 10
304.085420750501
 20
50.70531947917776
 30
0.0
 10
302.6938631067616
 20
50.19946020147216
 30
0.0
 10
301.9983353462209
 20
49.94662182847757
 30
0.0
  0
SPLINE
  5
25C
330
1F
100
AcDbEntity
  8
0
  6
Continuous
 62
     7
370
    15
100
AcDbSpline
210
0.0
220
0.0
230
1.0
 70
     8
 71
     3
 72
    17
 73
    13
 74
     0
 42
0.00000001
 43
0.00000001
 12
1.0
 22
0.0
 32
0.0
 13
1.0
 23
0.0
 33
0.0
 40
0.0
 40
0.0
 40
0.0
 40
0.0
 40
0.3197182291169846
 40
0.3197182291169846
 40
0.3197182291169846
 40
0.6423796434612953
 40
0.6423796434612953
 40
0.6423796434612953
 40
0.9212447753067258
 40
0.9212447753067258
 40
0.9212447753067258
 40
1.0
 40
1.0
 40
1.0
 40
1.0
 10
301.9983353462209
 20
49.94662182847755
 30
0.0
 10
301.9690561021841
 20
49.93601986741221
 30
0.0
 10
301.9409495118819
 20
49.92054216218352
 30
0.0
 10
301.9165809078564
 20
49.90077505135977
 30
0.0
 10
301.892084275313
 20
49.88090408748387
 30
0.0
 10
301.8706299956433
 20
49.8559406837484
 30
0.0
 10
301.8553926992085
 20
49.82795417760414
 30
0.0
 10
301.8421997622843
 20
49.80372256854749
 30
0.0
 10
301.8332929732962
 20
49.77638093362489
 30
0.0
 10
301.8301305353032
 20
49.74880749705958
 30
0.0
 10
301.8292209000013
 20
49.74087634667863
 30
0.0
 10
301.8287624273148
 20
49.73287674408504
 30
0.0
 10
301.8287624273148
 20
49.72489074067485
 30
0.0
  0
LINE
  5
25D
330
1F
100
AcDbEntity
  8
0
  6
Continuous
 62
     7
370
    15
100
AcDbLine
 10
301.828762642
 20
33.3252527162
 30
0.0
 11
301.828762642
 21
49.7248905122
 31
0.0
  0
SPLINE
  5
25E
330
1F
100
AcDbEntity
  8
0
  6
Continuous
 62
     7
370
    15
100
AcDbSpline
210
0.0
220
0.0
230
1.0
 70
     8
 71
     3
 72
    20
 73
    16
 74
     0
 42
0.00000001
 43
0.00000001
 12
1.0
 22
0.0
 32
0.0
 13
1.0
 23
0.0
 33
0.0
 40
0.0
 40
0.0
 40
0.0
 40
0.0
 40
0.1757043661071328
 40
0.1757043661071328
 40
0.1757043661071328
 40
0.350697178443574
 40
0.350697178443574
 40
0.350697178443574
 40
0.5356676845431144
 40
0.5356676845431144
 40
0.5356676845431144
 40
0.747323037853776
 40
0.747323037853776
 40
0.747323037853776
 40
1.0
 40
1.0
 40
1.0
 40
1.0
 10
301.8287624273148
 20
33.32525361377549
 30
0.0
 10
301.8287624273148
 20
33.30131788766184
 30
0.0
 10
301.8330163288861
 20
33.27704988417439
 30
0.0
 10
301.8409599417648
 20
33.25454804508788
 30
0.0
 10
301.8488854424091
 20
33.2320975124521
 30
0.0
 10
301.8606444380202
 20
33.21080200873904
 30
0.0
 10
301.8749983769526
 20
33.19201724386232
 30
0.0
 10
301.8901832077306
 20
33.17214510443102
 30
0.0
 10
301.9085944525601
 20
33.15458656181777
 30
0.0
 10
301.9287272468579
 20
33.14008156885114
 30
0.0
 10
301.9517434393728
 20
33.12349918562072
 30
0.0
 10
301.9775209859679
 20
33.11050380815038
 30
0.0
 10
302.0042157107071
 20
33.10146237650722
 30
0.0
 10
302.036000957044
 20
33.09069679885762
 30
0.0
 10
302.0699008110045
 20
33.08525361377549
 30
0.0
 10
302.1033622636156
 20
33.08525361377549
 30
0.0
  0
SPLINE
  5
25F
330
1F
100
AcDbEntity
  8
0
  6
Continuous
 62
     7
370
    15
100
AcDbSpline
210
0.0
220
0.0
230
1.0
 70
     8
 71
     3
 72
    20
 73
    16
 74
     0
 42
0.00000001
 43
0.00000001
 12
1.0
 22
0.0
 32
0.0
 13
1.0
 23
0.0
 33
0.0
 40
0.0
 40
0.0
 40
0.0
 40
0.0
 40
0.2540074174901877
 40
0.2540074174901877
 40
0.2540074174901877
 40
0.509116662299067
 40
0.509116662299067
 40
0.509116662299067
 40
0.7447269380504995
 40
0.7447269380504995
 40
0.7447269380504995
 40
0.9489100299025313
 40
0.9489100299025313
 40
0.9489100299025313
 40
1.0
 40
1.0
 40
1.0
 40
1.0
 10
309.4378985095137
 20
81.08525361377548
 30
0.0
 10
309.4053304148918
 20
81.08525361377548
 30
0.0
 10
309.3722943933664
 20
81.07955963548176
 30
0.0
 10
309.3415302380729
 20
81.06838790355586
 30
0.0
 10
309.3106926989076
 20
81.05718952292348
 30
0.0
 10
309.2811880650416
 20
81.0400814191535
 30
0.0
 10
309.2562631520364
 20
81.0180729768301
 30
0.0
 10
309.2332564877102
 20
80.99775832839906
 30
0.0
 10
309.2134254284644
 20
80.97251128483876
 30
0.0
 10
309.1995664182961
 20
80.9445918584959
 30
0.0
 10
309.1875258316032
 20
80.92033570533539
 30
0.0
 10
309.1796418098286
 20
80.89326661678125
 30
0.0
 10
309.1770559035692
 20
80.8660872652636
 30
0.0
 10
309.1763976049983
 20
80.85916817134814
 30
0.0
 10
309.1760666936683
 20
80.85220666940045
 30
0.0
 10
309.1760666936683
 20
80.84525361377548
 30
0.0
  0
LINE
  5
260
330
1F
100
AcDbEntity
  8
0
  6
Continuous
 62
     7
370
    15
100
AcDbLine
 10
309.176067016
 20
76.2813926086
 30
0.0
 11
309.176067016
 21
80.8452532038
 31
0.0
  0
SPLINE
  5
261
330
1F
100
AcDbEntity
  8
0
  6
Continuous
 62
     7
370
    15
100
AcDbSpline
210
0.0
220
0.0
230
1.0
 70
     8
 71
     3
 72
    20
 73
    16
 74
     0
 42
0.00000001
 43
0.00000001
 12
1.0
 22
0.0
 32
0.0
 13
1.0
 23
0.0
 33
0.0
 40
0.0
 40
0.0
 40
0.0
 40
0.0
 40
0.1783871630473876
 40
0.1783871630473876
 40
0.1783871630473876
 40
0.3561870353077494
 40
0.3561870353077494
 40
0.3561870353077494
 40
0.5424990051090799
 40
0.5424990051090799
 40
0.5424990051090799
 40
0.7505969305727858
 40
0.7505969305727858
 40
0.7505969305727858
 40
1.0
 40
1.0
 40
1.0
 40
1.0
 10
309.1760666936683
 20
76.28139348147282
 30
0.0
 10
309.1760666936683
 20
76.25691686458855
 30
0.0
 10
309.1803008537676
 20
76.23210174643575
 30
0.0
 10
309.1882478512085
 20
76.20907040088936
 30
0.0
 10
309.1961801499135
 20
76.18608165403079
 30
0.0
 10
309.2079825191772
 20
76.16425319719414
 30
0.0
 10
309.2224586350928
 20
76.14504321141416
 30
0.0
 10
309.237637893306
 20
76.1249001470642
 30
0.0
 10
309.2560936774955
 20
76.10712549368813
 30
0.0
 10
309.276316412266
 20
76.09258298474465
 30
0.0
 10
309.2988854209992
 20
76.07635323070438
 30
0.0
 10
309.3241774141842
 20
76.06374362344549
 30
0.0
 10
309.3503423495114
 20
76.05522594809433
 30
0.0
 10
309.3815975914846
 20
76.04505118554198
 30
0.0
 10
309.41496309714
 20
76.04043817504439
 30
0.0
 10
309.447680127683
 20
76.04156131331206
 30
0.0
  0
SPLINE
  5
262
330
1F
100
AcDbEntity
  8
0
  6
Continuous
 62
     7
370
    15
100
AcDbSpline
210
0.0
220
0.0
230
1.0
 70
     8
 71
     3
 72
    21
 73
    17
 74
     0
 42
0.00000001
 43
0.00000001
 12
1.0
 22
0.0
 32
0.0
 13
1.0
 23
0.0
 33
0.0
 40
0.0
 40
0.0
 40
0.0
 40
0.0
 40
0.0568592510771857
 40
0.1214794090251631
 40
0.1860523514041237
 40
0.2507604167284087
 40
0.314985736854392
 40
0.3799010039466473
 40
0.4440089656652317
 40
0.5087715463580438
 40
0.5946613392789674
 40
0.6807471746264888
 40
0.7670394860211007
 40
0.8525882351476447
 40
0.938781741498854
 40
1.0
 40
1.0
 40
1.0
 40
1.0
 10
315.2996694062838
 20
70.62111667991232
 30
0.0
 10
315.30090463945
 20
70.79109222229552
 30
0.0
 10
315.3035437068347
 20
71.1542438299277
 30
0.0
 10
315.2258685108818
 20
71.70586922238724
 30
0.0
 10
315.0877511700178
 20
72.26710800825505
 30
0.0
 10
314.8857584334215
 20
72.80557539061617
 30
0.0
 10
314.6261631572606
 20
73.31657639888681
 30
0.0
 10
314.3139536270222
 20
73.79154549107716
 30
0.0
 10
313.9537779795576
 20
74.22925637168244
 30
0.0
 10
313.5075401398202
 20
74.66659154031868
 30
0.0
 10
312.9638421717106
 20
75.08487684172293
 30
0.0
 10
312.3185728037149
 20
75.45575227607173
 30
0.0
 10
311.6339155984681
 20
75.73876619485654
 30
0.0
 10
310.9204922792226
 20
75.9303080239144
 30
0.0
 10
310.2604665098526
 20
76.03413795948926
 30
0.0
 10
309.8384405972805
 20
76.0356314961047
 30
0.0
 10
309.6631785248408
 20
76.03625174314331
 30
0.0
  0
SPLINE
  5
263
330
1F
100
AcDbEntity
  8
0
  6
Continuous
 62
     7
370
    15
100
AcDbSpline
210
0.0
220
0.0
230
1.0
 70
     8
 71
     3
 72
    14
 73
    10
 74
     0
 42
0.00000001
 43
0.00000001
 12
1.0
 22
0.0
 32
0.0
 13
1.0
 23
0.0
 33
0.0
 40
0.0
 40
0.0
 40
0.0
 40
0.0
 40
0.0517276887587568
 40
0.2112312348048274
 40
0.3678300699213155
 40
0.5282208775046833
 40
0.6836199801640016
 40
0.84228468855465
 40
1.0
 40
1.0
 40
1.0
 40
1.0
 10
309.4378915940413
 20
72.45484705716919
 30
0.0
 10
309.4312430005186
 20
72.45524600735384
 30
0.0
 10
309.4040933123489
 20
72.45687512982485
 30
0.0
 10
309.3570489547647
 20
72.44648492441789
 30
0.0
 10
309.299894952211
 20
72.42297308316752
 30
0.0
 10
309.2492862304098
 20
72.38650174728934
 30
0.0
 10
309.2092160341298
 20
72.33789989727276
 30
0.0
 10
309.1813853210438
 20
72.28014284515602
 30
0.0
 10
309.1778362342969
 20
72.23753705967334
 30
0.0
 10
309.1760670159945
 20
72.21629809290718
 30
0.0
  0
LINE
  5
264
330
1F
100
AcDbEntity
  8
0
  6
Continuous
 62
     7
370
    15
100
AcDbLine
 10
309.176067016
 20
67.5403640017
 30
0.0
 11
309.176067016
 21
72.2162980929
 31
0.0
  0
SPLINE
  5
265
330
1F
100
AcDbEntity
  8
0
  6
Continuous
 62
     7
370
    15
100
AcDbSpline
210
0.0
220
0.0
230
1.0
 70
     8
 71
     3
 72
    17
 73
    13
 74
     0
 42
0.00000001
 43
0.00000001
 12
1.0
 22
0.0
 32
0.0
 13
1.0
 23
0.0
 33
0.0
 40
0.0
 40
0.0
 40
0.0
 40
0.0
 40
0.2489060459616767
 40
0.2489060459616767
 40
0.2489060459616767
 40
0.4969926370638954
 40
0.4969926370638954
 40
0.4969926370638954
 40
0.7569562741685902
 40
0.7569562741685902
 40
0.7569562741685902
 40
1.0
 40
1.0
 40
1.0
 40
1.0
 10
309.1760666936683
 20
67.5403637872698
 30
0.0
 10
309.1760666936683
 20
67.51588717038553
 30
0.0
 10
309.1803008537676
 20
67.49107205223274
 30
0.0
 10
309.1882478512085
 20
67.46804070668634
 30
0.0
 10
309.1961801499135
 20
67.44505195982778
 30
0.0
 10
309.2079825191772
 20
67.42322350299112
 30
0.0
 10
309.2224586350928
 20
67.40401351721115
 30
0.0
 10
309.237637893306
 20
67.38387045286117
 30
0.0
 10
309.2560936774955
 20
67.36609579948511
 30
0.0
 10
309.276316412266
 20
67.35155329054164
 30
0.0
 10
309.2952719039911
 20
67.33792207740113
 30
0.0
 10
309.3161197223979
 20
67.32684770847692
 30
0.0
 10
309.3377523027819
 20
67.31863269946648
 30
0.0
  0
SPLINE
  5
266
330
1F
100
AcDbEntity
  8
0
  6
Continuous
 62
     7
370
    15
100
AcDbSpline
210
0.0
220
0.0
230
1.0
 70
     8
 71
     3
 72
    19
 73
    15
 74
     0
 42
0.00000001
 43
0.00000001
 12
1.0
 22
0.0
 32
0.0
 13
1.0
 23
0.0
 33
0.0
 40
0.0
 40
0.0
 40
0.0
 40
0.0
 40
0.0622926281331277
 40
0.1246037932373134
 40
0.1869372674821238
 40
0.2492968189886425
 40
0.3116862111530023
 40
0.3741092019741805
 40
0.4365695433866468
 40
0.4990709805984523
 40
0.624137380251111
 40
0.7492944991466017
 40
0.8745721350917586
 40
0.9999999999999999
 40
0.9999999999999999
 40
0.9999999999999999
 40
0.9999999999999999
 10
309.3377523027821
 20
67.31863269946643
 30
0.0
 10
309.6895299921093
 20
67.18477974114364
 30
0.0
 10
310.3931900523776
 20
66.91703399268349
 30
0.0
 10
311.4448655978462
 20
66.51338682876548
 30
0.0
 10
312.493915454801
 20
66.1081915869681
 30
0.0
 10
313.5400572260278
 20
65.70130562387935
 30
0.0
 10
314.5833668226267
 20
65.29276721162509
 30
0.0
 10
315.6238230803822
 20
64.88256600769155
 30
0.0
 10
316.6614346403277
 20
64.47070511594838
 30
0.0
 10
318.0412021202567
 20
63.91930315162801
 30
0.0
 10
319.7580710889845
 20
63.22623237077053
 30
0.0
 10
321.8044026690138
 20
62.38869161889676
 30
0.0
 10
323.8385427789597
 20
61.54562344607694
 30
0.0
 10
325.1819223780966
 20
60.97922910122558
 30
0.0
 10
325.8540146708763
 20
60.69586223002019
 30
0.0
  0
SPLINE
  5
267
330
1F
100
AcDbEntity
  8
0
  6
Continuous
 62
     7
370
    15
100
AcDbSpline
210
0.0
220
0.0
230
1.0
 70
     8
 71
     3
 72
     9
 73
     5
 74
     0
 42
0.00000001
 43
0.00000001
 12
1.0
 22
0.0
 32
0.0
 13
1.0
 23
0.0
 33
0.0
 40
0.0
 40
0.0
 40
0.0
 40
0.0
 40
0.9164697935224443
 40
0.9999999999999999
 40
0.9999999999999999
 40
0.9999999999999999
 40
0.9999999999999999
 10
325.8540128682742
 20
60.69586205930065
 30
0.0
 10
325.8812079621085
 20
60.68514815245008
 30
0.0
 10
325.9108817102522
 20
60.67345774331025
 30
0.0
 10
325.9410283410152
 20
60.67844510192846
 30
0.0
 10
325.9435464953074
 20
60.67886169702362
 30
0.0
  0
SPLINE
  5
268
330
1F
100
AcDbEntity
  8
0
  6
Continuous
 62
     7
370
    15
100
AcDbSpline
210
0.0
220
0.0
230
1.0
 70
     8
 71
     3
 72
    10
 73
     6
 74
     0
 42
0.00000001
 43
0.00000001
 12
1.0
 22
0.0
 32
0.0
 13
1.0
 23
0.0
 33
0.0
 40
0.0
 40
0.0
 40
0.0
 40
0.0
 40
0.1068320384771284
 40
0.7455728762999067
 40
1.0
 40
1.0
 40
1.0
 40
1.0
 10
325.9434645389209
 20
78.41372642368626
 30
0.0
 10
325.9388103886368
 20
78.41437268831977
 30
0.0
 10
325.9063294188504
 20
78.41888292128485
 30
0.0
 10
325.862038328318
 20
78.40377440347054
 30
0.0
 10
325.8275261306607
 20
78.38387446229659
 30
0.0
 10
325.8176950131545
 20
78.37820578069042
 30
0.0
  0
SPLINE
  5
269
330
1F
100
AcDbEntity
  8
0
  6
Continuous
 62
     7
370
    15
100
AcDbSpline
210
0.0
220
0.0
230
1.0
 70
     8
 71
     3
 72
     9
 73
     5
 74
     0
 42
0.00000001
 43
0.00000001
 12
1.0
 22
0.0
 32
0.0
 13
1.0
 23
0.0
 33
0.0
 40
0.0
 40
0.0
 40
0.0
 40
0.0
 40
0.5501399075661288
 40
1.0
 40
1.0
 40
1.0
 40
1.0
 10
325.8176950131545
 20
78.37820578069042
 30
0.0
 10
324.7578091613367
 20
77.6916823078416
 30
0.0
 10
322.8312340533666
 20
76.44377525109657
 30
0.0
 10
320.8655272969292
 20
75.21059221785441
 30
0.0
 10
319.9812342737803
 20
74.65583238453222
 30
0.0
  0
LINE
  5
26A
330
1F
100
AcDbEntity
  8
0
  6
Continuous
 62
     7
370
    15
100
AcDbLine
 10
309.176067016
 20
33.3252527162
 30
0.0
 11
309.176067016
 21
45.3341432259
 31
0.0
  0
SPLINE
  5
26B
330
1F
100
AcDbEntity
  8
0
  6
Continuous
 62
     7
370
    15
100
AcDbSpline
210
0.0
220
0.0
230
1.0
 70
     8
 71
     3
 72
    20
 73
    16
 74
     0
 42
0.00000001
 43
0.00000001
 12
1.0
 22
0.0
 32
0.0
 13
1.0
 23
0.0
 33
0.0
 40
0.0
 40
0.0
 40
0.0
 40
0.0
 40
0.1829866062763973
 40
0.1829866062763973
 40
0.1829866062763973
 40
0.3653707793609867
 40
0.3653707793609867
 40
0.3653707793609867
 40
0.5564865215490131
 40
0.5564865215490131
 40
0.5564865215490131
 40
0.7699499373198343
 40
0.7699499373198343
 40
0.7699499373198343
 40
1.0
 40
1.0
 40
1.0
 40
1.0
 10
309.1760666936684
 20
33.32525361377549
 30
0.0
 10
309.1760666936684
 20
33.30077699689121
 30
0.0
 10
309.1803008537676
 20
33.27596187873841
 30
0.0
 10
309.1882478512085
 20
33.25293053319203
 30
0.0
 10
309.1961801499135
 20
33.22994178633346
 30
0.0
 10
309.2079825191772
 20
33.20811332949681
 30
0.0
 10
309.2224586350928
 20
33.18890334371682
 30
0.0
 10
309.237637893306
 20
33.16876027936686
 30
0.0
 10
309.2560936774955
 20
33.15098562599079
 30
0.0
 10
309.276316412266
 20
33.13644311704732
 30
0.0
 10
309.2988854209992
 20
33.12021336300705
 30
0.0
 10
309.3241774141842
 20
33.10760375574816
 30
0.0
 10
309.3503423495114
 20
33.09908608039699
 30
0.0
 10
309.3785229439841
 20
33.08991223181216
 30
0.0
 10
309.4083832980513
 20
33.08525361377549
 30
0.0
 10
309.4378985095137
 20
33.08525361377549
 30
0.0
  0
SPLINE
  5
26C
330
1F
100
AcDbEntity
  8
0
  6
Continuous
 62
     7
370
    15
100
AcDbSpline
210
0.0
220
0.0
230
1.0
 70
     8
 71
     3
 72
    10
 73
     6
 74
     0
 42
0.00000001
 43
0.00000001
 12
1.0
 22
0.0
 32
0.0
 13
1.0
 23
0.0
 33
0.0
 40
0.0
 40
0.0
 40
0.0
 40
0.0
 40
0.2881503436255579
 40
0.6437156636527308
 40
1.0
 40
1.0
 40
1.0
 40
1.0
 10
315.3906484459529
 20
36.08230281323742
 30
0.0
 10
316.4120893048366
 20
35.67753261378126
 30
0.0
 10
318.6939449225858
 20
34.77329313139373
 30
0.0
 10
322.1853387402305
 20
33.34793925507979
 30
0.0
 10
324.6302983007284
 20
32.32079694207328
 30
0.0
 10
325.8540128682742
 20
31.80670704395126
 30
0.0
  0
SPLINE
  5
26D
330
1F
100
AcDbEntity
  8
0
  6
Continuous
 62
     7
370
    15
100
AcDbSpline
210
0.0
220
0.0
230
1.0
 70
     8
 71
     3
 72
     9
 73
     5
 74
     0
 42
0.00000001
 43
0.00000001
 12
1.0
 22
0.0
 32
0.0
 13
1.0
 23
0.0
 33
0.0
 40
0.0
 40
0.0
 40
0.0
 40
0.0
 40
0.9164707991190395
 40
1.0
 40
1.0
 40
1.0
 40
1.0
 10
325.8540128682742
 20
31.80670704395126
 30
0.0
 10
325.881207795728
 20
31.79599512052346
 30
0.0
 10
325.9108813297673
 20
31.78430688840728
 30
0.0
 10
325.941028339662
 20
31.78929041193629
 30
0.0
 10
325.9435464953074
 20
31.78970668167423
 30
0.0
  0
SPLINE
  5
26E
330
1F
100
AcDbEntity
  8
0
  6
Continuous
 62
     7
370
    15
100
AcDbSpline
210
0.0
220
0.0
230
1.0
 70
     8
 71
     3
 72
     9
 73
     5
 74
     0
 42
0.00000001
 43
0.00000001
 12
1.0
 22
0.0
 32
0.0
 13
1.0
 23
0.0
 33
0.0
 40
0.0
 40
0.0
 40
0.0
 40
0.0
 40
0.1540032350986826
 40
0.9999999999999999
 40
0.9999999999999999
 40
0.9999999999999999
 40
0.9999999999999999
 10
325.9434645389209
 20
52.19484971538733
 30
0.0
 10
325.9388006856216
 20
52.19551222169698
 30
0.0
 10
325.9085165601213
 20
52.19981412035005
 30
0.0
 10
325.8789912148534
 20
52.18834662891007
 30
0.0
 10
325.8540128682742
 20
52.17864516825031
 30
0.0
  0
SPLINE
  5
26F
330
1F
100
AcDbEntity
  8
0
  6
Continuous
 62
     7
370
    15
100
AcDbSpline
210
0.0
220
0.0
230
1.0
 70
     8
 71
     3
 72
    19
 73
    15
 74
     0
 42
0.00000001
 43
0.00000001
 12
1.0
 22
0.0
 32
0.0
 13
1.0
 23
0.0
 33
0.0
 40
0.0
 40
0.0
 40
0.0
 40
0.0
 40
0.0627286321222718
 40
0.1254178296960895
 40
0.1880712970630501
 40
0.2506927449055608
 40
0.3132858896006286
 40
0.3758544525686142
 40
0.4384021596175201
 40
0.5009327402833714
 40
0.6258827200392485
 40
0.7506905439379312
 40
0.875386260663796
 40
1.0
 40
1.0
 40
1.0
 40
1.0
 10
325.8540146708763
 20
52.17864499753075
 30
0.0
 10
325.5182822418607
 20
52.03681802968153
 30
0.0
 10
324.8470284430584
 20
51.75325325394475
 30
0.0
 10
323.8353563815263
 20
51.32952654360165
 30
0.0
 10
322.8206072342493
 20
50.90716889225489
 30
0.0
 10
321.802412125321
 20
50.48628566858195
 30
0.0
 10
320.7808698926502
 20
50.06684858371391
 30
0.0
 10
319.7559538333257
 20
49.64886553398262
 30
0.0
 10
318.7276720480875
 20
49.23233323222424
 30
0.0
 10
317.352679106112
 20
48.67911732406999
 30
0.0
 10
315.6263646209674
 20
47.99151222399968
 30
0.0
 10
313.5422913668823
 20
47.17281541630639
 30
0.0
 10
311.4475892080223
 20
46.36026265489621
 30
0.0
 10
310.0408770871954
 20
45.823945120102
 30
0.0
 10
309.3377523027823
 20
45.55587452808384
 30
0.0
  0
SPLINE
  5
270
330
1F
100
AcDbEntity
  8
0
  6
Continuous
 62
     7
370
    15
100
AcDbSpline
210
0.0
220
0.0
230
1.0
 70
     8
 71
     3
 72
    17
 73
    13
 74
     0
 42
0.00000001
 43
0.00000001
 12
1.0
 22
0.0
 32
0.0
 13
1.0
 23
0.0
 33
0.0
 40
0.0
 40
0.0
 40
0.0
 40
0.0
 40
0.3115610254701753
 40
0.3115610254701753
 40
0.3115610254701753
 40
0.6253051996375923
 40
0.6253051996375923
 40
0.6253051996375923
 40
0.9062336128300896
 40
0.9062336128300896
 40
0.9062336128300896
 40
1.0
 40
1.0
 40
1.0
 40
1.0
 10
309.3377523027823
 20
45.55587452808385
 30
0.0
 10
309.3101237346395
 20
45.54538253257477
 30
0.0
 10
309.2836878819939
 20
45.53014314737917
 30
0.0
 10
309.2608054904845
 20
45.5108792008182
 30
0.0
 10
309.2378309960437
 20
45.49153771577325
 30
0.0
 10
309.2177740657351
 20
45.46746061203353
 30
0.0
 10
309.2032745126503
 20
45.44063614665407
 30
0.0
 10
309.1902762829934
 20
45.41658915986859
 30
0.0
 10
309.1813746097322
 20
45.38953893906343
 30
0.0
 10
309.177860856001
 20
45.36217957928991
 30
0.0
 10
309.1766686050697
 20
45.35289628152135
 30
0.0
 10
309.1760666936684
 20
45.34350960058151
 30
0.0
 10
309.1760666936684
 20
45.33414344028115
 30
0.0
  0
SPLINE
  5
271
330
1F
100
AcDbEntity
  8
0
  6
Continuous
 62
     7
370
    15
100
AcDbSpline
210
0.0
220
0.0
230
1.0
 70
     8
 71
     3
 72
    19
 73
    15
 74
     0
 42
0.00000001
 43
0.00000001
 12
1.0
 22
0.0
 32
0.0
 13
1.0
 23
0.0
 33
0.0
 40
0.0
 40
0.0
 40
0.0
 40
0.0
 40
0.0612566674113605
 40
0.1228327503251896
 40
0.1847283853828497
 40
0.2469437071199003
 40
0.3094788480082777
 40
0.3723339384974544
 40
0.435509107054583
 40
0.4990044802036822
 40
0.6220536345928908
 40
0.7465687226796304
 40
0.87255057666913
 40
1.0
 40
1.0
 40
1.0
 40
1.0
 10
303.0589955180008
 20
62.92788539907342
 30
0.0
 10
303.4012137082827
 20
62.80372923097545
 30
0.0
 10
304.0874345443161
 20
62.55476949741865
 30
0.0
 10
305.1162635774353
 20
62.17833899613684
 30
0.0
 10
306.1480085395994
 20
61.79849238892672
 30
0.0
 10
307.1823508532372
 20
61.41508232797553
 30
0.0
 10
308.2192563685356
 20
61.02814863379054
 30
0.0
 10
309.258610924025
 20
60.63768043070871
 30
0.0
 10
310.3003230930078
 20
60.24368111459489
 30
0.0
 10
311.6689081058859
 20
59.72253146574714
 30
0.0
 10
313.3663266910438
 20
59.06974802776475
 30
0.0
 10
315.3922119562098
 20
58.2801484584002
 30
0.0
 10
317.4300137387266
 20
57.47610559061521
 30
0.0
 10
318.7848487568644
 20
56.93240781259777
 30
0.0
 10
319.4661890539101
 20
56.65898470157819
 30
0.0
  0
SPLINE
  5
272
330
1F
100
AcDbEntity
  8
0
  6
Continuous
 62
     7
370
    15
100
AcDbSpline
210
0.0
220
0.0
230
1.0
 70
     8
 71
     3
 72
    17
 73
    13
 74
     0
 42
0.00000001
 43
0.00000001
 12
1.0
 22
0.0
 32
0.0
 13
1.0
 23
0.0
 33
0.0
 40
0.0
 40
0.0
 40
0.0
 40
0.0
 40
0.0632389279817424
 40
0.1260976218303515
 40
0.1885761761648204
 40
0.2506746873424037
 40
0.3765412192357274
 40
0.5009982247609575
 40
0.6276661029316394
 40
0.7530549958969806
 40
0.8771659390197144
 40
1.0
 40
1.0
 40
1.0
 40
1.0
 10
319.4661890539101
 20
56.21552252597277
 30
0.0
 10
319.1284608716896
 20
56.07972716883409
 30
0.0
 10
318.4550351517694
 20
55.80895294578377
 30
0.0
 10
317.4435927080938
 20
55.40567337722511
 30
0.0
 10
316.4351906892513
 20
55.00606044355373
 30
0.0
 10
315.0833804077353
 20
54.47393414023412
 30
0.0
 10
313.3889975606421
 20
53.81352406164137
 30
0.0
 10
311.3319220065981
 20
53.02233915418353
 30
0.0
 10
309.2654202832351
 20
52.23803631242213
 30
0.0
 10
307.1889581849344
 20
51.46071218228317
 30
0.0
 10
305.1233934668159
 20
50.69703690452496
 30
0.0
 10
303.7447519803771
 20
50.19589643571086
 30
0.0
 10
303.0589955180008
 20
49.94662182847757
 30
0.0
  0
LINE
  5
273
330
1F
100
AcDbEntity
  8
0
  6
Continuous
 62
     7
370
    15
100
AcDbLine
 10
302.8894235705
 20
63.1496167153
 30
0.0
 11
302.8894235705
 21
80.8452532038
 31
0.0
  0
LINE
  5
274
330
1F
100
AcDbEntity
  8
0
  6
Continuous
 62
     7
370
    15
100
AcDbLine
 10
327.2390683507
 20
54.3936143041
 30
0.0
 11
327.2390683507
 21
58.4808929235
 31
0.0
  0
SPLINE
  5
275
330
1F
100
AcDbEntity
  8
0
  6
Continuous
 62
     7
370
    15
100
AcDbSpline
210
0.0
220
0.0
230
1.0
 70
     8
 71
     3
 72
    21
 73
    17
 74
     0
 42
0.00000001
 43
0.00000001
 12
1.0
 22
0.0
 32
0.0
 13
1.0
 23
0.0
 33
0.0
 40
0.0
 40
0.0
 40
0.0
 40
0.0
 40
0.1248289442000975
 40
0.2498636415414094
 40
0.3743947841634382
 40
0.3994057012365782
 40
0.4369542566664455
 40
0.4995198900273582
 40
0.5809684401135145
 40
0.6419309319016928
 40
0.6847798175679882
 40
0.7491680336553155
 40
0.8308260386425553
 40
0.8919522365791239
 40
0.953700877528657
 40
1.0
 40
1.0
 40
1.0
 40
1.0
 10
327.0943252261646
 20
54.17188331474594
 30
0.0
 10
327.1044360284504
 20
54.17668555300785
 30
0.0
 10
327.1246742984625
 20
54.18629794496837
 30
0.0
 10
327.1523710927301
 20
54.20626119471196
 30
0.0
 10
327.1706937471499
 20
54.22370952411463
 30
0.0
 10
327.1821059323426
 20
54.23674954790209
 30
0.0
 10
327.1894472253518
 20
54.24576873831003
 30
0.0
 10
327.1993858152697
 20
54.25952607728338
 30
0.0
 10
327.2093597306927
 20
54.27606816698983
 30
0.0
 10
327.2171075133739
 20
54.29183230505652
 30
0.0
 10
327.2232710423273
 20
54.30660904333644
 30
0.0
 10
327.2291738079193
 20
54.32368140850649
 30
0.0
 10
327.2340861427411
 20
54.34298809880578
 30
0.0
 10
327.2372863723145
 20
54.36243837643114
 30
0.0
 10
327.2388250272789
 20
54.37871021211007
 30
0.0
 10
327.2389941099979
 20
54.38914362275635
 30
0.0
 10
327.2390665629692
 20
54.39361440254866
 30
0.0
  0
SPLINE
  5
276
330
1F
100
AcDbEntity
  8
0
  6
Continuous
 62
     7
370
    15
100
AcDbSpline
210
0.0
220
0.0
230
1.0
 70
     8
 71
     3
 72
    19
 73
    15
 74
     0
 42
0.00000001
 43
0.00000001
 12
1.0
 22
0.0
 32
0.0
 13
1.0
 23
0.0
 33
0.0
 40
0.0
 40
0.0
 40
0.0
 40
0.0
 40
0.0493224421944639
 40
0.0988941240683633
 40
0.1487151274733357
 40
0.1987855330380778
 40
0.2491054201921973
 40
0.3731737742264868
 40
0.4989397696829264
 40
0.623198112883819
 40
0.7493054912023275
 40
0.8319691131779741
 40
0.9155338734262489
 40
1.0
 40
1.0
 40
1.0
 40
1.0
 10
308.4542608792568
 20
46.73936436646493
 30
0.0
 10
308.7694655252253
 20
46.85777465402831
 30
0.0
 10
309.4014676317398
 20
47.09519358845764
 30
0.0
 10
310.3487816404409
 20
47.45384097528068
 30
0.0
 10
311.2985266657545
 20
47.81546673668719
 30
0.0
 10
312.2504052195337
 20
48.18018937636248
 30
0.0
 10
313.6688660378132
 20
48.72704290302525
 30
0.0
 10
315.5564211991202
 20
49.46259872145631
 30
0.0
 10
317.89170214071
 20
50.38664164202095
 30
0.0
 10
320.2216744828523
 20
51.32277831952199
 30
0.0
 10
322.2681921976415
 20
52.15759424131274
 30
0.0
 10
324.0518868408934
 20
52.89463148627553
 30
0.0
 10
325.5734253713412
 20
53.52926158418177
 30
0.0
 10
326.5855488334627
 20
53.95691139209673
 30
0.0
 10
327.0943252261645
 20
54.17188331474594
 30
0.0
  0
SPLINE
  5
277
330
1F
100
AcDbEntity
  8
0
  6
Continuous
 62
     7
370
    15
100
AcDbSpline
210
0.0
220
0.0
230
1.0
 70
     8
 71
     3
 72
    23
 73
    19
 74
     0
 42
0.00000001
 43
0.00000001
 12
1.0
 22
0.0
 32
0.0
 13
1.0
 23
0.0
 33
0.0
 40
0.0
 40
0.0
 40
0.0
 40
0.0
 40
0.0155521043345106
 40
0.0311286531341083
 40
0.062340938839171
 40
0.124900394636102
 40
0.196378806101476
 40
0.249782632880405
 40
0.3211135771515664
 40
0.3747807892008028
 40
0.4463034506225222
 40
0.4997617015372004
 40
0.5354184422801049
 40
0.562209693661389
 40
0.624808567179033
 40
0.7497781646014866
 40
0.87487097763291
 40
1.0
 40
1.0
 40
1.0
 40
1.0
 10
308.2905239084784
 20
46.5176332786622
 30
0.0
 10
308.2905337869557
 20
46.51917625238072
 30
0.0
 10
308.2905535594373
 20
46.52226462503088
 30
0.0
 10
308.2907639173552
 20
46.52844641122398
 30
0.0
 10
308.2914678182258
 20
46.5392733740755
 30
0.0
 10
308.2935826247617
 20
46.5555423635731
 30
0.0
 10
308.2976093403258
 20
46.57369525935855
 30
0.0
 10
308.3033880272228
 20
46.5922310345298
 30
0.0
 10
308.3100460429794
 20
46.60855861062905
 30
0.0
 10
308.3187679426231
 20
46.6258397711951
 30
0.0
 10
308.3278889703074
 20
46.64085346098891
 30
0.0
 10
308.3370821987437
 20
46.65363021605291
 30
0.0
 10
308.3441981665623
 20
46.66244661729946
 30
0.0
 10
308.3522138624688
 20
46.67164880446025
 30
0.0
 10
308.3667463481563
 20
46.68666416976836
 30
0.0
 10
308.3901623932651
 20
46.70607162525974
 30
0.0
 10
308.4209543416025
 20
46.72543632621781
 30
0.0
 10
308.4431576290336
 20
46.73472123851309
 30
0.0
 10
308.4542608792563
 20
46.73936436646563
 30
0.0
  0
LINE
  5
278
330
1F
100
AcDbEntity
  8
0
  6
Continuous
 62
     7
370
    15
100
AcDbLine
 10
308.2905245339
 20
33.3252527162
 30
0.0
 11
308.2905245339
 21
46.5176334947
 31
0.0
  0
SPLINE
  5
279
330
1F
100
AcDbEntity
  8
0
  6
Continuous
 62
     7
370
    15
100
AcDbSpline
210
0.0
220
0.0
230
1.0
 70
     8
 71
     3
 72
    28
 73
    24
 74
     0
 42
0.00000001
 43
0.00000001
 12
1.0
 22
0.0
 32
0.0
 13
1.0
 23
0.0
 33
0.0
 40
0.0
 40
0.0
 40
0.0
 40
0.0
 40
0.124597128465473
 40
0.2495124255567776
 40
0.3740127755712393
 40
0.4992344288822587
 40
0.5989497419683947
 40
0.6741902810867807
 40
0.7118574414798478
 40
0.7306658472290071
 40
0.7494446350978596
 40
0.7744237990411627
 40
0.7893749863599451
 40
0.8118304839163734
 40
0.8368747655473234
 40
0.8519365589816441
 40
0.8745597411050559
 40
0.890988868887654
 40
0.915631167622638
 40
0.9463951632644444
 40
0.967882203747286
 40
0.98074795480859
 40
1.0
 40
1.0
 40
1.0
 40
1.0
 10
308.0249147784565
 20
33.08525361377547
 30
0.0
 10
308.0411469397629
 20
33.08604851111833
 30
0.0
 10
308.0736527124839
 20
33.08764033563728
 30
0.0
 10
308.1211452168078
 20
33.10014462617266
 30
0.0
 10
308.1660996505024
 20
33.12022978110664
 30
0.0
 10
308.2042070828386
 20
33.14649864075191
 30
0.0
 10
308.2327130441788
 20
33.17445472143216
 30
0.0
 10
308.2498861444208
 20
33.19706893596362
 30
0.0
 10
308.2591894299056
 20
33.21202024035531
 30
0.0
 10
308.264093463497
 20
33.22081851225656
 30
0.0
 10
308.2679351088054
 20
33.22826941870842
 30
0.0
 10
308.2712724566501
 20
33.23540460954459
 30
0.0
 10
308.2745449100208
 20
33.24311559657934
 30
0.0
 10
308.2775538116791
 20
33.25095277765773
 30
0.0
 10
308.2802240092186
 20
33.25893771609805
 30
0.0
 10
308.2826097187771
 20
33.26704014595731
 30
0.0
 10
308.2844305969712
 20
33.27410216056401
 30
0.0
 10
308.2862815719461
 20
33.2824879949606
 30
0.0
 10
308.2880190351228
 20
33.29202371900887
 30
0.0
 10
308.2893675775793
 20
33.30232007882542
 30
0.0
 10
308.2900813127521
 20
33.31108502434922
 30
0.0
 10
308.2904505191233
 20
33.3183155482973
 30
0.0
 10
308.2904964041073
 20
33.32265341205455
 30
0.0
 10
308.2905239084785
 20
33.32525361377549
 30
0.0
  0
LINE
  5
27A
330
1F
100
AcDbEntity
  8
0
  6
Continuous
 62
     7
370
    15
100
AcDbLine
 10
303.164022169
 20
33.0852527514
 30
0.0
 11
308.0249150609
 21
33.0852527514
 31
0.0
  0
SPLINE
  5
27B
330
1F
100
AcDbEntity
  8
0
  6
Continuous
 62
     7
370
    15
100
AcDbSpline
210
0.0
220
0.0
230
1.0
 70
     8
 71
     3
 72
    31
 73
    27
 74
     0
 42
0.00000001
 43
0.00000001
 12
1.0
 22
0.0
 32
0.0
 13
1.0
 23
0.0
 33
0.0
 40
0.0
 40
0.0
 40
0.0
 40
0.0
 40
0.0088994456615296
 40
0.0178104334370959
 40
0.0267318930836042
 40
0.0356626912603677
 40
0.0446016372332397
 40
0.0535474884753856
 40
0.0624989561717489
 40
0.0714547106373318
 40
0.0804133866588042
 40
0.0893735887700496
 40
0.1072921900322402
 40
0.1216198533400243
 40
0.1430839484234878
 40
0.1644982058688989
 40
0.1773180036709709
 40
0.1965857734962556
 40
0.2234066661192026
 40
0.2502774147605485
 40
0.3752654267341456
 40
0.5004553627158873
 40
0.6253748679660244
 40
0.7504188081158237
 40
0.8752036142080523
 40
1.0
 40
1.0
 40
1.0
 40
1.0
 10
302.8894225990946
 20
33.32525361377549
 30
0.0
 10
302.8894289500977
 20
33.32403646352003
 30
0.0
 10
302.8894416603409
 20
33.32160058442912
 30
0.0
 10
302.8895438552301
 20
33.31794579058049
 30
0.0
 10
302.8897063120597
 20
33.31428916586983
 30
0.0
 10
302.8899346093408
 20
33.31063236142585
 30
0.0
 10
302.8902266860075
 20
33.30697702776049
 30
0.0
 10
302.8905825314138
 20
33.30332481596082
 30
0.0
 10
302.8910015850172
 20
33.2996773755086
 30
0.0
 10
302.8914834329603
 20
33.29603636182036
 30
0.0
 10
302.8920276255032
 20
33.2924034082536
 30
0.0
 10
302.8928357056666
 20
33.2875726981294
 30
0.0
 10
302.8939062134419
 20
33.2820440839541
 30
0.0
 10
302.8955201932107
 20
33.27488710832548
 30
0.0
 10
302.8974964053995
 20
33.26732881087106
 30
0.0
 10
302.8997183080604
 20
33.26005874133048
 30
0.0
 10
302.9020808401388
 20
33.2531550225164
 30
0.0
 10
302.9049147792472
 20
33.24564083537548
 30
0.0
 10
302.9088210576583
 20
33.23649948654909
 30
0.0
 10
302.9194529164033
 20
33.214634025687
 30
0.0
 10
302.9404990980419
 20
33.18308870000936
 30
0.0
 10
302.9769454251853
 20
33.1475528371577
 30
0.0
 10
303.0192163362896
 20
33.11967857712776
 30
0.0
 10
303.0654344414764
 20
33.09988876655898
 30
0.0
 10
303.1141539134678
 20
33.08756914286609
 30
0.0
 10
303.1473990805994
 20
33.0860254806792
 30
0.0
 10
303.1640224353954
 20
33.08525361377547
 30
0.0
  0
LINE
  5
27C
330
1F
100
AcDbEntity
  8
0
  6
Continuous
 62
     7
370
    15
100
AcDbLine
 10
302.8894235705
 20
33.3252527162
 30
0.0
 11
302.8894235705
 21
49.7248905122
 31
0.0
  0
SPLINE
  5
27D
330
1F
100
AcDbEntity
  8
0
  6
Continuous
 62
     7
370
    15
100
AcDbSpline
210
0.0
220
0.0
230
1.0
 70
     8
 71
     3
 72
    21
 73
    17
 74
     0
 42
0.00000001
 43
0.00000001
 12
1.0
 22
0.0
 32
0.0
 13
1.0
 23
0.0
 33
0.0
 40
0.0
 40
0.0
 40
0.0
 40
0.0
 40
0.1249919375749683
 40
0.2502144116599956
 40
0.4991750864300197
 40
0.5242076932093235
 40
0.5617030957003616
 40
0.623975035397222
 40
0.652373582325952
 40
0.6951553114769514
 40
0.748839013049151
 40
0.7816135622684248
 40
0.8307444693751536
 40
0.8919568317010645
 40
0.953478675729106
 40
1.0
 40
1.0
 40
1.0
 40
1.0
 10
303.0589955180008
 20
49.94662182847755
 30
0.0
 10
303.0476429289574
 20
49.9420369710112
 30
0.0
 10
303.02491681203
 20
49.93285879971674
 30
0.0
 10
302.9828321896362
 20
49.90750206342487
 30
0.0
 10
302.9532230237181
 20
49.88056202210399
 30
0.0
 10
302.9342075414635
 20
49.85624851861652
 30
0.0
 10
302.9269535975453
 20
49.84621187386877
 30
0.0
 10
302.9201473128841
 20
49.83543084523038
 30
0.0
 10
302.9137474896339
 20
49.82379449032128
 30
0.0
 10
302.9082884930619
 20
49.81261185475203
 30
0.0
 10
302.903389697651
 20
49.80067562467146
 30
0.0
 10
302.8989834995637
 20
49.78787205817192
 30
0.0
 10
302.8950766957882
 20
49.7741020405431
 30
0.0
 10
302.8916741191533
 20
49.75723257553548
 30
0.0
 10
302.8897274198636
 20
49.74036966439679
 30
0.0
 10
302.8895143450422
 20
49.72954963753958
 30
0.0
 10
302.8894225990946
 20
49.72489074067484
 30
0.0
  0
SPLINE
  5
27E
330
1F
100
AcDbEntity
  8
0
  6
Continuous
 62
     7
370
    15
100
AcDbSpline
210
0.0
220
0.0
230
1.0
 70
     8
 71
     3
 72
    70
 73
    66
 74
     0
 42
0.00000001
 43
0.00000001
 12
1.0
 22
0.0
 32
0.0
 13
1.0
 23
0.0
 33
0.0
 40
0.0
 40
0.0
 40
0.0
 40
0.0
 40
0.0624144169798167
 40
0.1249343024724023
 40
0.1871800304137822
 40
0.2496781031101709
 40
0.3119273643836508
 40
0.3743674652389139
 40
0.3821963438230913
 40
0.3900231661389468
 40
0.3962821113863618
 40
0.4009743325481109
 40
0.4056644667268555
 40
0.413475767268977
 40
0.4212789559776986
 40
0.4275147914843209
 40
0.4321873158148983
 40
0.4368557933685057
 40
0.4446268193648046
 40
0.4524128033122957
 40
0.4563108023544134
 40
0.4602116561240997
 40
0.4680210519090133
 40
0.4730239856527976
 40
0.4805343642576885
 40
0.4880507016156307
 40
0.4936910110904504
 40
0.4993331985983526
 40
0.5032521686773656
 40
0.5071715184139831
 40
0.5110910308718654
 40
0.5150104887485748
 40
0.5189296746464122
 40
0.5228483713430334
 40
0.5267663620627719
 40
0.5306834307476809
 40
0.5345993623298964
 40
0.5385139430043933
 40
0.542426960502919
 40
0.5463382043696149
 40
0.5502474662375001
 40
0.5541545401072974
 40
0.5580592226278893
 40
0.5619613133790388
 40
0.5658606151566308
 40
0.5697569342601893
 40
0.5736500807834958
 40
0.5775449424554808
 40
0.581444261127679
 40
0.58534628683928
 40
0.5892508686076174
 40
0.5931578499515158
 40
0.5970670691631401
 40
0.6009783595766184
 40
0.6048915498341888
 40
0.6088064641492202
 40
0.6127229225668531
 40
0.6166407412221632
 40
0.6244796056642409
 40
0.6959913210967184
 40
0.7495654718895093
 40
0.8211162174075587
 40
0.8746537934614328
 40
0.9462151626656536
 40
1.0
 40
1.0
 40
1.0
 40
1.0
 10
319.4661890539101
 20
56.65898470157819
 30
0.0
 10
319.476698525283
 20
56.65424679772315
 30
0.0
 10
319.4977352270398
 20
56.64476298385522
 30
0.0
 10
319.5266674883931
 20
56.62505064720663
 30
0.0
 10
319.5528782843714
 20
56.60147097108473
 30
0.0
 10
319.5755261873223
 20
56.57401902921489
 30
0.0
 10
319.5941421963723
 20
56.54326086657333
 30
0.0
 10
319.6038695257685
 20
56.51946638306403
 30
0.0
 10
319.6083918605893
 20
56.50502980155681
 30
0.0
 10
319.609584572685
 20
56.50095175752335
 30
0.0
 10
319.6105470209766
 20
56.49743837939591
 30
0.0
 10
319.6113097689268
 20
56.49450005421816
 30
0.0
 10
319.6121112722529
 20
56.49125943040325
 30
0.0
 10
319.6129992262635
 20
56.48741624660749
 30
0.0
 10
319.61387494173
 20
56.48326037522698
 30
0.0
 10
319.6145625017064
 20
56.47968723311424
 30
0.0
 10
319.6150940536537
 20
56.47670411790852
 30
0.0
 10
319.6156392378547
 20
56.47341939067331
 30
0.0
 10
319.6162220423246
 20
56.4695257031841
 30
0.0
 10
319.616707384723
 20
56.46576835503267
 30
0.0
 10
319.6170512482006
 20
56.46275241356808
 30
0.0
 10
319.6173656920068
 20
56.45972821979584
 30
0.0
 10
319.6176544298825
 20
56.45648441861543
 30
0.0
 10
319.6179420580919
 20
56.45253444610405
 30
0.0
 10
319.6181646625816
 20
56.44863672857238
 30
0.0
 10
319.6183192387684
 20
56.44461089820148
 30
0.0
 10
319.6184002344115
 20
56.44094704453748
 30
0.0
 10
319.6184244847204
 20
56.4379835823211
 30
0.0
 10
319.6184150457111
 20
56.43535559393008
 30
0.0
 10
319.6183847065239
 20
56.4330636443492
 30
0.0
 10
319.6183322724312
 20
56.43077205654784
 30
0.0
 10
319.6182577556627
 20
56.42848119902015
 30
0.0
 10
319.618161168453
 20
56.4261914421967
 30
0.0
 10
319.6180425230265
 20
56.42390315598924
 30
0.0
 10
319.6179018316014
 20
56.42161671044867
 30
0.0
 10
319.6177391063889
 20
56.41933247558861
 30
0.0
 10
319.617554359593
 20
56.41705082143271
 30
0.0
 10
319.6173476034107
 20
56.41477211800197
 30
0.0
 10
319.6171188500321
 20
56.41249673531807
 30
0.0
 10
319.6168681116394
 20
56.41022504340269
 30
0.0
 10
319.6165954004106
 20
56.40795741227684
 30
0.0
 10
319.6163007285059
 20
56.40569421196418
 30
0.0
 10
319.615984108117
 20
56.40343581247869
 30
0.0
 10
319.6156455512844
 20
56.40118258387034
 30
0.0
 10
319.6152850705771
 20
56.39893489605522
 30
0.0
 10
319.6149026765596
 20
56.39669311944878
 30
0.0
 10
319.6144982116054
 20
56.39445665149035
 30
0.0
 10
319.614071340018
 20
56.39222434745535
 30
0.0
 10
319.6136220636843
 20
56.38999529989712
 30
0.0
 10
319.6131504674766
 20
56.38776958074644
 30
0.0
 10
319.6126567663052
 20
56.38554780715884
 30
0.0
 10
319.6121411104261
 20
56.3833302909653
 30
0.0
 10
319.6116036509135
 20
56.38111734397419
 30
0.0
 10
319.6110445385448
 20
56.378909277583
 30
0.0
 10
319.6104639244267
 20
56.37670640486304
 30
0.0
 10
319.6098619586094
 20
56.37450903260352
 30
0.0
 10
319.609238795006
 20
56.3723174910687
 30
0.0
 10
319.6083797164216
 20
56.3694031398335
 30
0.0
 10
319.6035959490408
 20
56.353997279942
 30
0.0
 10
319.5936058626496
 20
56.33018569930742
 30
0.0
 10
319.5738373319333
 20
56.29809242099448
 30
0.0
 10
319.5519438919463
 20
56.27202157084706
 30
0.0
 10
319.5242278915605
 20
56.24757761249976
 30
0.0
 10
319.4964056711214
 20
56.22894090468933
 30
0.0
 10
319.4752617182924
 20
56.2195514497202
 30
0.0
 10
319.4661890539101
 20
56.21552252597277
 30
0.0
  0
SPLINE
  5
27F
330
1F
100
AcDbEntity
  8
0
  6
Continuous
 62
     7
370
    15
100
AcDbSpline
210
0.0
220
0.0
230
1.0
 70
     8
 71
     3
 72
    22
 73
    18
 74
     0
 42
0.00000001
 43
0.00000001
 12
1.0
 22
0.0
 32
0.0
 13
1.0
 23
0.0
 33
0.0
 40
0.0
 40
0.0
 40
0.0
 40
0.0
 40
0.0155548084072978
 40
0.0311347787199944
 40
0.0623553491975929
 40
0.1249311977282274
 40
0.1964119699131646
 40
0.2498130384935142
 40
0.3212009382840513
 40
0.374893376731702
 40
0.4374900350102894
 40
0.4731589749890406
 40
0.4998814364555005
 40
0.6249386975844416
 40
0.7498852716570772
 40
0.8749571172035935
 40
1.0
 40
1.0
 40
1.0
 40
1.0
 10
302.8894225990946
 20
63.1496164868761
 30
0.0
 10
302.8894330506684
 20
63.14805792743721
 30
0.0
 10
302.8894539707227
 20
63.14493828738886
 30
0.0
 10
302.8896764334809
 20
63.1386939423082
 30
0.0
 10
302.8904204351576
 20
63.12775828895199
 30
0.0
 10
302.8926535591931
 20
63.11133418858986
 30
0.0
 10
302.8968978728796
 20
63.09302961315563
 30
0.0
 10
302.9029874945069
 20
63.07436760375874
 30
0.0
 10
302.909985103893
 20
63.05795737221501
 30
0.0
 10
302.9187100564871
 20
63.04141138430538
 30
0.0
 10
302.9267431295664
 20
63.02859435294899
 30
0.0
 10
302.9339748417769
 20
63.0185074959338
 30
0.0
 10
302.9453977003805
 20
63.00384146339407
 30
0.0
 10
302.9642333095691
 20
62.98381083904124
 30
0.0
 10
302.9932376617569
 20
62.96076051888473
 30
0.0
 10
303.0248999625287
 20
62.94163583449608
 30
0.0
 10
303.0476312102529
 20
62.93246852369534
 30
0.0
 10
303.0589955180001
 20
62.92788539907244
 30
0.0
  0
SPLINE
  5
280
330
1F
100
AcDbEntity
  8
0
  6
Continuous
 62
     7
370
    15
100
AcDbSpline
210
0.0
220
0.0
230
1.0
 70
     8
 71
     3
 72
    25
 73
    21
 74
     0
 42
0.00000001
 43
0.00000001
 12
1.0
 22
0.0
 32
0.0
 13
1.0
 23
0.0
 33
0.0
 40
0.0
 40
0.0
 40
0.0
 40
0.0
 40
0.1245534619834383
 40
0.249375805138483
 40
0.373750091880212
 40
0.4987508387563024
 40
0.6234627889989128
 40
0.7488351711437807
 40
0.7644469784569692
 40
0.7800581835896843
 40
0.811377390095912
 40
0.8364952940115418
 40
0.8515783951572374
 40
0.8742006470975336
 40
0.899310582356315
 40
0.9143536304379486
 40
0.9368695980456014
 40
0.9511302522625922
 40
0.9728266463612413
 40
1.0
 40
1.0
 40
1.0
 40
1.0
 10
303.1640224353954
 20
81.08525361377548
 30
0.0
 10
303.147432744246
 20
81.08447765736317
 30
0.0
 10
303.1142175487669
 20
81.082924069434
 30
0.0
 10
303.06560669839
 20
81.07066255437928
 30
0.0
 10
303.0194502324655
 20
81.05092906448621
 30
0.0
 10
302.9772660162326
 20
81.02318655674617
 30
0.0
 10
302.9407811683823
 20
80.98771148714798
 30
0.0
 10
302.9204989159811
 20
80.95752110634797
 30
0.0
 10
302.9109669040905
 20
80.93847438721417
 30
0.0
 10
302.9073835974011
 20
80.93075219391088
 30
0.0
 10
302.9036435765959
 20
80.92167185819571
 30
0.0
 10
302.90040374855
 20
80.91247042764753
 30
0.0
 10
302.897859360575
 20
80.90428483074615
 30
0.0
 10
302.8956016913654
 20
80.89601033653813
 30
0.0
 10
302.893716457169
 20
80.88764257614491
 30
0.0
 10
302.8921567000276
 20
80.87922212298872
 30
0.0
 10
302.8911187933701
 20
80.8722128170033
 30
0.0
 10
302.8902443218992
 20
80.86426617854138
 30
0.0
 10
302.8895802583159
 20
80.85565462983259
 30
0.0
 10
302.8894789372725
 20
80.84897032814415
 30
0.0
 10
302.8894225990946
 20
80.8452536137755
 30
0.0
  0
LINE
  5
281
330
1F
100
AcDbEntity
  8
0
  6
Continuous
 62
     7
370
    15
100
AcDbLine
 10
308.0249150609
 20
81.0852531686
 30
0.0
 11
303.164022169
 21
81.0852531686
 31
0.0
  0
SPLINE
  5
282
330
1F
100
AcDbEntity
  8
0
  6
Continuous
 62
     7
370
    15
100
AcDbSpline
210
0.0
220
0.0
230
1.0
 70
     8
 71
     3
 72
    42
 73
    38
 74
     0
 42
0.00000001
 43
0.00000001
 12
1.0
 22
0.0
 32
0.0
 13
1.0
 23
0.0
 33
0.0
 40
0.0
 40
0.0
 40
0.0
 40
0.0
 40
0.0077838100530815
 40
0.0155762754147507
 40
0.0233767191166492
 40
0.0311844318085204
 40
0.0389986742980677
 40
0.046818680050765
 40
0.0546436576537609
 40
0.0624727932452248
 40
0.0703052529136997
 40
0.0781401850694992
 40
0.0859767227926982
 40
0.0938139861596798
 40
0.1016510845539909
 40
0.1094871189629483
 40
0.1173211842661233
 40
0.1251523715167733
 40
0.132979770223432
 40
0.1408024706326387
 40
0.1486195660186242
 40
0.1564301549831654
 40
0.1642333437702708
 40
0.1720282485986475
 40
0.1876055306551927
 40
0.2125887486441018
 40
0.2276077331028397
 40
0.2501640341956771
 40
0.268081452027898
 40
0.2815228339546398
 40
0.3128693257806818
 40
0.3753331077580982
 40
0.5004338332733366
 40
0.6252805330366565
 40
0.7503389475317296
 40
0.8751318645511594
 40
1.0
 40
1.0
 40
1.0
 40
1.0
 10
308.2905239084783
 20
80.8452536137755
 30
0.0
 10
308.2905193402831
 20
80.84630482106792
 30
0.0
 10
308.2905101988128
 20
80.84840840455634
 30
0.0
 10
308.2904366168599
 20
80.85156467771014
 30
0.0
 10
308.290319550493
 20
80.85472266865955
 30
0.0
 10
308.2901549253566
 20
80.8578813562552
 30
0.0
 10
308.2899441600864
 20
80.86103971960145
 30
0.0
 10
308.2896871992717
 20
80.86419673772872
 30
0.0
 10
308.2893843829396
 20
80.86735138968086
 30
0.0
 10
308.2890359449844
 20
80.87050265449155
 30
0.0
 10
308.2886421477185
 20
80.87364951119042
 30
0.0
 10
308.2882032457849
 20
80.87679093880143
 30
0.0
 10
308.2877194958372
 20
80.87992591634348
 30
0.0
 10
308.2871911539443
 20
80.88305342283024
 30
0.0
 10
308.2866184762873
 20
80.88617243727037
 30
0.0
 10
308.2860017189763
 20
80.88928193866829
 30
0.0
 10
308.2853411380884
 20
80.89238090602217
 30
0.0
 10
308.2846369897011
 20
80.89546831833214
 30
0.0
 10
308.2838895297255
 20
80.8985431545712
 30
0.0
 10
308.2830990145396
 20
80.90160439379423
 30
0.0
 10
308.282265698624
 20
80.9046510147328
 30
0.0
 10
308.2813898433785
 20
80.90768199730627
 30
0.0
 10
308.2804716842574
 20
80.91069631698974
 30
0.0
 10
308.2791916361036
 20
80.9146914538188
 30
0.0
 10
308.2770722459195
 20
80.92084094216938
 30
0.0
 10
308.2743757567912
 20
80.9278087245716
 30
0.0
 10
308.2710664178863
 20
80.93552797734623
 30
0.0
 10
308.2679076904533
 20
80.94226924647462
 30
0.0
 10
308.2646147597343
 20
80.94869941288138
 30
0.0
 10
308.2605886894688
 20
80.95606515047979
 30
0.0
 10
308.253233475649
 20
80.9683818760154
 30
0.0
 10
308.2362812871676
 20
80.99220348688156
 30
0.0
 10
308.2071035871385
 20
81.02201241483475
 30
0.0
 10
308.1662378819934
 20
81.05021432506221
 30
0.0
 10
308.1212825347478
 20
81.07032914624565
 30
0.0
 10
308.0737103121262
 20
81.08289421513255
 30
0.0
 10
308.0411832229574
 20
81.08446698961154
 30
0.0
 10
308.0249147784565
 20
81.08525361377549
 30
0.0
  0
LINE
  5
283
330
1F
100
AcDbEntity
  8
0
  6
Continuous
 62
     7
370
    15
100
AcDbLine
 10
308.2905245339
 20
66.3568737328
 30
0.0
 11
308.2905245339
 21
80.8452532038
 31
0.0
  0
SPLINE
  5
284
330
1F
100
AcDbEntity
  8
0
  6
Continuous
 62
     7
370
    15
100
AcDbSpline
210
0.0
220
0.0
230
1.0
 70
     8
 71
     3
 72
    22
 73
    18
 74
     0
 42
0.00000001
 43
0.00000001
 12
1.0
 22
0.0
 32
0.0
 13
1.0
 23
0.0
 33
0.0
 40
0.0
 40
0.0
 40
0.0
 40
0.0
 40
0.1248809650360685
 40
0.2499846935008829
 40
0.3744684426493416
 40
0.4369629277444327
 40
0.4619966813780207
 40
0.4995400979273618
 40
0.5708943041229319
 40
0.6241918208251117
 40
0.6953916459138897
 40
0.7490510323128581
 40
0.7817913793647965
 40
0.830851699333131
 40
0.8919555963084187
 40
0.9535691467770671
 40
1.0
 40
1.0
 40
1.0
 40
1.0
 10
308.4542608792568
 20
66.13514286108602
 30
0.0
 10
308.4431811242467
 20
66.13977986631804
 30
0.0
 10
308.4210018500918
 20
66.14906214830036
 30
0.0
 10
308.3902684910227
 20
66.16838166727494
 30
0.0
 10
308.3668657272552
 20
66.1877155673505
 30
0.0
 10
308.3525071745823
 20
66.2025819805855
 30
0.0
 10
308.3444813230445
 20
66.21177719095981
 30
0.0
 10
308.336243174216
 20
66.22194994060065
 30
0.0
 10
308.3270556751967
 20
66.23493824636068
 30
0.0
 10
308.3171972032118
 20
66.25146981911999
 30
0.0
 10
308.3094666217715
 20
66.26725027022349
 30
0.0
 10
308.3037742169955
 20
66.28173976766091
 30
0.0
 10
308.2995831352888
 20
66.2944583979274
 30
0.0
 10
308.295874051177
 20
66.30811497492343
 30
0.0
 10
308.292651774186
 20
66.32484338269096
 30
0.0
 10
308.2908131631859
 20
66.34154656374994
 30
0.0
 10
308.2906108501876
 20
66.35226697438755
 30
0.0
 10
308.2905239084785
 20
66.35687394888875
 30
0.0
  0
SPLINE
  5
285
330
1F
100
AcDbEntity
  8
0
  6
Continuous
 62
     7
370
    15
100
AcDbSpline
210
0.0
220
0.0
230
1.0
 70
     8
 71
     3
 72
    19
 73
    15
 74
     0
 42
0.00000001
 43
0.00000001
 12
1.0
 22
0.0
 32
0.0
 13
1.0
 23
0.0
 33
0.0
 40
0.0
 40
0.0
 40
0.0
 40
0.0
 40
0.050786483651402
 40
0.1012492171056172
 40
0.1513882487088626
 40
0.2012036277503566
 40
0.2506954044868366
 40
0.3767980841620787
 40
0.5010611302869019
 40
0.6268224374476562
 40
0.7508954840487583
 40
0.8346210194989845
 40
0.9176557337383664
 40
0.9999999999999999
 40
0.9999999999999999
 40
0.9999999999999999
 40
0.9999999999999999
 10
327.0943252261646
 20
58.70262391280503
 30
0.0
 10
326.7886327418921
 20
58.83193965768321
 30
0.0
 10
326.1791964808563
 20
59.08974679428705
 30
0.0
 10
325.2637557717974
 20
59.4739952052279
 30
0.0
 10
324.3512005800641
 20
59.85486982196728
 30
0.0
 10
323.4413273793367
 20
60.2322847456828
 30
0.0
 10
322.0643403965269
 20
60.80004217339629
 30
0.0
 10
320.2217148569444
 20
61.55172105097591
 30
0.0
 10
317.8917602203027
 20
62.48784244594767
 30
0.0
 10
315.5564403039971
 20
63.41189241585391
 30
0.0
 10
313.4588556446431
 20
64.22933186820556
 30
0.0
 10
311.6191024043946
 20
64.93704808737539
 30
0.0
 10
310.0366194159797
 20
65.54000568418353
 30
0.0
 10
308.9802436215794
 20
65.93731671922212
 30
0.0
 10
308.4542608792569
 20
66.13514286108602
 30
0.0
  0
SPLINE
  5
286
330
1F
100
AcDbEntity
  8
0
  6
Continuous
 62
     7
370
    15
100
AcDbSpline
210
0.0
220
0.0
230
1.0
 70
     8
 71
     3
 72
    23
 73
    19
 74
     0
 42
0.00000001
 43
0.00000001
 12
1.0
 22
0.0
 32
0.0
 13
1.0
 23
0.0
 33
0.0
 40
0.0
 40
0.0
 40
0.0
 40
0.0
 40
0.0155509323309255
 40
0.0311244629956187
 40
0.0623269501136549
 40
0.1248663104910451
 40
0.1963596441297126
 40
0.2498304173058276
 40
0.3210229259297026
 40
0.3746245195801179
 40
0.4461561617488756
 40
0.4997113942091781
 40
0.5619975034458958
 40
0.5976758071357859
 40
0.6244771133854783
 40
0.7495396119342854
 40
0.8745721133914444
 40
1.0
 40
1.0
 40
1.0
 40
1.0
 10
327.2390665629692
 20
58.48089282500231
 30
0.0
 10
327.2390583319798
 20
58.48239438656444
 30
0.0
 10
327.2390418580395
 20
58.48539969173083
 30
0.0
 10
327.2388663696599
 20
58.49141524266881
 30
0.0
 10
327.238278311657
 20
58.50195303470422
 30
0.0
 10
327.2365068447846
 20
58.51780680402096
 30
0.0
 10
327.2331172227811
 20
58.53555265794055
 30
0.0
 10
327.2282465284755
 20
58.5537386709446
 30
0.0
 10
327.2226073111325
 20
58.56983231075026
 30
0.0
 10
327.2151570017135
 20
58.58695337417326
 30
0.0
 10
327.2073026038232
 20
58.60193481457435
 30
0.0
 10
327.1980146877063
 20
58.61690630288615
 30
0.0
 10
327.1897348308023
 20
58.62840403079305
 30
0.0
 10
327.1824229210994
 20
58.63740519735354
 30
0.0
 10
327.1709897494727
 20
58.65048510526522
 30
0.0
 10
327.1525366843411
 20
58.668108525492
 30
0.0
 10
327.1247816984758
 20
58.68818198199369
 30
0.0
 10
327.1044880623395
 20
58.69780487219582
 30
0.0
 10
327.0943252261647
 20
58.70262391280516
 30
0.0
  0
LINE
  5
287
330
1F
100
AcDbEntity
  8
0
  6
Continuous
 62
     7
370
    15
100
AcDbLine
 10
302.1033631031
 20
81.0852531686
 30
0.0
 11
303.164022169
 21
81.0852531686
 31
0.0
  0
LINE
  5
288
330
1F
100
AcDbEntity
  8
0
  6
Continuous
 62
     7
370
    15
100
AcDbLine
 10
302.1033631031
 20
33.0852527514
 30
0.0
 11
303.164022169
 21
33.0852527514
 31
0.0
  0
SPLINE
  5
289
330
1F
100
AcDbEntity
  8
0
  6
Continuous
 62
     7
370
    15
100
AcDbSpline
210
0.0
220
0.0
230
1.0
 70
     8
 71
     3
 72
    17
 73
    13
 74
     0
 42
0.00000001
 43
0.00000001
 12
1.0
 22
0.0
 32
0.0
 13
1.0
 23
0.0
 33
0.0
 40
0.0
 40
0.0
 40
0.0
 40
0.0
 40
0.0633296498407907
 40
0.1262093580589833
 40
0.1886391995255094
 40
0.2506192507427317
 40
0.3766008389103999
 40
0.5009318186028409
 40
0.626618890835159
 40
0.7507782341526975
 40
0.8760974248843207
 40
1.0
 40
1.0
 40
1.0
 40
1.0
 10
326.9146748426562
 20
52.17864499753073
 30
0.0
 10
326.5757233708656
 20
52.03546038924619
 30
0.0
 10
325.9002285943214
 20
51.75010846418501
 30
0.0
 10
324.8854557186825
 20
51.32511789853441
 30
0.0
 10
323.8743052242342
 20
50.9042899458155
 30
0.0
 10
322.5172352022295
 20
50.34334275955212
 30
0.0
 10
320.8151352245417
 20
49.64685021833625
 30
0.0
 10
318.7509216859272
 20
48.81355267118445
 30
0.0
 10
316.6824441144827
 20
47.98970527457054
 30
0.0
 10
314.594367236288
 20
47.16946998736677
 30
0.0
 10
312.5037552423732
 20
46.3585344180573
 30
0.0
 10
311.0975289936285
 20
45.82241202347507
 30
0.0
 10
310.3984124745621
 20
45.55587452808383
 30
0.0
  0
SPLINE
  5
28A
330
1F
100
AcDbEntity
  8
0
  6
Continuous
 62
     7
370
    15
100
AcDbSpline
210
0.0
220
0.0
230
1.0
 70
     8
 71
     3
 72
    17
 73
    13
 74
     0
 42
0.00000001
 43
0.00000001
 12
1.0
 22
0.0
 32
0.0
 13
1.0
 23
0.0
 33
0.0
 40
0.0
 40
0.0
 40
0.0
 40
0.0
 40
0.0617727947288585
 40
0.1239009210452371
 40
0.1863844979389168
 40
0.2492236423799679
 40
0.3733776989760816
 40
0.499070050133143
 40
0.6233957329946803
 40
0.7493826101816728
 40
0.8737888645855177
 40
1.0
 40
1.0
 40
1.0
 40
1.0
 10
310.3984124745621
 20
67.3186326994671
 30
0.0
 10
310.7472567354392
 20
67.1858983043271
 30
0.0
 10
311.44695189111
 20
66.919665994709
 30
0.0
 10
312.4955461665415
 20
66.51722770011008
 30
0.0
 10
313.5471311629136
 20
66.11107978414111
 30
0.0
 10
314.9421916618621
 20
65.56850478089504
 30
0.0
 10
316.6823820397847
 20
64.88479460014243
 30
0.0
 10
318.7508593995807
 20
64.06097958292813
 30
0.0
 10
320.8151544517801
 20
63.22768080079739
 30
0.0
 10
322.8572596463059
 20
62.3918995972565
 30
0.0
 10
324.8954557962869
 20
61.54718429617531
 30
0.0
 10
326.2383780354138
 20
60.98099543352822
 30
0.0
 10
326.9146748426562
 20
60.69586223002018
 30
0.0
  0
LINE
  5
28B
330
1F
100
AcDbEntity
  8
0
  6
Continuous
 62
     7
370
    15
100
AcDbLine
 10
309.4378990446
 20
81.0852531686
 30
0.0
 11
310.4985599731
 21
81.0852531686
 31
0.0
  0
SPLINE
  5
28C
330
1F
100
AcDbEntity
  8
0
  6
Continuous
 62
     7
370
    15
100
AcDbSpline
210
0.0
220
0.0
230
1.0
 70
     8
 71
     3
 72
    27
 73
    23
 74
     0
 42
0.00000001
 43
0.00000001
 12
1.0
 22
0.0
 32
0.0
 13
1.0
 23
0.0
 33
0.0
 40
0.0
 40
0.0
 40
0.0
 40
0.0
 40
0.1249193581480152
 40
0.2498394131050504
 40
0.3746087601511136
 40
0.4993878329209208
 40
0.624109106385533
 40
0.6866820375990128
 40
0.7178706249879686
 40
0.7334259876957719
 40
0.7489682029436034
 40
0.7652620026487109
 40
0.7897698685936861
 40
0.820481408639474
 40
0.8420062059235272
 40
0.8742862012435725
 40
0.8993584334830164
 40
0.9143761354909755
 40
0.9368519100537762
 40
0.9511368729384411
 40
0.9728546173372874
 40
1.0
 40
1.0
 40
1.0
 40
1.0
 10
310.4985586812936
 20
81.08525361377548
 30
0.0
 10
310.482457756606
 20
81.08445346501473
 30
0.0
 10
310.4502558174189
 20
81.08285316302994
 30
0.0
 10
310.4032195475939
 20
81.07019423839073
 30
0.0
 10
310.3588824742985
 20
81.04989120307052
 30
0.0
 10
310.3186247512176
 20
81.02169416085601
 30
0.0
 10
310.290029742281
 20
80.99180109034418
 30
0.0
 10
310.2733736814294
 20
80.96808296374525
 30
0.0
 10
310.2659848096702
 20
80.95557294143757
 30
0.0
 10
310.2620636973846
 20
80.9482718504785
 30
0.0
 10
310.2592314715496
 20
80.94263108924905
 30
0.0
 10
310.256054971944
 20
80.93582430644973
 30
0.0
 10
310.2523339859829
 20
80.92703274675982
 30
0.0
 10
310.2487971877126
 20
80.91739947605477
 30
0.0
 10
310.2453878045837
 20
80.90661469093597
 30
0.0
 10
310.2426798445306
 20
80.89639511063483
 30
0.0
 10
310.2406744027746
 20
80.88689738555846
 30
0.0
 10
310.2392394669497
 20
80.87862619850142
 30
0.0
 10
310.2382851260238
 20
80.87173948925003
 30
0.0
 10
310.2374833156862
 20
80.8639281825646
 30
0.0
 10
310.2368714937606
 20
80.8554651767334
 30
0.0
 10
310.2367785174395
 20
80.84890053153617
 30
0.0
 10
310.2367268654481
 20
80.8452536137755
 30
0.0
  0
LINE
  5
28D
330
1F
100
AcDbEntity
  8
0
  6
Continuous
 62
     7
370
    15
100
AcDbLine
 10
310.2367279445
 20
76.2813926086
 30
0.0
 11
310.2367279445
 21
80.8452532038
 31
0.0
  0
SPLINE
  5
28E
330
1F
100
AcDbEntity
  8
0
  6
Continuous
 62
     7
370
    15
100
AcDbSpline
210
0.0
220
0.0
230
1.0
 70
     8
 71
     3
 72
    13
 73
     9
 74
     0
 42
0.00000001
 43
0.00000001
 12
1.0
 22
0.0
 32
0.0
 13
1.0
 23
0.0
 33
0.0
 40
0.0
 40
0.0
 40
0.0
 40
0.0
 40
0.1632409102992542
 40
0.3278515240068714
 40
0.4938322988029925
 40
0.6611836811224214
 40
0.8299061065163815
 40
1.0
 40
1.0
 40
1.0
 40
1.0
 10
320.3921894150604
 20
69.0016942732919
 30
0.0
 10
320.7634921488914
 20
69.23365026899545
 30
0.0
 10
321.5092131016308
 20
69.69950853059497
 30
0.0
 10
322.6261203887607
 20
70.40379616724971
 30
0.0
 10
323.7475574716123
 20
71.11579101522372
 30
0.0
 10
324.8727556959383
 20
71.83572819137237
 30
0.0
 10
326.0021609170206
 20
72.56338524858116
 30
0.0
 10
326.7534340294948
 20
73.05209776082906
 30
0.0
 10
327.1305910955817
 20
73.29744312753924
 30
0.0
  0
SPLINE
  5
28F
330
1F
100
AcDbEntity
  8
0
  6
Continuous
 62
     7
370
    15
100
AcDbSpline
210
0.0
220
0.0
230
1.0
 70
     8
 71
     3
 72
    67
 73
    63
 74
     0
 42
0.00000001
 43
0.00000001
 12
1.0
 22
0.0
 32
0.0
 13
1.0
 23
0.0
 33
0.0
 40
0.0
 40
0.0
 40
0.0
 40
0.0
 40
0.0624069747475641
 40
0.1249544798995815
 40
0.2493979203116027
 40
0.2993687993152198
 40
0.3740443977581241
 40
0.3896914734694399
 40
0.3975196068318949
 40
0.4053486884122138
 40
0.4178734235255528
 40
0.4253855441075816
 40
0.4366463982374353
 40
0.4423619785733472
 40
0.4509284193250219
 40
0.4594852561939254
 40
0.4722989775902783
 40
0.4829582468490073
 40
0.4893660928887266
 40
0.4941770270750674
 40
0.4989919399025873
 40
0.5068014696764493
 40
0.5146193111585642
 40
0.5224440930282552
 40
0.5302744117946351
 40
0.5381088381723836
 40
0.5420271836419858
 40
0.545946011486637
 40
0.5522166456113803
 40
0.556919691280673
 40
0.5616224271983316
 40
0.5694586950392618
 40
0.5733757618068096
 40
0.5772918447516475
 40
0.5835550424085154
 40
0.5882500605520589
 40
0.5929426801090347
 40
0.5968511515874487
 40
0.6007575728764648
 40
0.6046617724642552
 40
0.6085635811507396
 40
0.6124628322510733
 40
0.6163593618019041
 40
0.620253008768696
 40
0.6241457568682216
 40
0.6280436343611239
 40
0.6319440648233682
 40
0.6358469222581528
 40
0.6397520763072255
 40
0.6436593924465066
 40
0.6475687321797745
 40
0.6553928222625597
 40
0.6616567526625767
 40
0.6663570067892324
 40
0.6710589192892791
 40
0.6788982964765867
 40
0.6867401901251828
 40
0.7493440244844644
 40
0.8118224258780296
 40
0.874483565042067
 40
0.9371419601253306
 40
1.0
 40
1.0
 40
1.0
 40
1.0
 10
320.4301072251361
 20
68.57754923849414
 30
0.0
 10
320.4204429557212
 20
68.58190066806912
 30
0.0
 10
320.4010926545213
 20
68.59061332593409
 30
0.0
 10
320.3653650867595
 20
68.61420124233149
 30
0.0
 10
320.3355857689362
 20
68.64327734289799
 30
0.0
 10
320.3106540807477
 20
68.67927895616383
 30
0.0
 10
320.2994041050365
 20
68.7016092218627
 30
0.0
 10
320.2931877250634
 20
68.71794335225681
 30
0.0
 10
320.2913382437869
 20
68.72320906284604
 30
0.0
 10
320.2897549949492
 20
68.72798137256507
 30
0.0
 10
320.2882950820243
 20
68.73273950741677
 30
0.0
 10
320.2867742741144
 20
68.73812299361612
 30
0.0
 10
320.285672248329
 20
68.74236306908908
 30
0.0
 10
320.2846072221037
 20
68.74680928965572
 30
0.0
 10
320.2837189607383
 20
68.75080203029464
 30
0.0
 10
320.2826567393419
 20
68.75606043494494
 30
0.0
 10
320.281658498757
 20
68.76171712922985
 30
0.0
 10
320.2808724463247
 20
68.76702098847502
 30
0.0
 10
320.2803755104241
 20
68.77091645515672
 30
0.0
 10
320.2800488467808
 20
68.77377646389375
 30
0.0
 10
320.2797285390663
 20
68.77689083381172
 30
0.0
 10
320.2794064644191
 20
68.78054832693962
 30
0.0
 10
320.2791125227222
 20
68.78475115581895
 30
0.0
 10
320.278893664625
 20
68.78896298095248
 30
0.0
 10
320.2787498166751
 20
68.79318147883407
 30
0.0
 10
320.2786923942599
 20
68.79670024669824
 30
0.0
 10
320.2786838775287
 20
68.79951644877522
 30
0.0
 10
320.2786986621947
 20
68.802051602245
 30
0.0
 10
320.2787450596065
 20
68.80472743275448
 30
0.0
 10
320.2788287748142
 20
68.80754311082599
 30
0.0
 10
320.2789537188223
 20
68.81063866794854
 30
0.0
 10
320.2791147883495
 20
68.81359099247265
 30
0.0
 10
320.2793054974174
 20
68.81639940083032
 30
0.0
 10
320.2794994631694
 20
68.81892401607494
 30
0.0
 10
320.2797348763026
 20
68.8215851253594
 30
0.0
 10
320.2800174504444
 20
68.82438130792092
 30
0.0
 10
320.2802829286958
 20
68.82675369940326
 30
0.0
 10
320.2805546046989
 20
68.8289824232089
 30
0.0
 10
320.2808278674098
 20
68.83106794667361
 30
0.0
 10
320.2811196989271
 20
68.83314937267781
 30
0.0
 10
320.2814300902013
 20
68.83522641333697
 30
0.0
 10
320.2817590311634
 20
68.83729878019682
 30
0.0
 10
320.2821065152206
 20
68.83936618425254
 30
0.0
 10
320.2824725900061
 20
68.841428717353
 30
0.0
 10
320.2828575704075
 20
68.84348754702964
 30
0.0
 10
320.2832615259908
 20
68.84554344919117
 30
0.0
 10
320.2836844468845
 20
68.84759683366043
 30
0.0
 10
320.284126138838
 20
68.84964702365883
 30
0.0
 10
320.2845864826184
 20
68.85169377535098
 30
0.0
 10
320.2850653623827
 20
68.85373684772487
 30
0.0
 10
320.2857285755892
 20
68.85645632229058
 30
0.0
 10
320.2865332983114
 20
68.8595737621469
 30
0.0
 10
320.2874247736146
 20
68.86281237599376
 30
0.0
 10
320.2882011169812
 20
68.8655020955225
 30
0.0
 10
320.2890864511062
 20
68.86845184316378
 30
0.0
 10
320.2901815412375
 20
68.8719222394011
 30
0.0
 10
320.2946169941404
 20
68.8851637847054
 30
0.0
 10
320.303886654762
 20
68.9069996026898
 30
0.0
 10
320.3210612470847
 20
68.93542485487227
 30
0.0
 10
320.3417739763948
 20
68.96097119075773
 30
0.0
 10
320.36543997174
 20
68.9835795221397
 30
0.0
 10
320.3832634840056
 20
68.9956496233931
 30
0.0
 10
320.3921894150606
 20
69.00169427329199
 30
0.0
  0
SPLINE
  5
290
330
1F
100
AcDbEntity
  8
0
  6
Continuous
 62
     7
370
    15
100
AcDbSpline
210
0.0
220
0.0
230
1.0
 70
     8
 71
     3
 72
    14
 73
    10
 74
     0
 42
0.00000001
 43
0.00000001
 12
1.0
 22
0.0
 32
0.0
 13
1.0
 23
0.0
 33
0.0
 40
0.0
 40
0.0
 40
0.0
 40
0.0
 40
0.1456700244483002
 40
0.2904021628237821
 40
0.4341965674036973
 40
0.5770533934657159
 40
0.7189727993667128
 40
0.8599549466241284
 40
1.0
 40
1.0
 40
1.0
 40
1.0
 10
327.0943252261646
 20
65.81525871088874
 30
0.0
 10
326.7744872724803
 20
65.95054701580182
 30
0.0
 10
326.1368706189868
 20
66.22025258151662
 30
0.0
 10
325.178930252794
 20
66.62216103810321
 30
0.0
 10
324.2239275212372
 20
67.02046740989641
 30
0.0
 10
323.2716643012096
 20
67.41508465155665
 30
0.0
 10
322.3222623106255
 20
67.806009895709
 30
0.0
 10
321.3760948352237
 20
68.19333985315461
 30
0.0
 10
320.7447346651686
 20
68.44976446197403
 30
0.0
 10
320.4301072251361
 20
68.57754923849414
 30
0.0
  0
SPLINE
  5
291
330
1F
100
AcDbEntity
  8
0
  6
Continuous
 62
     7
370
    15
100
AcDbSpline
210
0.0
220
0.0
230
1.0
 70
     8
 71
     3
 72
    23
 73
    19
 74
     0
 42
0.00000001
 43
0.00000001
 12
1.0
 22
0.0
 32
0.0
 13
1.0
 23
0.0
 33
0.0
 40
0.0
 40
0.0
 40
0.0
 40
0.0
 40
0.0155509323310194
 40
0.031124462995711
 40
0.0623269501137456
 40
0.1248663104910371
 40
0.196359644129796
 40
0.2498304173058996
 40
0.3210229259297676
 40
0.3746245195801871
 40
0.4461561617489271
 40
0.4997113942091997
 40
0.5619975034459384
 40
0.597675807135825
 40
0.6244771133855147
 40
0.7495396119343097
 40
0.8745721133914565
 40
0.9999999999999999
 40
0.9999999999999999
 40
0.9999999999999999
 40
0.9999999999999999
 10
327.2390665629692
 20
65.59352762308603
 30
0.0
 10
327.2390583319797
 20
65.59502918464817
 30
0.0
 10
327.2390418580395
 20
65.59803448981457
 30
0.0
 10
327.2388663696599
 20
65.60405004075257
 30
0.0
 10
327.238278311657
 20
65.61458783278795
 30
0.0
 10
327.2365068447845
 20
65.63044160210468
 30
0.0
 10
327.2331172227811
 20
65.64818745602429
 30
0.0
 10
327.2282465284755
 20
65.66637346902836
 30
0.0
 10
327.2226073111325
 20
65.682467108834
 30
0.0
 10
327.2151570017135
 20
65.69958817225702
 30
0.0
 10
327.2073026038231
 20
65.7145696126581
 30
0.0
 10
327.1980146877063
 20
65.7295411009699
 30
0.0
 10
327.1897348308023
 20
65.74103882887678
 30
0.0
 10
327.1824229210994
 20
65.75003999543729
 30
0.0
 10
327.1709897494727
 20
65.76311990334897
 30
0.0
 10
327.1525366843411
 20
65.78074332357575
 30
0.0
 10
327.1247816984758
 20
65.80081678007743
 30
0.0
 10
327.1044880623395
 20
65.81043967027956
 30
0.0
 10
327.0943252261647
 20
65.8152587108889
 30
0.0
  0
LINE
  5
292
330
1F
100
AcDbEntity
  8
0
  6
Continuous
 62
     7
370
    15
100
AcDbLine
 10
327.2390683507
 20
60.9175932005
 30
0.0
 11
327.2390683507
 21
65.5935272917
 31
0.0
  0
SPLINE
  5
293
330
1F
100
AcDbEntity
  8
0
  6
Continuous
 62
     7
370
    15
100
AcDbSpline
210
0.0
220
0.0
230
1.0
 70
     8
 71
     3
 72
    33
 73
    29
 74
     0
 42
0.00000001
 43
0.00000001
 12
1.0
 22
0.0
 32
0.0
 13
1.0
 23
0.0
 33
0.0
 40
0.0
 40
0.0
 40
0.0
 40
0.0
 40
0.0622574168101596
 40
0.1250248089767662
 40
0.2496656553421514
 40
0.3122817670858878
 40
0.3746993479122231
 40
0.4370828776226355
 40
0.4996779141226357
 40
0.6242046262140597
 40
0.6868064309822456
 40
0.7491452354170239
 40
0.8116323576377402
 40
0.8273086095533206
 40
0.8429843999658134
 40
0.8555190072810784
 40
0.8742996874568087
 40
0.888585098090338
 40
0.8971438757925994
 40
0.9099609489585488
 40
0.924324713110857
 40
0.9329707958067545
 40
0.9459470132921461
 40
0.9583092903866594
 40
0.9768491811774179
 40
0.9861142333841643
 40
0.9930592026229198
 40
1.0
 40
1.0
 40
1.0
 40
1.0
 10
326.9146748426562
 20
60.6958622300202
 30
0.0
 10
326.9234671683946
 20
60.69250846946338
 30
0.0
 10
326.9411238413219
 20
60.68577347635809
 30
0.0
 10
326.9778171102364
 20
60.67791675026616
 30
0.0
 10
327.0154748668639
 20
60.67652198264642
 30
0.0
 10
327.0524720271688
 20
60.68210049831681
 30
0.0
 10
327.0796655338535
 20
60.68960335318484
 30
0.0
 10
327.1058756486869
 20
60.70052359543574
 30
0.0
 10
327.1390176130228
 20
60.71928023737513
 30
0.0
 10
327.1689373953529
 20
60.74442491412994
 30
0.0
 10
327.1938296125591
 20
60.77486963710572
 30
0.0
 10
327.2098053509262
 20
60.80013178405265
 30
0.0
 10
327.219371126341
 20
60.82066133703047
 30
0.0
 10
327.2247065630564
 20
60.83484913547636
 30
0.0
 10
327.2270018469394
 20
60.84157177703086
 30
0.0
 10
327.2292629470635
 20
60.84884586189425
 30
0.0
 10
327.2312423571746
 20
60.85598215521924
 30
0.0
 10
327.2328363069614
 20
60.86256165957145
 30
0.0
 10
327.2340731251511
 20
60.86823345306819
 30
0.0
 10
327.2351901407811
 20
60.87394864960604
 30
0.0
 10
327.2361508568463
 20
60.87971263990792
 30
0.0
 10
327.23698333438
 20
60.88552606338995
 30
0.0
 10
327.2376514051622
 20
60.89103549780587
 30
0.0
 10
327.2383348867704
 20
60.8981718271637
 30
0.0
 10
327.2387609704674
 20
60.90472533100012
 30
0.0
 10
327.2389706806649
 20
60.91040311348509
 30
0.0
 10
327.2390527823834
 20
60.91418780412666
 30
0.0
 10
327.2390619703609
 20
60.91645837398201
 30
0.0
 10
327.2390665629694
 20
60.91759331782288
 30
0.0
  0
SPLINE
  5
294
330
1F
100
AcDbEntity
  8
0
  6
Continuous
 62
     7
370
    15
100
AcDbSpline
210
0.0
220
0.0
230
1.0
 70
     8
 71
     3
 72
    23
 73
    19
 74
     0
 42
0.00000001
 43
0.00000001
 12
1.0
 22
0.0
 32
0.0
 13
1.0
 23
0.0
 33
0.0
 40
0.0
 40
0.0
 40
0.0
 40
0.0
 40
0.0155517313315562
 40
0.0311276724639441
 40
0.0623382692462938
 40
0.1248943643928973
 40
0.1963741014845328
 40
0.2497826782207297
 40
0.3210960784271817
 40
0.3747559284711122
 40
0.4462814230707915
 40
0.4997477101491014
 40
0.53538960967874
 40
0.5621720089345394
 40
0.6247585814582914
 40
0.7497469892006554
 40
0.874837187191364
 40
1.0
 40
1.0
 40
1.0
 40
1.0
 10
310.2367268654481
 20
67.54036378726981
 30
0.0
 10
310.2367365506836
 20
67.53882598465239
 30
0.0
 10
310.2367559362317
 20
67.5357479854786
 30
0.0
 10
310.2369622095703
 20
67.52958695599077
 30
0.0
 10
310.2376525668259
 20
67.51879607340062
 30
0.0
 10
310.2397273434872
 20
67.50257869415626
 30
0.0
 10
310.2436802636793
 20
67.48447631223405
 30
0.0
 10
310.2493534824646
 20
67.46598310178179
 30
0.0
 10
310.2558952558462
 20
67.44968369318224
 30
0.0
 10
310.2644733516631
 20
67.43242055858198
 30
0.0
 10
310.273452751853
 20
67.41740955246198
 30
0.0
 10
310.2825088645682
 20
67.40462387693539
 30
0.0
 10
310.2895235207399
 20
67.39579785019075
 30
0.0
 10
310.2974280320602
 20
67.38658402001334
 30
0.0
 10
310.3117726667786
 20
67.37153843206771
 30
0.0
 10
310.3349138608345
 20
67.35206898641444
 30
0.0
 10
310.3653936814037
 20
67.33262127192634
 30
0.0
 10
310.3874040812887
 20
67.32329645886645
 30
0.0
 10
310.3984124745617
 20
67.31863269946646
 30
0.0
  0
LINE
  5
295
330
1F
100
AcDbEntity
  8
0
  6
Continuous
 62
     7
370
    15
100
AcDbLine
 10
310.2367279445
 20
67.5403640017
 30
0.0
 11
310.2367279445
 21
72.2162980929
 31
0.0
  0
SPLINE
  5
296
330
1F
100
AcDbEntity
  8
0
  6
Continuous
 62
     7
370
    15
100
AcDbSpline
210
0.0
220
0.0
230
1.0
 70
     8
 71
     3
 72
    36
 73
    32
 74
     0
 42
0.00000001
 43
0.00000001
 12
1.0
 22
0.0
 32
0.0
 13
1.0
 23
0.0
 33
0.0
 40
0.0
 40
0.0
 40
0.0
 40
0.0
 40
0.0621794667962268
 40
0.1250302904826944
 40
0.2497194617584652
 40
0.3123322656142609
 40
0.374885116747066
 40
0.4995083087053283
 40
0.5620481419685381
 40
0.6242725162119114
 40
0.6867695778005634
 40
0.7493438036844765
 40
0.8116046456827697
 40
0.8429015768587163
 40
0.8491751392944504
 40
0.8585900482117671
 40
0.8742875123477527
 40
0.8886386770749314
 40
0.8972457055827097
 40
0.9101460895555407
 40
0.9208840439461302
 40
0.9273201552815045
 40
0.9369631196949931
 40
0.9512205645921187
 40
0.9598203294981789
 40
0.966335093379786
 40
0.9728513122359029
 40
0.9796397095118691
 40
0.9864278948898592
 40
0.9932149591720161
 40
1.0
 40
1.0
 40
1.0
 40
1.0
 10
310.5986399064501
 20
72.43802918033566
 30
0.0
 10
310.5890172193713
 20
72.44133211116
 30
0.0
 10
310.5696679482585
 20
72.44797363482833
 30
0.0
 10
310.5296231084803
 20
72.45577834000812
 30
0.0
 10
310.4886203242919
 20
72.45741363165904
 30
0.0
 10
310.4481713992225
 20
72.45233090406369
 30
0.0
 10
310.4084405364891
 20
72.44301183118773
 30
0.0
 10
310.3703603894317
 20
72.42703308727637
 30
0.0
 10
310.3356606175708
 20
72.40489422482474
 30
0.0
 10
310.3116215387906
 20
72.38519144667949
 30
0.0
 10
310.2901429218272
 20
72.3624880056582
 30
0.0
 10
310.271565595025
 20
72.33714220962273
 30
0.0
 10
310.2589467509015
 20
72.31401117990694
 30
0.0
 10
310.2524929522024
 20
72.29843419401513
 30
0.0
 10
310.2497591550222
 20
72.29098108527953
 30
0.0
 10
310.2480187623965
 20
72.28596884087823
 30
0.0
 10
310.2460042445944
 20
72.27960287206243
 30
0.0
 10
310.2442383776
 20
72.27330021951822
 30
0.0
 10
310.2427499819553
 20
72.26741112981541
 30
0.0
 10
310.2415390336748
 20
72.26208155505311
 30
0.0
 10
310.2405428810672
 20
72.25708020821375
 30
0.0
 10
310.2397424350156
 20
72.2526028695531
 30
0.0
 10
310.2389309666019
 20
72.24752037223128
 30
0.0
 10
310.2382135340648
 20
72.24205054039645
 30
0.0
 10
310.2377008383717
 20
72.23709073007349
 30
0.0
 10
310.2373872470589
 20
72.23343163842291
 30
0.0
 10
310.2371505164623
 20
72.23007466883219
 30
0.0
 10
310.2369625952507
 20
72.22666779915097
 30
0.0
 10
310.2368274041584
 20
72.22321222356796
 30
0.0
 10
310.2367426152557
 20
72.21975535762611
 30
0.0
 10
310.2367321148621
 20
72.21745039968256
 30
0.0
 10
310.2367268654482
 20
72.21629809253295
 30
0.0
  0
SPLINE
  5
297
330
1F
100
AcDbEntity
  8
0
  6
Continuous
 62
     7
370
    15
100
AcDbSpline
210
0.0
220
0.0
230
1.0
 70
     8
 71
     3
 72
    12
 73
     8
 74
     0
 42
0.00000001
 43
0.00000001
 12
1.0
 22
0.0
 32
0.0
 13
1.0
 23
0.0
 33
0.0
 40
0.0
 40
0.0
 40
0.0
 40
0.0
 40
0.2023942240046795
 40
0.403590945572705
 40
0.6035905516258068
 40
0.8023934360774797
 40
1.0
 40
1.0
 40
1.0
 40
1.0
 10
316.0129756340497
 20
70.34264406196809
 30
0.0
 10
315.6503280724522
 20
70.48518397500061
 30
0.0
 10
314.9271786198698
 20
70.76942043760498
 30
0.0
 10
313.8410505533666
 20
71.19252610843063
 30
0.0
 10
312.7580525771162
 20
71.61160640681028
 30
0.0
 10
311.6782728737627
 20
72.02667131398492
 30
0.0
 10
310.9577927854158
 20
72.30118604340106
 30
0.0
 10
310.59863990645
 20
72.43802918033566
 30
0.0
  0
SPLINE
  5
298
330
1F
100
AcDbEntity
  8
0
  6
Continuous
 62
     7
370
    15
100
AcDbSpline
210
0.0
220
0.0
230
1.0
 70
     8
 71
     3
 72
    32
 73
    28
 74
     0
 42
0.00000001
 43
0.00000001
 12
1.0
 22
0.0
 32
0.0
 13
1.0
 23
0.0
 33
0.0
 40
0.0
 40
0.0
 40
0.0
 40
0.0
 40
0.007787809464394
 40
0.0155856134389418
 40
0.0233924595541801
 40
0.0312073450332943
 40
0.0351175150333762
 40
0.0390292982078534
 40
0.0468570763531995
 40
0.0625252047050398
 40
0.0768592188358883
 40
0.0854606790733348
 40
0.0983595279199232
 40
0.1091022895027077
 40
0.1251975845725135
 40
0.1408155434732845
 40
0.156399234173467
 40
0.1876417744141549
 40
0.2503068749158284
 40
0.3751356402797292
 40
0.5000163127712242
 40
0.562629767338432
 40
0.6252037580609604
 40
0.7499713573141443
 40
0.8747559517685135
 40
0.9375377268198388
 40
1.0
 40
1.0
 40
1.0
 40
1.0
 10
316.3613710251367
 20
70.5548095086277
 30
0.0
 10
316.3613111875728
 20
70.55353277289947
 30
0.0
 10
316.3611914356524
 20
70.55097766294013
 30
0.0
 10
316.3609281187643
 20
70.54714789597345
 30
0.0
 10
316.360604056386
 20
70.54331906172217
 30
0.0
 10
316.3602787809281
 20
70.54013149330375
 30
0.0
 10
316.3599865225813
 20
70.53758359747604
 30
0.0
 10
316.3596726601724
 20
70.53503644073417
 30
0.0
 10
316.3590672092421
 20
70.53058350788363
 30
0.0
 10
316.3580786565291
 20
70.5244616523239
 30
0.0
 10
316.356873837437
 20
70.51825395307246
 30
0.0
 10
316.3556180179526
 20
70.51252415585196
 30
0.0
 10
316.3543727414986
 20
70.50739788136565
 30
0.0
 10
316.3526831539644
 20
70.5011251221497
 30
0.0
 10
316.3506908501179
 20
70.4944817444052
 30
0.0
 10
316.3482268847303
 20
70.48716828350858
 30
0.0
 10
316.3446562969701
 20
70.4776393605423
 30
0.0
 10
316.3375704176872
 20
70.46129302418846
 30
0.0
 10
316.3203761807533
 20
70.4302330785419
 30
0.0
 10
316.2878806712126
 20
70.39143658041418
 30
0.0
 10
316.247655198518
 20
70.36202489091917
 30
0.0
 10
316.2124296774772
 20
70.34468698772314
 30
0.0
 10
316.1756662971765
 20
70.3314509900373
 30
0.0
 10
316.1275372545485
 20
70.32285001939103
 30
0.0
 10
316.0787902011747
 20
70.32499279125977
 30
0.0
 10
316.040605308607
 20
70.3327962228991
 30
0.0
 10
316.0221698490719
 20
70.33936703640211
 30
0.0
 10
316.0129756340498
 20
70.34264406196806
 30
0.0
  0
SPLINE
  5
299
330
1F
100
AcDbEntity
  8
0
  6
Continuous
 62
     7
370
    15
100
AcDbSpline
210
0.0
220
0.0
230
1.0
 70
     8
 71
     3
 72
    30
 73
    26
 74
     0
 42
0.00000001
 43
0.00000001
 12
1.0
 22
0.0
 32
0.0
 13
1.0
 23
0.0
 33
0.0
 40
0.0
 40
0.0
 40
0.0
 40
0.0
 40
0.0209985586625111
 40
0.0419646292716039
 40
0.0629150888092219
 40
0.094293493529207
 40
0.1255991245726689
 40
0.1880570486423104
 40
0.25033718391233
 40
0.3125000820601231
 40
0.3746428554295583
 40
0.4369086003588754
 40
0.4994948971412144
 40
0.5621614594994011
 40
0.6245715632806622
 40
0.6868575882918996
 40
0.7492163005774133
 40
0.780464578690309
 40
0.8117112336603641
 40
0.842968764441916
 40
0.8742510190993719
 40
0.9056230980930957
 40
0.9369571072951242
 40
0.9684824178496514
 40
1.0
 40
1.0
 40
1.0
 40
1.0
 10
310.5083402994628
 20
76.04156131331206
 30
0.0
 10
310.5703882449572
 20
76.04316224813812
 30
0.0
 10
310.694388138073
 20
76.04636164089372
 30
0.0
 10
310.8802640869752
 20
76.04419332425987
 30
0.0
 10
311.0965545197587
 20
76.03569913293606
 30
0.0
 10
311.3427911421757
 20
76.01670963594047
 30
0.0
 10
311.7094526100461
 20
75.97185045942503
 30
0.0
 10
312.162306245054
 20
75.88498809490596
 30
0.0
 10
312.6931270099753
 20
75.7314322165668
 30
0.0
 10
313.2071163780278
 20
75.52870401123499
 30
0.0
 10
313.7003816286825
 20
75.27688502649023
 30
0.0
 10
314.1690207131685
 20
74.97598696479132
 30
0.0
 10
314.6080941565497
 20
74.62715691564728
 30
0.0
 10
315.0110967964695
 20
74.23270343651022
 30
0.0
 10
315.3713180884765
 20
73.796104205811
 30
0.0
 10
315.6836470814945
 20
73.32151935379015
 30
0.0
 10
315.9001640277055
 20
72.8974307140759
 30
0.0
 10
316.0444856795908
 20
72.54373552560168
 30
0.0
 10
316.1378195481707
 20
72.27180547946328
 30
0.0
 10
316.215821646156
 20
71.99442458839567
 30
0.0
 10
316.2781608610822
 20
71.71224952339077
 30
0.0
 10
316.3245647297954
 20
71.42639270439388
 30
0.0
 10
316.3543148594497
 20
71.13736215381432
 30
0.0
 10
316.3686260820875
 20
70.84642210118439
 30
0.0
 10
316.3637891798023
 20
70.65200576167163
 30
0.0
 10
316.3613710251367
 20
70.5548095086277
 30
0.0
  0
SPLINE
  5
29A
330
1F
100
AcDbEntity
  8
0
  6
Continuous
 62
     7
370
    15
100
AcDbSpline
210
0.0
220
0.0
230
1.0
 70
     8
 71
     3
 72
    31
 73
    27
 74
     0
 42
0.00000001
 43
0.00000001
 12
1.0
 22
0.0
 32
0.0
 13
1.0
 23
0.0
 33
0.0
 40
0.0
 40
0.0
 40
0.0
 40
0.0
 40
0.00890263788433
 40
0.0178165924671078
 40
0.0267408070873712
 40
0.035674170062774
 40
0.0446155198541996
 40
0.0535636501405877
 40
0.0625173148115799
 40
0.0714752328876154
 40
0.0804360933752832
 40
0.089398560067819
 40
0.1073222187065602
 40
0.1216547068902014
 40
0.1431281184994401
 40
0.1645551390751466
 40
0.177381853971405
 40
0.1966434852481464
 40
0.223461034394007
 40
0.2503316105040032
 40
0.3753442427012084
 40
0.5005303778525372
 40
0.6254499769622834
 40
0.7505258613279403
 40
0.8752510198134354
 40
1.0
 40
1.0
 40
1.0
 40
1.0
 10
310.2367268654481
 20
76.28139348147282
 30
0.0
 10
310.2367329980799
 20
76.28016756120995
 30
0.0
 10
310.236745271139
 20
76.27771416234047
 30
0.0
 10
310.236843990784
 20
76.27403306150873
 30
0.0
 10
310.2370009760189
 20
76.27035007738623
 30
0.0
 10
310.2372216500827
 20
76.26666680568691
 30
0.0
 10
310.2375040597155
 20
76.26298484156507
 30
0.0
 10
310.237848231388
 20
76.25930578072054
 30
0.0
 10
310.2382536606192
 20
76.2556312173015
 30
0.0
 10
310.2387199845903
 20
76.25196275119664
 30
0.0
 10
310.2392468056298
 20
76.24830196094936
 30
0.0
 10
310.240029339906
 20
76.24343349841324
 30
0.0
 10
310.2410664695723
 20
76.23786032347039
 30
0.0
 10
310.2426310437816
 20
76.23064299803595
 30
0.0
 10
310.2445479613339
 20
76.22301723176335
 30
0.0
 10
310.2467047515641
 20
76.21567805814082
 30
0.0
 10
310.2489981449028
 20
76.20870699857174
 30
0.0
 10
310.2517510528543
 20
76.2011185913249
 30
0.0
 10
310.2555504055449
 20
76.19188205932247
 30
0.0
 10
310.2659101845782
 20
76.1697682012492
 30
0.0
 10
310.2864858574931
 20
76.13778945758625
 30
0.0
 10
310.3224063996651
 20
76.1017318104309
 30
0.0
 10
310.3643180666247
 20
76.07358850712097
 30
0.0
 10
310.410304207353
 20
76.05398111919762
 30
0.0
 10
310.4588419234291
 20
76.04237643786712
 30
0.0
 10
310.4918397904886
 20
76.04183303879306
 30
0.0
 10
310.5083402994628
 20
76.04156131331206
 30
0.0
  0
LINE
  5
29B
330
1F
100
AcDbEntity
  8
0
  6
Continuous
 62
     7
370
    15
100
AcDbLine
 10
315.137012056
 20
81.0852531686
 30
0.0
 11
310.4985599731
 21
81.0852531686
 31
0.0
  0
SPLINE
  5
29C
330
1F
100
AcDbEntity
  8
0
  6
Continuous
 62
     7
370
    15
100
AcDbSpline
210
0.0
220
0.0
230
1.0
 70
     8
 71
     3
 72
    42
 73
    38
 74
     0
 42
0.00000001
 43
0.00000001
 12
1.0
 22
0.0
 32
0.0
 13
1.0
 23
0.0
 33
0.0
 40
0.0
 40
0.0
 40
0.0
 40
0.0
 40
0.0077828895158818
 40
0.0155741106595905
 40
0.0233730240859818
 40
0.0311789636462187
 40
0.0389912385135104
 40
0.0468091352779706
 40
0.0546319200129063
 40
0.0624588403147342
 40
0.0702891273188736
 40
0.0781219976943732
 40
0.0859566556200032
 40
0.093792294744892
 40
0.1016281001350476
 40
0.1094632502112532
 40
0.1172969186789004
 40
0.125128276453415
 40
0.1329564935858853
 40
0.1407807411891496
 40
0.1486001933694401
 40
0.1564140291666965
 40
0.1642214345048934
 40
0.1720216041574804
 40
0.179813743730024
 40
0.1875970716622823
 40
0.2125525176461585
 40
0.2275571299361641
 40
0.2500957540241402
 40
0.2814367959221575
 40
0.312783106312072
 40
0.3752761108028197
 40
0.5002737950803146
 40
0.6250894296415315
 40
0.750158866538972
 40
0.8750010883072417
 40
1.0
 40
1.0
 40
1.0
 40
1.0
 10
315.390647618948
 20
80.8452536137755
 30
0.0
 10
315.3906434011355
 20
80.84628802983713
 30
0.0
 10
315.3906349609952
 20
80.84835796930865
 30
0.0
 10
315.3905669966334
 20
80.85146376931873
 30
0.0
 10
315.3904588326815
 20
80.85457127691012
 30
0.0
 10
315.3903066835698
 20
80.85767956591522
 30
0.0
 10
315.3901118349628
 20
80.86078771037626
 30
0.0
 10
315.3898742117286
 20
80.86389478427448
 30
0.0
 10
315.3895941037801
 20
80.86699986160237
 30
0.0
 10
315.3892717030608
 20
80.87010201634418
 30
0.0
 10
315.3889072277486
 20
80.87320032248118
 30
0.0
 10
315.388500888944
 20
80.87629385399006
 30
0.0
 10
315.3880528996042
 20
80.87938168484365
 30
0.0
 10
315.3875634721496
 20
80.88246288901065
 30
0.0
 10
315.3870328191047
 20
80.8855365404561
 30
0.0
 10
315.3864611529283
 20
80.88860171314101
 30
0.0
 10
315.3858486860593
 20
80.89165748102386
 30
0.0
 10
315.3851956309026
 20
80.89470291805611
 30
0.0
 10
315.3845021998418
 20
80.89773709819963
 30
0.0
 10
315.3837686052062
 20
80.90075909536264
 30
0.0
 10
315.3829950593896
 20
80.90376798363857
 30
0.0
 10
315.3821817744071
 20
80.90676283641668
 30
0.0
 10
315.3813289635494
 20
80.90974272969743
 30
0.0
 10
315.3804368352147
 20
80.91270672973532
 30
0.0
 10
315.3795056158935
 20
80.91565393909038
 30
0.0
 10
315.3778215713672
 20
80.9207389356332
 30
0.0
 10
315.3756667464135
 20
80.92666526246077
 30
0.0
 10
315.3725862378476
 20
80.9343092289571
 30
0.0
 10
315.3689279472893
 20
80.94261226847738
 30
0.0
 10
315.3639514969098
 20
80.95265338992513
 30
0.0
 10
315.3559094718587
 20
80.96696877825613
 30
0.0
 10
315.3399996490866
 20
80.99077469890415
 30
0.0
 10
315.312397552036
 20
81.0207501729998
 30
0.0
 10
315.2734263892578
 20
81.04937985515404
 30
0.0
 10
315.2302190269713
 20
81.06991347990473
 30
0.0
 10
315.1842719905935
 20
81.08283141127666
 30
0.0
 10
315.1527710949369
 20
81.08444587543438
 30
0.0
 10
315.1370107690855
 20
81.08525361377548
 30
0.0
  0
LINE
  5
29D
330
1F
100
AcDbEntity
  8
0
  6
Continuous
 62
     7
370
    15
100
AcDbLine
 10
315.390648446
 20
79.4672329322
 30
0.0
 11
315.390648446
 21
80.8452532038
 31
0.0
  0
SPLINE
  5
29E
330
1F
100
AcDbEntity
  8
0
  6
Continuous
 62
     7
370
    15
100
AcDbSpline
210
0.0
220
0.0
230
1.0
 70
     8
 71
     3
 72
    21
 73
    17
 74
     0
 42
0.00000001
 43
0.00000001
 12
1.0
 22
0.0
 32
0.0
 13
1.0
 23
0.0
 33
0.0
 40
0.0
 40
0.0
 40
0.0
 40
0.0
 40
0.1249026585144896
 40
0.2500665950989908
 40
0.3124691989294616
 40
0.3747052203251786
 40
0.4246797054901776
 40
0.4997808242615662
 40
0.5814295229370656
 40
0.642431776926212
 40
0.6851022416735388
 40
0.7493854819219635
 40
0.8209807788363475
 40
0.8746399203831031
 40
0.9245788544324511
 40
1.0
 40
1.0
 40
1.0
 40
1.0
 10
315.5257083207246
 20
79.25498925288062
 30
0.0
 10
315.5162536678651
 20
79.2601608635939
 30
0.0
 10
315.4973245843969
 20
79.27051490327273
 30
0.0
 10
315.4758089313479
 20
79.28725338412545
 30
0.0
 10
315.459860539382
 20
79.30212905588263
 30
0.0
 10
315.4494149402647
 20
79.31332710479941
 30
0.0
 10
315.4389346014416
 20
79.32603602784938
 30
0.0
 10
315.4282954062224
 20
79.34087686212077
 30
0.0
 10
315.4184201278817
 20
79.35748754060673
 30
0.0
 10
315.4111577080192
 20
79.37230246407562
 30
0.0
 10
315.4053984474542
 20
79.38613652037571
 30
0.0
 10
315.4001969560443
 20
79.40124344946258
 30
0.0
 10
315.3959229527579
 20
79.41770633803178
 30
0.0
 10
315.3931002465057
 20
79.43318610033498
 30
0.0
 10
315.3910993219063
 20
79.44916625079183
 30
0.0
 10
315.3908172959411
 20
79.4604462122081
 30
0.0
 10
315.390647618948
 20
79.46723264385822
 30
0.0
  0
SPLINE
  5
29F
330
1F
100
AcDbEntity
  8
0
  6
Continuous
 62
     7
370
    15
100
AcDbSpline
210
0.0
220
0.0
230
1.0
 70
     8
 71
     3
 72
    20
 73
    16
 74
     0
 42
0.00000001
 43
0.00000001
 12
1.0
 22
0.0
 32
0.0
 13
1.0
 23
0.0
 33
0.0
 40
0.0
 40
0.0
 40
0.0
 40
0.0
 40
0.0418230271812587
 40
0.0836944813399427
 40
0.1256576932623172
 40
0.1879665730977811
 40
0.250539316954995
 40
0.3750234232863379
 40
0.4994487497565437
 40
0.6240329444729991
 40
0.7489224782139741
 40
0.8114748365610832
 40
0.8742361658002592
 40
0.9370390719544786
 40
1.0
 40
1.0
 40
1.0
 40
1.0
 10
320.1021111967107
 20
74.40127208544438
 30
0.0
 10
320.063929283169
 20
74.49014636415251
 30
0.0
 10
319.9875212451618
 20
74.66799782929634
 30
0.0
 10
319.8626247089467
 20
74.92982993499359
 30
0.0
 10
319.7089054870036
 20
75.22953283784172
 30
0.0
 10
319.5205119278918
 20
75.56395870654161
 30
0.0
 10
319.2171878962254
 20
76.04908350971613
 30
0.0
 10
318.7988333045496
 20
76.62616420876242
 30
0.0
 10
318.2401255586348
 20
77.26700056733502
 30
0.0
 10
317.6292770119664
 20
77.85392619576706
 30
0.0
 10
317.0810042097657
 20
78.29562753166233
 30
0.0
 10
316.6212002045132
 20
78.61964832456093
 30
0.0
 10
316.2657354495311
 20
78.84753622743409
 30
0.0
 10
315.9011099610702
 20
79.0613538355584
 30
0.0
 10
315.6509469771933
 20
79.19039006922266
 30
0.0
 10
315.5257083207246
 20
79.25498925288062
 30
0.0
  0
SPLINE
  5
2A0
330
1F
100
AcDbEntity
  8
0
  6
Continuous
 62
     7
370
    15
100
AcDbSpline
210
0.0
220
0.0
230
1.0
 70
     8
 71
     3
 72
    20
 73
    16
 74
     0
 42
0.00000001
 43
0.00000001
 12
1.0
 22
0.0
 32
0.0
 13
1.0
 23
0.0
 33
0.0
 40
0.0
 40
0.0
 40
0.0
 40
0.0
 40
0.0621941540539483
 40
0.1251054103193371
 40
0.2499118881448087
 40
0.3750659069974911
 40
0.4998221306218494
 40
0.6247710140696356
 40
0.7495662720988315
 40
0.87436197966686
 40
0.9372242201146989
 40
0.9686508629607681
 40
0.9843382615169483
 40
0.9921727243702267
 40
0.9999999999999999
 40
0.9999999999999999
 40
0.9999999999999999
 40
0.9999999999999999
 10
320.4611508939567
 20
74.28975860024102
 30
0.0
 10
320.4535098877511
 20
74.28532717972978
 30
0.0
 10
320.4381397740943
 20
74.27641324417117
 30
0.0
 10
320.4055021197277
 20
74.26297939278535
 30
0.0
 10
320.3626414022062
 20
74.25251482183359
 30
0.0
 10
320.3099953138665
 20
74.25109608557146
 30
0.0
 10
320.2580784873637
 20
74.2606273675182
 30
0.0
 10
320.2089126445875
 20
74.28085435215455
 30
0.0
 10
320.1647164184826
 20
74.31157933665632
 30
0.0
 10
320.1337569128195
 20
74.34512586874858
 30
0.0
 10
320.1163785061743
 20
74.37218110863803
 30
0.0
 10
320.1088190379228
 20
74.38650934653467
 30
0.0
 10
320.1053563730018
 20
74.39384397143212
 30
0.0
 10
320.1034677325694
 20
74.39807375672328
 30
0.0
 10
320.1025632369716
 20
74.4002063020814
 30
0.0
 10
320.1021111967107
 20
74.4012720854444
 30
0.0
  0
SPLINE
  5
2A1
330
1F
100
AcDbEntity
  8
0
  6
Continuous
 62
     7
370
    15
100
AcDbSpline
210
0.0
220
0.0
230
1.0
 70
     8
 71
     3
 72
    13
 73
     9
 74
     0
 42
0.00000001
 43
0.00000001
 12
1.0
 22
0.0
 32
0.0
 13
1.0
 23
0.0
 33
0.0
 40
0.0
 40
0.0
 40
0.0
 40
0.0
 40
0.1699239723714217
 40
0.338544496571567
 40
0.5058619600857295
 40
0.6718767595264108
 40
0.836589300919236
 40
1.0
 40
1.0
 40
1.0
 40
1.0
 10
326.8783562705568
 20
78.37820532679252
 30
0.0
 10
326.5193051709523
 20
78.14500891245923
 30
0.0
 10
325.8039571711222
 20
77.68040488048545
 30
0.0
 10
324.7286927029033
 20
76.98840489865799
 30
0.0
 10
323.6572414059306
 20
76.30339442777515
 30
0.0
 10
322.5891923221026
 20
75.62557573190344
 30
0.0
 10
321.5252344153083
 20
74.95473561054011
 30
0.0
 10
320.8149059820836
 20
74.5108305331865
 30
0.0
 10
320.4611508939567
 20
74.28975860024097
 30
0.0
  0
SPLINE
  5
2A2
330
1F
100
AcDbEntity
  8
0
  6
Continuous
 62
     7
370
    15
100
AcDbSpline
210
0.0
220
0.0
230
1.0
 70
     8
 71
     3
 72
    42
 73
    38
 74
     0
 42
0.00000001
 43
0.00000001
 12
1.0
 22
0.0
 32
0.0
 13
1.0
 23
0.0
 33
0.0
 40
0.0
 40
0.0
 40
0.0
 40
0.0
 40
0.0077877556965065
 40
0.0155860641961979
 40
0.0233937922752797
 40
0.0312097574019283
 40
0.0351204894782355
 40
0.0390328177653364
 40
0.0468615410543548
 40
0.053127819488992
 40
0.0578290101556079
 40
0.0625311345769291
 40
0.0703692219603345
 40
0.0782077343112461
 40
0.0821267628902028
 40
0.0860453834701339
 40
0.0938806310417107
 40
0.1064085003446629
 40
0.1139185266553034
 40
0.1195468045435918
 40
0.1251708661543722
 40
0.1290737391266039
 40
0.1329741796101493
 40
0.1407670388082005
 40
0.1563535855773591
 40
0.187622182715843
 40
0.2502675319406586
 40
0.3750128074592087
 40
0.4997468885368812
 40
0.5712681530949455
 40
0.6247132093588561
 40
0.6872804929788583
 40
0.7497629437162388
 40
0.8120968487435657
 40
0.8746538315659409
 40
0.9374099099172009
 40
1.0
 40
1.0
 40
1.0
 40
1.0
 10
327.2390665629692
 20
78.17579137979747
 30
0.0
 10
327.2390595567733
 20
78.17717928198287
 30
0.0
 10
327.2390455348878
 20
78.17995696703136
 30
0.0
 10
327.2389327217021
 20
78.18412459997987
 30
0.0
 10
327.2387532878849
 20
78.18829425998692
 30
0.0
 10
327.2385430587297
 20
78.19176816193952
 30
0.0
 10
327.2383396174735
 20
78.19454634434747
 30
0.0
 10
327.2381124287811
 20
78.19732460135857
 30
0.0
 10
327.2378105653506
 20
78.20051685677028
 30
0.0
 10
327.2374450854756
 20
78.20384267377403
 30
0.0
 10
327.2371078778598
 20
78.20661070199175
 30
0.0
 10
327.2367062691719
 20
78.2096517221244
 30
0.0
 10
327.2361835357247
 20
78.21323823351703
 30
0.0
 10
327.2356234211314
 20
78.21667627895276
 30
0.0
 10
327.2351410101236
 20
78.21941953725997
 30
0.0
 10
327.2346358554717
 20
78.22215728605683
 30
0.0
 10
327.2338002379805
 20
78.22638684150263
 30
0.0
 10
327.2327359046694
 20
78.23121616191224
 30
0.0
 10
327.2316609717146
 20
78.23563614686522
 30
0.0
 10
327.2308297272484
 20
78.23885347863653
 30
0.0
 10
327.2301268595874
 20
78.24144226886658
 30
0.0
 10
327.2294805527006
 20
78.24372802488078
 30
0.0
 10
327.2287074165499
 20
78.24637523281386
 30
0.0
 10
327.2272962927725
 20
78.25098466613024
 30
0.0
 10
327.2242331789463
 20
78.26012926862168
 30
0.0
 10
327.2171743592343
 20
78.27806346215479
 30
0.0
 10
327.1996561026257
 20
78.31211437830233
 30
0.0
 10
327.1655236932868
 20
78.35430769812218
 30
0.0
 10
327.1212983635306
 20
78.38595709065561
 30
0.0
 10
327.0834615955702
 20
78.40253862740073
 30
0.0
 10
327.0538870274885
 20
78.41101955083404
 30
0.0
 10
327.0250574895721
 20
78.41552208129121
 30
0.0
 10
326.9944946054733
 20
78.41625738497831
 30
0.0
 10
326.9640676481866
 20
78.41287807357278
 30
0.0
 10
326.9342314587996
 20
78.40542406333714
 30
0.0
 10
326.9052539487382
 20
78.39427358515186
 30
0.0
 10
326.887314244466
 20
78.38355668233258
 30
0.0
 10
326.8783562705568
 20
78.37820532679258
 30
0.0
  0
LINE
  5
2A3
330
1F
100
AcDbEntity
  8
0
  6
Continuous
 62
     7
370
    15
100
AcDbLine
 10
327.2390683507
 20
73.4998561785
 30
0.0
 11
327.2390683507
 21
78.1757921323
 31
0.0
  0
SPLINE
  5
2A4
330
1F
100
AcDbEntity
  8
0
  6
Continuous
 62
     7
370
    15
100
AcDbSpline
210
0.0
220
0.0
230
1.0
 70
     8
 71
     3
 72
    18
 73
    14
 74
     0
 42
0.00000001
 43
0.00000001
 12
1.0
 22
0.0
 32
0.0
 13
1.0
 23
0.0
 33
0.0
 40
0.0
 40
0.0
 40
0.0
 40
0.0
 40
0.1249297736136334
 40
0.1876007500118443
 40
0.2502287141926642
 40
0.3073584977137659
 40
0.3927961858884279
 40
0.5000264117603412
 40
0.5818045280686203
 40
0.642985261498135
 40
0.7498316633251557
 40
0.8750825490868558
 40
1.0
 40
1.0
 40
1.0
 40
1.0
 10
327.1305910955817
 20
73.29744312753924
 30
0.0
 10
327.138456166728
 20
73.3029671516822
 30
0.0
 10
327.1502667480109
 20
73.31126230056724
 30
0.0
 10
327.1646826654944
 20
73.32432748576792
 30
0.0
 10
327.1746914488194
 20
73.33446279613304
 30
0.0
 10
327.1853024701585
 20
73.34658820031375
 30
0.0
 10
327.1972168060015
 20
73.36234728199751
 30
0.0
 10
327.2086847548351
 20
73.38101537991285
 30
0.0
 10
327.2175839494424
 20
73.39903927637152
 30
0.0
 10
327.2252261781676
 20
73.41770067337542
 30
0.0
 10
327.2322872454264
 20
73.44045760044793
 30
0.0
 10
327.2379260108014
 20
73.46914704142138
 30
0.0
 10
327.2386867168803
 20
73.48962949678847
 30
0.0
 10
327.2390665629692
 20
73.49985707453433
 30
0.0
  0
LINE
  5
2A5
330
1F
100
AcDbEntity
  8
0
  6
Continuous
 62
     7
370
    15
100
AcDbLine
 10
309.4476816569
 20
76.0415621445
 30
0.0
 11
310.5083388601
 21
76.0415621445
 31
0.0
  0
SPLINE
  5
2A6
330
1F
100
AcDbEntity
  8
0
  6
Continuous
 62
     7
370
    15
100
AcDbSpline
210
0.0
220
0.0
230
1.0
 70
     8
 71
     3
 72
    10
 73
     6
 74
     0
 42
0.00000001
 43
0.00000001
 12
1.0
 22
0.0
 32
0.0
 13
1.0
 23
0.0
 33
0.0
 40
0.0
 40
0.0
 40
0.0
 40
0.0
 40
0.3309139083765061
 40
0.6642471118591674
 40
0.9999999999999999
 40
0.9999999999999999
 40
0.9999999999999999
 40
0.9999999999999999
 10
324.0693390648703
 20
45.79022737649273
 30
0.0
 10
324.4045808331512
 20
45.92973089741722
 30
0.0
 10
325.0775153055873
 20
46.20975784256102
 30
0.0
 10
326.0859109893808
 20
46.63277326681924
 30
0.0
 10
326.7573777159059
 20
46.91674777799763
 30
0.0
 10
327.0943252261645
 20
47.05924851666217
 30
0.0
  0
SPLINE
  5
2A7
330
1F
100
AcDbEntity
  8
0
  6
Continuous
 62
     7
370
    15
100
AcDbSpline
210
0.0
220
0.0
230
1.0
 70
     8
 71
     3
 72
    23
 73
    19
 74
     0
 42
0.00000001
 43
0.00000001
 12
1.0
 22
0.0
 32
0.0
 13
1.0
 23
0.0
 33
0.0
 40
0.0
 40
0.0
 40
0.0
 40
0.0
 40
0.0155507801287474
 40
0.0311244130365156
 40
0.062327632570779
 40
0.1248686483235997
 40
0.1963590855490047
 40
0.2498196071384952
 40
0.3210275968630985
 40
0.3746393994959669
 40
0.4461716567743984
 40
0.499714382794371
 40
0.562009383658838
 40
0.5977029232752294
 40
0.6245120938233639
 40
0.7495697060453765
 40
0.8746179568358411
 40
1.0
 40
1.0
 40
1.0
 40
1.0
 10
323.9214951324173
 20
45.56849628869007
 30
0.0
 10
323.921503617324
 20
45.5700035656077
 30
0.0
 10
323.9215205996064
 20
45.57302033447434
 30
0.0
 10
323.921701468397
 20
45.57905882900906
 30
0.0
 10
323.9223074305939
 20
45.58963655559436
 30
0.0
 10
323.9241320843332
 20
45.60554781825917
 30
0.0
 10
323.9276209808777
 20
45.6233502402708
 30
0.0
 10
323.932632595998
 20
45.64158521938434
 30
0.0
 10
323.9384320085157
 20
45.65771170640605
 30
0.0
 10
323.946083563334
 20
45.67485591880482
 30
0.0
 10
323.9541406113363
 20
45.68984302637083
 30
0.0
 10
323.9636581091431
 20
45.70480620003973
 30
0.0
 10
323.9721361559124
 20
45.71628684877553
 30
0.0
 10
323.9796149310991
 20
45.72527177967728
 30
0.0
 10
323.9912998806661
 20
45.73832106826666
 30
0.0
 10
324.0101318295044
 20
45.75588599546981
 30
0.0
 10
324.0383983632848
 20
45.77585762061665
 30
0.0
 10
324.0590163372784
 20
45.78543320351465
 30
0.0
 10
324.0693390648702
 20
45.79022737649301
 30
0.0
  0
LINE
  5
2A8
330
1F
100
AcDbEntity
  8
0
  6
Continuous
 62
     7
370
    15
100
AcDbLine
 10
323.9214961742
 20
38.4168565616
 30
0.0
 11
323.9214961742
 21
45.5684965819
 31
0.0
  0
SPLINE
  5
2A9
330
1F
100
AcDbEntity
  8
0
  6
Continuous
 62
     7
370
    15
100
AcDbSpline
210
0.0
220
0.0
230
1.0
 70
     8
 71
     3
 72
    21
 73
    17
 74
     0
 42
0.00000001
 43
0.00000001
 12
1.0
 22
0.0
 32
0.0
 13
1.0
 23
0.0
 33
0.0
 40
0.0
 40
0.0
 40
0.0
 40
0.0
 40
0.1248366613723658
 40
0.2498816534839842
 40
0.3744049742475888
 40
0.3994124672795334
 40
0.4369583638627388
 40
0.4995250587609767
 40
0.5809843778433507
 40
0.6419286699418429
 40
0.6847676773099404
 40
0.7491553012926063
 40
0.8308287070119521
 40
0.8919168497719697
 40
0.9536834191240056
 40
1.0
 40
1.0
 40
1.0
 40
1.0
 10
324.0693390648704
 20
38.19512553005046
 30
0.0
 10
324.059064438161
 20
38.19990448448384
 30
0.0
 10
324.0384980381722
 20
38.2094703685968
 30
0.0
 10
324.0102926688307
 20
38.22934208119379
 30
0.0
 10
323.9915936468154
 20
38.24672812333039
 30
0.0
 10
323.9799326032106
 20
38.25973561164855
 30
0.0
 10
323.9724266458628
 20
38.26873626152317
 30
0.0
 10
323.9622543942035
 20
38.28247568187039
 30
0.0
 10
323.9520316337919
 20
38.29901059817184
 30
0.0
 10
323.9440781299917
 20
38.31478212866015
 30
0.0
 10
323.9377489273895
 20
38.32957694641951
 30
0.0
 10
323.9316817790065
 20
38.34668495165447
 30
0.0
 10
323.9266280425023
 20
38.36604385422675
 30
0.0
 10
323.9233290774235
 20
38.38555855755817
 30
0.0
 10
323.9217441831448
 20
38.40189044499194
 30
0.0
 10
323.9215698422506
 20
38.41236708959574
 30
0.0
 10
323.9214951324173
 20
38.41685661785317
 30
0.0
  0
SPLINE
  5
2AA
330
1F
100
AcDbEntity
  8
0
  6
Continuous
 62
     7
370
    15
100
AcDbSpline
210
0.0
220
0.0
230
1.0
 70
     8
 71
     3
 72
    10
 73
     6
 74
     0
 42
0.00000001
 43
0.00000001
 12
1.0
 22
0.0
 32
0.0
 13
1.0
 23
0.0
 33
0.0
 40
0.0
 40
0.0
 40
0.0
 40
0.0
 40
0.3357528881412517
 40
0.6690860916239147
 40
1.0
 40
1.0
 40
1.0
 40
1.0
 10
327.0943252261647
 20
36.92610438988105
 30
0.0
 10
326.7573777159056
 20
37.06860512854579
 30
0.0
 10
326.0859109893802
 20
37.3525796397244
 30
0.0
 10
325.0775153055866
 20
37.77559506398249
 30
0.0
 10
324.4045808331508
 20
38.05562200912617
 30
0.0
 10
324.0693390648705
 20
38.19512553005048
 30
0.0
  0
SPLINE
  5
2AB
330
1F
100
AcDbEntity
  8
0
  6
Continuous
 62
     7
370
    15
100
AcDbSpline
210
0.0
220
0.0
230
1.0
 70
     8
 71
     3
 72
    23
 73
    19
 74
     0
 42
0.00000001
 43
0.00000001
 12
1.0
 22
0.0
 32
0.0
 13
1.0
 23
0.0
 33
0.0
 40
0.0
 40
0.0
 40
0.0
 40
0.0
 40
0.0155509323309257
 40
0.0311244629957161
 40
0.0623269501136547
 40
0.1248663104909659
 40
0.1963596441297356
 40
0.2498304173058535
 40
0.3210229259297324
 40
0.3746245195801413
 40
0.446156161748903
 40
0.499711394209196
 40
0.5619975034458929
 40
0.5976758071357965
 40
0.6244771133854601
 40
0.7495396119342759
 40
0.8745721133914947
 40
1.0
 40
1.0
 40
1.0
 40
1.0
 10
327.2390665629692
 20
36.70437330207833
 30
0.0
 10
327.2390583319798
 20
36.70587486364048
 30
0.0
 10
327.2390418580395
 20
36.70888016880687
 30
0.0
 10
327.2388663696599
 20
36.71489571974484
 30
0.0
 10
327.2382783116571
 20
36.72543351178025
 30
0.0
 10
327.2365068447845
 20
36.74128728109697
 30
0.0
 10
327.2331172227811
 20
36.75903313501657
 30
0.0
 10
327.2282465284755
 20
36.77721914802063
 30
0.0
 10
327.2226073111325
 20
36.79331278782627
 30
0.0
 10
327.2151570017135
 20
36.81043385124929
 30
0.0
 10
327.2073026038232
 20
36.82541529165037
 30
0.0
 10
327.1980146877063
 20
36.84038677996217
 30
0.0
 10
327.1897348308023
 20
36.85188450786908
 30
0.0
 10
327.1824229210994
 20
36.86088567442956
 30
0.0
 10
327.1709897494727
 20
36.87396558234127
 30
0.0
 10
327.1525366843411
 20
36.89158900256802
 30
0.0
 10
327.1247816984759
 20
36.91166245906971
 30
0.0
 10
327.1044880623395
 20
36.92128534927184
 30
0.0
 10
327.0943252261647
 20
36.92610438988118
 30
0.0
  0
LINE
  5
2AC
330
1F
100
AcDbEntity
  8
0
  6
Continuous
 62
     7
370
    15
100
AcDbLine
 10
327.2390683507
 20
32.0284381852
 30
0.0
 11
327.2390683507
 21
36.704374139
 31
0.0
  0
SPLINE
  5
2AD
330
1F
100
AcDbEntity
  8
0
  6
Continuous
 62
     7
370
    15
100
AcDbSpline
210
0.0
220
0.0
230
1.0
 70
     8
 71
     3
 72
    33
 73
    29
 74
     0
 42
0.00000001
 43
0.00000001
 12
1.0
 22
0.0
 32
0.0
 13
1.0
 23
0.0
 33
0.0
 40
0.0
 40
0.0
 40
0.0
 40
0.0
 40
0.0622574168111691
 40
0.125024808976777
 40
0.2496656553421889
 40
0.3122817670859078
 40
0.3746993479122296
 40
0.4370828776226747
 40
0.4996779141226378
 40
0.6242046262140729
 40
0.6868064309822333
 40
0.7491452354170267
 40
0.8116323576377937
 40
0.8273086095533312
 40
0.842984399965873
 40
0.85551900728113
 40
0.8742996874568677
 40
0.888585098090349
 40
0.8971438757925957
 40
0.9099609489585532
 40
0.9243247131109147
 40
0.9329707958067562
 40
0.9459470132921448
 40
0.9583092903867169
 40
0.9768491811774739
 40
0.9861142333841648
 40
0.9930592026229765
 40
1.0
 40
1.0
 40
1.0
 40
1.0
 10
326.9146748426562
 20
31.80670790901248
 30
0.0
 10
326.9234671683948
 20
31.80335414845559
 30
0.0
 10
326.9411238413221
 20
31.79661915535025
 30
0.0
 10
326.9778171102366
 20
31.78876242925849
 30
0.0
 10
327.0154748668639
 20
31.78736766163866
 30
0.0
 10
327.0524720271688
 20
31.79294617730914
 30
0.0
 10
327.0796655338535
 20
31.8004490321771
 30
0.0
 10
327.1058756486869
 20
31.81136927442806
 30
0.0
 10
327.1390176130229
 20
31.8301259163674
 30
0.0
 10
327.1689373953529
 20
31.85527059312221
 30
0.0
 10
327.1938296125591
 20
31.88571531609801
 30
0.0
 10
327.2098053509262
 20
31.91097746304493
 30
0.0
 10
327.219371126341
 20
31.93150701602276
 30
0.0
 10
327.2247065630564
 20
31.94569481446866
 30
0.0
 10
327.2270018469394
 20
31.95241745602317
 30
0.0
 10
327.2292629470634
 20
31.95969154088657
 30
0.0
 10
327.2312423571746
 20
31.96682783421154
 30
0.0
 10
327.2328363069614
 20
31.97340733856373
 30
0.0
 10
327.2340731251511
 20
31.97907913206048
 30
0.0
 10
327.2351901407811
 20
31.98479432859832
 30
0.0
 10
327.2361508568463
 20
31.99055831890021
 30
0.0
 10
327.23698333438
 20
31.99637174238223
 30
0.0
 10
327.2376514051622
 20
32.00188117679817
 30
0.0
 10
327.2383348867704
 20
32.00901750615599
 30
0.0
 10
327.2387609704673
 20
32.01557100999242
 30
0.0
 10
327.2389706806649
 20
32.02124879247739
 30
0.0
 10
327.2390527823834
 20
32.02503348311895
 30
0.0
 10
327.2390619703609
 20
32.0273040529743
 30
0.0
 10
327.2390665629694
 20
32.02843899681516
 30
0.0
  0
SPLINE
  5
2AE
330
1F
100
AcDbEntity
  8
0
  6
Continuous
 62
     7
370
    15
100
AcDbSpline
210
0.0
220
0.0
230
1.0
 70
     8
 71
     3
 72
    15
 73
    11
 74
     0
 42
0.00000001
 43
0.00000001
 12
1.0
 22
0.0
 32
0.0
 13
1.0
 23
0.0
 33
0.0
 40
0.0
 40
0.0
 40
0.0
 40
0.0
 40
0.0984976403870796
 40
0.1976853601863806
 40
0.297563346604281
 40
0.3981317829906006
 40
0.4993908489427664
 40
0.6641128952805881
 40
0.830982383594027
 40
1.0
 40
1.0
 40
1.0
 40
1.0
 10
315.7406583136358
 20
36.36516719853363
 30
0.0
 10
316.1142541379135
 20
36.2179725493376
 30
0.0
 10
316.8640632175648
 20
35.92255199784547
 30
0.0
 10
317.9875593703109
 20
35.47577196057287
 30
0.0
 10
319.1149605652477
 20
35.02436635440084
 30
0.0
 10
320.2457311894796
 20
34.56817772426862
 30
0.0
 10
321.6141957973715
 20
34.01201680199177
 30
0.0
 10
323.2214251767789
 20
33.35221551292248
 30
0.0
 10
325.0685872802616
 20
32.58529817723065
 30
0.0
 10
326.2966942486598
 20
32.06734217481576
 30
0.0
 10
326.9146748426562
 20
31.80670790901248
 30
0.0
  0
SPLINE
  5
2AF
330
1F
100
AcDbEntity
  8
0
  6
Continuous
 62
     7
370
    15
100
AcDbSpline
210
0.0
220
0.0
230
1.0
 70
     8
 71
     3
 72
    36
 73
    32
 74
     0
 42
0.00000001
 43
0.00000001
 12
1.0
 22
0.0
 32
0.0
 13
1.0
 23
0.0
 33
0.0
 40
0.0
 40
0.0
 40
0.0
 40
0.0
 40
0.007790535169293
 40
0.0155913820492948
 40
0.0234015057014632
 40
0.0312198194210767
 40
0.0390451900806484
 40
0.0468764433803972
 40
0.050793938859152
 40
0.0547124484414524
 40
0.0625518051891394
 40
0.0768908588018543
 40
0.0854947186017532
 40
0.0983959935886534
 40
0.109139520377823
 40
0.1252333944128521
 40
0.1377273915649984
 40
0.1452115711484754
 40
0.1564368304853185
 40
0.1720597818638804
 40
0.1877113533862107
 40
0.2503997844018603
 40
0.375260764396635
 40
0.5001427703413629
 40
0.5628029697146157
 40
0.625303739137453
 40
0.687756888143933
 40
0.7503687791430393
 40
0.8750283306023725
 40
0.9377408027226868
 40
1.0
 40
1.0
 40
1.0
 40
1.0
 10
315.390647618948
 20
36.14343611073091
 30
0.0
 10
315.3906543378312
 20
36.14474165430067
 30
0.0
 10
315.3906677844909
 20
36.14735446948414
 30
0.0
 10
315.3907759372447
 20
36.15127473596474
 30
0.0
 10
315.3909479221418
 20
36.15519694334338
 30
0.0
 10
315.3911896830286
 20
36.1591192336474
 30
0.0
 10
315.3914990792135
 20
36.16303973898362
 30
0.0
 10
315.3918132541579
 20
36.16630331406382
 30
0.0
 10
315.3920981456557
 20
36.16891154289484
 30
0.0
 10
315.3924054287171
 20
36.17151831123056
 30
0.0
 10
315.3929723736172
 20
36.17585061846874
 30
0.0
 10
315.3937635725039
 20
36.18094204004805
 30
0.0
 10
315.3948308179474
 20
36.18684235733126
 30
0.0
 10
315.3959136105871
 20
36.19212508675643
 30
0.0
 10
315.3974129014712
 20
36.19859404641617
 30
0.0
 10
315.3990817313922
 20
36.20494686833403
 30
0.0
 10
315.4007922361904
 20
36.21071643996122
 30
0.0
 10
315.4023805558535
 20
36.21566939816977
 30
0.0
 10
315.4042405842879
 20
36.22107774038812
 30
0.0
 10
315.4067373316722
 20
36.22769556464349
 30
0.0
 10
315.4127412417023
 20
36.24211115261473
 30
0.0
 10
315.4282405834841
 20
36.27208925401714
 30
0.0
 10
315.4606116078235
 20
36.31256427479534
 30
0.0
 10
315.5012858274391
 20
36.34337881546585
 30
0.0
 10
315.5370647404221
 20
36.36163182169541
 30
0.0
 10
315.5651791607792
 20
36.37214456243588
 30
0.0
 10
315.5942061003163
 20
36.37931156540166
 30
0.0
 10
315.6335662148212
 20
36.38453564521257
 30
0.0
 10
315.6735049970084
 20
36.38297972344074
 30
0.0
 10
315.7124872564999
 20
36.37516614935324
 30
0.0
 10
315.7312906947442
 20
36.36849211318419
 30
0.0
 10
315.7406583136357
 20
36.36516719853363
 30
0.0
  0
LINE
  5
2B0
330
1F
100
AcDbEntity
  8
0
  6
Continuous
 62
     7
370
    15
100
AcDbLine
 10
315.390648446
 20
33.3252527162
 30
0.0
 11
315.390648446
 21
36.1434366897
 31
0.0
  0
SPLINE
  5
2B1
330
1F
100
AcDbEntity
  8
0
  6
Continuous
 62
     7
370
    15
100
AcDbSpline
210
0.0
220
0.0
230
1.0
 70
     8
 71
     3
 72
    26
 73
    22
 74
     0
 42
0.00000001
 43
0.00000001
 12
1.0
 22
0.0
 32
0.0
 13
1.0
 23
0.0
 33
0.0
 40
0.0
 40
0.0
 40
0.0
 40
0.0
 40
0.12490744231434
 40
0.2497709326311705
 40
0.374590924200462
 40
0.4992868599560717
 40
0.6241203570698439
 40
0.6866415135291689
 40
0.7177855513703131
 40
0.7333307283023414
 40
0.7489193798459043
 40
0.7652431047774629
 40
0.7897790261135997
 40
0.8204996000907525
 40
0.8420153235848392
 40
0.8742617880080968
 40
0.902864464213194
 40
0.9199851184686486
 40
0.9457781263977006
 40
0.9674702751900586
 40
1.0
 40
1.0
 40
1.0
 40
1.0
 10
315.1370107690855
 20
33.08525361377547
 30
0.0
 10
315.1527576882821
 20
33.08606697858818
 30
0.0
 10
315.184245985704
 20
33.08769342200957
 30
0.0
 10
315.2301686895702
 20
33.10055149503354
 30
0.0
 10
315.2733037907817
 20
33.12112044368055
 30
0.0
 10
315.3122979866068
 20
33.14959615694686
 30
0.0
 10
315.3398086050685
 20
33.17961421454942
 30
0.0
 10
315.3557698187495
 20
33.20331983114061
 30
0.0
 10
315.3628194557054
 20
33.21578876191662
 30
0.0
 10
315.3665563766305
 20
33.22306564559776
 30
0.0
 10
315.3692557649956
 20
33.22869307103389
 30
0.0
 10
315.3722853390016
 20
33.2354800839731
 30
0.0
 10
315.3758308525603
 20
33.24422885094882
 30
0.0
 10
315.3791984248283
 20
33.25379824012664
 30
0.0
 10
315.3824405587059
 20
33.26449392474242
 30
0.0
 10
315.3851286718641
 20
33.27507284302352
 30
0.0
 10
315.3871474797899
 20
33.28521851929435
 30
0.0
 10
315.3886269831582
 20
33.29459560128109
 30
0.0
 10
315.3896278923984
 20
33.30311954671009
 30
0.0
 10
315.390462130905
 20
33.31372196641684
 30
0.0
 10
315.3905780654745
 20
33.32092952843242
 30
0.0
 10
315.390647618948
 20
33.32525361377549
 30
0.0
  0
LINE
  5
2B2
330
1F
100
AcDbEntity
  8
0
  6
Continuous
 62
     7
370
    15
100
AcDbLine
 10
310.4985599731
 20
33.0852527514
 30
0.0
 11
315.137012056
 21
33.0852527514
 31
0.0
  0
SPLINE
  5
2B3
330
1F
100
AcDbEntity
  8
0
  6
Continuous
 62
     7
370
    15
100
AcDbSpline
210
0.0
220
0.0
230
1.0
 70
     8
 71
     3
 72
    41
 73
    37
 74
     0
 42
0.00000001
 43
0.00000001
 12
1.0
 22
0.0
 32
0.0
 13
1.0
 23
0.0
 33
0.0
 40
0.0
 40
0.0
 40
0.0
 40
0.0
 40
0.0077834651771551
 40
0.0155754836354556
 40
0.0233753911985202
 40
0.0311824929987088
 40
0.0389960658839105
 40
0.0468153607874433
 40
0.0546396050637018
 40
0.0624680047924795
 40
0.0702997470550062
 40
0.0781340021840951
 40
0.0859699259921487
 40
0.0938066619801051
 40
0.1016433435307719
 40
0.1094790960899837
 40
0.1173130393382324
 40
0.1251442893584877
 40
0.1329719608013821
 40
0.1407951690529541
 40
0.1486130324082058
 40
0.1564246742537248
 40
0.1642292252644484
 40
0.1720258256159154
 40
0.1876008062444458
 40
0.2125757551408194
 40
0.2275904253187502
 40
0.2501414591490211
 40
0.281493149816834
 40
0.3128402393756514
 40
0.3753102045459767
 40
0.5003829611210286
 40
0.6252168386642256
 40
0.7502823882758419
 40
0.8750915748194131
 40
1.0
 40
1.0
 40
1.0
 40
1.0
 10
310.2367268654482
 20
33.32525361377549
 30
0.0
 10
310.2367313268058
 20
33.32420799679155
 30
0.0
 10
310.2367402544236
 20
33.32211561379096
 30
0.0
 10
310.2368121232781
 20
33.31897614403043
 30
0.0
 10
310.236926474456
 20
33.31583496035179
 30
0.0
 10
310.2370872939225
 20
33.31269305333165
 30
0.0
 10
310.2372932032359
 20
33.30955141330638
 30
0.0
 10
310.237544263437
 20
33.30641103068247
 30
0.0
 10
310.2378401493708
 20
33.30327289585344
 30
0.0
 10
310.2381806394988
 20
33.30013799922244
 30
0.0
 10
310.2385654845048
 20
33.2970073311963
 30
0.0
 10
310.2389944425353
 20
33.29388188218712
 30
0.0
 10
310.239467269749
 20
33.29076264261177
 30
0.0
 10
310.2399837228494
 20
33.28765060289189
 30
0.0
 10
310.240543558407
 20
33.28454675345377
 30
0.0
 10
310.2411465330374
 20
33.28145208472774
 30
0.0
 10
310.2417924033641
 20
33.27836758714958
 30
0.0
 10
310.2424809259903
 20
33.27529425115446
 30
0.0
 10
310.2432118576497
 20
33.27223306719848
 30
0.0
 10
310.2439849546323
 20
33.26918502567744
 30
0.0
 10
310.2447999749314
 20
33.26615111722901
 30
0.0
 10
310.2456566702398
 20
33.26313233160541
 30
0.0
 10
310.2465548157882
 20
33.26012966187523
 30
0.0
 10
310.2478068265956
 20
33.25615006426212
 30
0.0
 10
310.2498793889513
 20
33.25002447829975
 30
0.0
 10
310.2525175997363
 20
33.24308220185374
 30
0.0
 10
310.2557567683888
 20
33.23538858325385
 30
0.0
 10
310.2595988749152
 20
33.22703933019013
 30
0.0
 10
310.2648173881688
 20
33.21695561479846
 30
0.0
 10
310.2732340018848
 20
33.20260421229444
 30
0.0
 10
310.2898641529192
 20
33.17879160652365
 30
0.0
 10
310.3185515938015
 20
33.14893354002477
 30
0.0
 10
310.3588215179602
 20
33.12059101543511
 30
0.0
 10
310.4032191998968
 20
33.10033008546608
 30
0.0
 10
310.4502681118137
 20
33.08763801731492
 30
0.0
 10
310.4824575607345
 20
33.08604862549855
 30
0.0
 10
310.4985586812936
 20
33.08525361377547
 30
0.0
  0
LINE
  5
2B4
330
1F
100
AcDbEntity
  8
0
  6
Continuous
 62
     7
370
    15
100
AcDbLine
 10
310.2367279445
 20
33.3252527162
 30
0.0
 11
310.2367279445
 21
45.3341432259
 31
0.0
  0
SPLINE
  5
2B5
330
1F
100
AcDbEntity
  8
0
  6
Continuous
 62
     7
370
    15
100
AcDbSpline
210
0.0
220
0.0
230
1.0
 70
     8
 71
     3
 72
    22
 73
    18
 74
     0
 42
0.00000001
 43
0.00000001
 12
1.0
 22
0.0
 32
0.0
 13
1.0
 23
0.0
 33
0.0
 40
0.0
 40
0.0
 40
0.0
 40
0.0
 40
0.1248737286916667
 40
0.2499678488711212
 40
0.3744547361755364
 40
0.4369571102206444
 40
0.4619916288198764
 40
0.4995342058740144
 40
0.5708815889165855
 40
0.624169982221354
 40
0.695400925341561
 40
0.7490630779595308
 40
0.78179942945332
 40
0.8308481793052348
 40
0.8919317904526959
 40
0.9535873559376762
 40
1.0
 40
1.0
 40
1.0
 40
1.0
 10
310.3984124745621
 20
45.55587452808386
 30
0.0
 10
310.3874311350166
 20
45.55121815358297
 30
0.0
 10
310.3654490747974
 20
45.54189718647704
 30
0.0
 10
310.3350303252549
 20
45.522501663494
 30
0.0
 10
310.3119011590978
 20
45.5031067492132
 30
0.0
 10
310.2977269110047
 20
45.48821009737991
 30
0.0
 10
310.2898086481089
 20
45.47900072119705
 30
0.0
 10
310.2816855628487
 20
45.4688170337987
 30
0.0
 10
310.2726343382369
 20
45.45582351694391
 30
0.0
 10
310.2629313511696
 20
45.43929358166048
 30
0.0
 10
310.2553296863771
 20
45.42352640174834
 30
0.0
 10
310.249733196445
 20
45.40905992407025
 30
0.0
 10
310.245615911681
 20
45.39637011222509
 30
0.0
 10
310.2419742442561
 20
45.38275135887243
 30
0.0
 10
310.2388136587928
 20
45.36607018301367
 30
0.0
 10
310.2370107271169
 20
45.34942035351673
 30
0.0
 10
310.2368121496131
 20
45.33873327727264
 30
0.0
 10
310.2367268654482
 20
45.33414344028115
 30
0.0
  0
SPLINE
  5
2B6
330
1F
100
AcDbEntity
  8
0
  6
Continuous
 62
     7
370
    15
100
AcDbSpline
210
0.0
220
0.0
230
1.0
 70
     8
 71
     3
 72
    37
 73
    33
 74
     0
 42
0.00000001
 43
0.00000001
 12
1.0
 22
0.0
 32
0.0
 13
1.0
 23
0.0
 33
0.0
 40
0.0
 40
0.0
 40
0.0
 40
0.0
 40
0.0077888504225907
 40
0.0155874691139814
 40
0.0233949073084332
 40
0.0312101774029015
 40
0.0390322570815088
 40
0.046860093375815
 40
0.0546926066663961
 40
0.0625286946337459
 40
0.0703672361658269
 40
0.0782070952301808
 40
0.0860471247181811
 40
0.093886170270464
 40
0.1017230740910363
 40
0.1095566787586436
 40
0.1173858310441051
 40
0.1252093857418013
 40
0.1377123742712939
 40
0.1564239057108956
 40
0.1720190340755936
 40
0.1876469124392677
 40
0.2502936367261636
 40
0.3750783180339827
 40
0.4466701903355724
 40
0.5001652590395997
 40
0.5627627334682088
 40
0.6253555332846567
 40
0.7501239498832762
 40
0.8748589886245434
 40
0.937507971439495
 40
1.0
 40
1.0
 40
1.0
 40
1.0
 10
327.2390665629692
 20
51.95691390972805
 30
0.0
 10
327.2390606654948
 20
51.95818725637776
 30
0.0
 10
327.2390488631498
 20
51.96073554662559
 30
0.0
 10
327.2389538688346
 20
51.96455905114383
 30
0.0
 10
327.2388027233296
 20
51.96838455926964
 30
0.0
 10
327.2385901519962
 20
51.97221046043932
 30
0.0
 10
327.2383179735029
 20
51.97603514448609
 30
0.0
 10
327.2379861027238
 20
51.97985700112204
 30
0.0
 10
327.237594965246
 20
51.98367442007703
 30
0.0
 10
327.2371448495325
 20
51.98748579106076
 30
0.0
 10
327.2366360807124
 20
51.99128950377572
 30
0.0
 10
327.2360689739722
 20
51.99508394790496
 30
0.0
 10
327.2354438470581
 20
51.99886751315007
 30
0.0
 10
327.2347610169193
 20
52.00263858909447
 30
0.0
 10
327.2340208006345
 20
52.00639556571491
 30
0.0
 10
327.2332235150674
 20
52.01013683147646
 30
0.0
 10
327.2323694773227
 20
52.01386078043907
 30
0.0
 10
327.231277208778
 20
52.01830556473283
 30
0.0
 10
327.2296396648533
 20
52.02443084420759
 30
0.0
 10
327.2274492253531
 20
52.03169956443061
 30
0.0
 10
327.2248469977492
 20
52.03935036213542
 30
0.0
 10
327.2195145572675
 20
52.05354274442315
 30
0.0
 10
327.2056860486045
 20
52.08317515091289
 30
0.0
 10
327.1814475248817
 20
52.11683588109124
 30
0.0
 10
327.1530458278145
 20
52.14347094931323
 30
0.0
 10
327.129697386561
 20
52.16051437378661
 30
0.0
 10
327.1059478046217
 20
52.17395464464641
 30
0.0
 10
327.0710120321183
 20
52.18849862804397
 30
0.0
 10
327.0248444282715
 20
52.19830445497026
 30
0.0
 10
326.9778902389337
 20
52.1966153839299
 30
0.0
 10
326.9411684101963
 20
52.18874412761195
 30
0.0
 10
326.9234986445833
 20
52.18200855826445
 30
0.0
 10
326.9146748426562
 20
52.17864499753076
 30
0.0
  0
LINE
  5
2B7
330
1F
100
AcDbEntity
  8
0
  6
Continuous
 62
     7
370
    15
100
AcDbLine
 10
327.2390683507
 20
47.2809799358
 30
0.0
 11
327.2390683507
 21
51.956914027
 31
0.0
  0
SPLINE
  5
2B8
330
1F
100
AcDbEntity
  8
0
  6
Continuous
 62
     7
370
    15
100
AcDbSpline
210
0.0
220
0.0
230
1.0
 70
     8
 71
     3
 72
    21
 73
    17
 74
     0
 42
0.00000001
 43
0.00000001
 12
1.0
 22
0.0
 32
0.0
 13
1.0
 23
0.0
 33
0.0
 40
0.0
 40
0.0
 40
0.0
 40
0.0
 40
0.1248289442000938
 40
0.2498636415414567
 40
0.3743947841634211
 40
0.3994057012365946
 40
0.4369542566664377
 40
0.4995198900274249
 40
0.5809684401134755
 40
0.6419309319016318
 40
0.6847798175680198
 40
0.7491680336552968
 40
0.8308260386425298
 40
0.8919522365791102
 40
0.9537008775286511
 40
1.0
 40
1.0
 40
1.0
 40
1.0
 10
327.0943252261646
 20
47.05924851666222
 30
0.0
 10
327.1044360284505
 20
47.06405075492414
 30
0.0
 10
327.1246742984625
 20
47.07366314688467
 30
0.0
 10
327.1523710927302
 20
47.09362639662822
 30
0.0
 10
327.1706937471499
 20
47.11107472603094
 30
0.0
 10
327.1821059323426
 20
47.12411474981836
 30
0.0
 10
327.1894472253518
 20
47.13313394022633
 30
0.0
 10
327.1993858152697
 20
47.14689127919964
 30
0.0
 10
327.2093597306927
 20
47.16343336890609
 30
0.0
 10
327.2171075133739
 20
47.17919750697279
 30
0.0
 10
327.2232710423272
 20
47.19397424525271
 30
0.0
 10
327.2291738079194
 20
47.21104661042275
 30
0.0
 10
327.2340861427411
 20
47.23035330072204
 30
0.0
 10
327.2372863723145
 20
47.24980357834739
 30
0.0
 10
327.2388250272789
 20
47.26607541402633
 30
0.0
 10
327.2389941099979
 20
47.2765088246726
 30
0.0
 10
327.2390665629692
 20
47.28097960446491
 30
0.0
  0
SPLINE
  5
2B9
330
1F
100
AcDbEntity
  8
0
  6
Continuous
 62
     7
370
    15
100
AcDbSpline
210
0.0
220
0.0
230
1.0
 70
     8
 71
     3
 72
    14
 73
    10
 74
     0
 42
0.00000001
 43
0.00000001
 12
1.0
 22
0.0
 32
0.0
 13
1.0
 23
0.0
 33
0.0
 40
0.0
 40
0.0
 40
0.0
 40
0.0
 40
0.25
 40
0.25
 40
0.5
 40
0.5
 40
0.75
 40
0.75
 40
1.0
 40
1.0
 40
1.0
 40
1.0
 10
315.2048420800736
 20
42.21440754107434
 30
0.0
 10
315.1609165431713
 20
42.19719783645556
 30
0.0
 10
315.1217442978071
 20
42.16795659299744
 30
0.0
 10
315.0651431303684
 20
42.09095209579919
 30
0.0
 10
315.048217196488
 20
42.04198566221527
 30
0.0
 10
315.048090737774
 20
41.94421853457844
 30
0.0
 10
315.0647380215362
 20
41.89515139147888
 30
0.0
 10
315.1214404076798
 20
41.81756243526775
 30
0.0
 10
315.1608765578682
 20
41.78817073603746
 30
0.0
 10
315.2048420800736
 20
41.77094536546891
 30
0.0
  0
SPLINE
  5
2BA
330
1F
100
AcDbEntity
  8
0
  6
Continuous
 62
     7
370
    15
100
AcDbSpline
210
0.0
220
0.0
230
1.0
 70
     8
 71
     3
 72
    11
 73
     7
 74
     0
 42
0.00000001
 43
0.00000001
 12
1.0
 22
0.0
 32
0.0
 13
1.0
 23
0.0
 33
0.0
 40
0.0
 40
0.0
 40
0.0
 40
0.0
 40
0.2501733451332337
 40
0.5002224205211551
 40
0.7501602812899413
 40
1.0
 40
1.0
 40
1.0
 40
1.0
 10
319.0806803450998
 20
40.23305625692607
 30
0.0
 10
318.7592239715791
 20
40.36199641830076
 30
0.0
 10
318.1164709030263
 20
40.61981269201644
 30
0.0
 10
317.148573493254
 20
41.00490679379784
 30
0.0
 10
316.1784944895862
 20
41.38878140438997
 30
0.0
 10
315.5293503921173
 20
41.64357405644527
 30
0.0
 10
315.2048420800736
 20
41.77094536546891
 30
0.0
  0
SPLINE
  5
2BB
330
1F
100
AcDbEntity
  8
0
  6
Continuous
 62
     7
370
    15
100
AcDbSpline
210
0.0
220
0.0
230
1.0
 70
     8
 71
     3
 72
    23
 73
    19
 74
     0
 42
0.00000001
 43
0.00000001
 12
1.0
 22
0.0
 32
0.0
 13
1.0
 23
0.0
 33
0.0
 40
0.0
 40
0.0
 40
0.0
 40
0.0
 40
0.0670643369657931
 40
0.0670643369657931
 40
0.0670643369657931
 40
0.2332287401188973
 40
0.2332287401188973
 40
0.2332287401188973
 40
0.4168682323094255
 40
0.4168682323094255
 40
0.4168682323094255
 40
0.6117568502763233
 40
0.6117568502763233
 40
0.6117568502763233
 40
0.8058271777895966
 40
0.8058271777895966
 40
0.8058271777895966
 40
1.0
 40
1.0
 40
1.0
 40
1.0
 10
319.4223601681089
 20
40.45478734472879
 30
0.0
 10
319.4223601681089
 20
40.44353085470186
 30
0.0
 10
319.4215400268524
 20
40.43224124216763
 30
0.0
 10
319.4199191781806
 20
40.4211186555787
 30
0.0
 10
319.4159606101971
 20
40.39395417321301
 30
0.0
 10
319.4069929455894
 20
40.36719657088022
 30
0.0
 10
319.3941477063088
 20
40.34337208639487
 30
0.0
 10
319.3799726216312
 20
40.31708109425335
 30
0.0
 10
319.3606204585753
 20
40.29344654791574
 30
0.0
 10
319.3384306485399
 20
40.27449905884539
 30
0.0
 10
319.3148756713389
 20
40.25438587750854
 30
0.0
 10
319.2873609233111
 20
40.23882614115486
 30
0.0
 10
319.2586781179122
 20
40.228846634136
 30
0.0
 10
319.2300769653453
 20
40.21889553629818
 30
0.0
 10
319.1994598112694
 20
40.21415427966655
 30
0.0
 10
319.1693771386303
 20
40.21485676242882
 30
0.0
 10
319.1392810404062
 20
40.21555955870186
 30
0.0
 10
319.1088591914472
 20
40.22173289373022
 30
0.0
 10
319.0806803450998
 20
40.23305625692609
 30
0.0
  0
LINE
  5
2BC
330
1F
100
AcDbEntity
  8
0
  6
Continuous
 62
     7
370
    15
100
AcDbLine
 10
319.4223587726
 20
40.4547877953
 30
0.0
 11
319.4223587726
 21
43.5305653483
 31
0.0
  0
SPLINE
  5
2BD
330
1F
100
AcDbEntity
  8
0
  6
Continuous
 62
     7
370
    15
100
AcDbSpline
210
0.0
220
0.0
230
1.0
 70
     8
 71
     3
 72
    23
 73
    19
 74
     0
 42
0.00000001
 43
0.00000001
 12
1.0
 22
0.0
 32
0.0
 13
1.0
 23
0.0
 33
0.0
 40
0.0
 40
0.0
 40
0.0
 40
0.0
 40
0.1855118594234877
 40
0.1855118594234877
 40
0.1855118594234877
 40
0.3704277486843219
 40
0.3704277486843219
 40
0.3704277486843219
 40
0.5405972960229019
 40
0.5405972960229019
 40
0.5405972960229019
 40
0.6972746161726111
 40
0.6972746161726111
 40
0.6972746161726111
 40
0.8484535499060951
 40
0.8484535499060951
 40
0.8484535499060951
 40
1.0
 40
1.0
 40
1.0
 40
1.0
 10
319.0806803450998
 20
43.75229664961716
 30
0.0
 10
319.107607641271
 20
43.76311709097487
 30
0.0
 10
319.1365659088549
 20
43.76923810283233
 30
0.0
 10
319.1653130146578
 20
43.77036877564763
 30
0.0
 10
319.1939732373094
 20
43.77149603120006
 30
0.0
 10
319.2231667828686
 20
43.76769562001244
 30
0.0
 10
319.2506950085939
 20
43.75913540262364
 30
0.0
 10
319.2760584637265
 20
43.7512483454688
 30
0.0
 10
319.3006093707612
 20
43.73912843778943
 30
0.0
 10
319.3225035777589
 20
43.72335526768303
 30
0.0
 10
319.3426750827292
 20
43.70882317801968
 30
0.0
 10
319.36104121095
 20
43.69084621005459
 30
0.0
 10
319.3760990143917
 20
43.67043861537871
 30
0.0
 10
319.3906211576733
 20
43.65075699215485
 30
0.0
 10
319.4023937709821
 20
43.62832431839489
 30
0.0
 10
319.4102801250754
 20
43.60472518819881
 30
0.0
 10
319.4181772101137
 20
43.58109394671727
 30
0.0
 10
319.4223601681089
 20
43.55565672325467
 30
0.0
 10
319.4223601681089
 20
43.53056556181445
 30
0.0
  0
SPLINE
  5
2BE
330
1F
100
AcDbEntity
  8
0
  6
Continuous
 62
     7
370
    15
100
AcDbSpline
210
0.0
220
0.0
230
1.0
 70
     8
 71
     3
 72
    11
 73
     7
 74
     0
 42
0.00000001
 43
0.00000001
 12
1.0
 22
0.0
 32
0.0
 13
1.0
 23
0.0
 33
0.0
 40
0.0
 40
0.0
 40
0.0
 40
0.0
 40
0.2498397187103147
 40
0.4997775794791863
 40
0.7498266548670233
 40
1.0
 40
1.0
 40
1.0
 40
1.0
 10
315.2048420800736
 20
42.21440754107433
 30
0.0
 10
315.5293503921176
 20
42.3417788500981
 30
0.0
 10
316.178494489587
 20
42.59657150215357
 30
0.0
 10
317.1485734932551
 20
42.98044611274581
 30
0.0
 10
318.1164709030271
 20
43.36554021452709
 30
0.0
 10
318.7592239715794
 20
43.62335648824259
 30
0.0
 10
319.0806803450998
 20
43.75229664961715
 30
0.0
  0
LINE
  5
2BF
330
1F
100
AcDbEntity
  8
0
  6
Continuous
 62
     7
370
    15
100
AcDbLine
 10
309.4378990446
 20
33.0852527514
 30
0.0
 11
310.4985599731
 21
33.0852527514
 31
0.0
  0
LINE
  5
2C0
330
1F
100
AcDbEntity
  8
0
  6
Continuous
 62
     7
370
    15
100
AcDbLine
 10
318.3617015694
 20
40.5183393851
 30
0.0
 11
318.3617015694
 21
43.4670137584
 31
0.0
  0
LINE
  5
2C1
330
1F
100
AcDbEntity
  8
0
  6
Continuous
 62
     7
370
    15
100
AcDbLine
 10
-29.0047469224
 20
-37.0694998309
 30
0.0
 11
-24.0047516908
 21
-39.9562496349
 31
0.0
  0
LINE
  5
2C2
330
1F
100
AcDbEntity
  8
0
  6
Continuous
 62
     7
370
    15
100
AcDbLine
 10
-29.0047469224
 20
-31.2959927723
 30
0.0
 11
-29.0047469224
 21
-37.0694998309
 31
0.0
  0
LINE
  5
2C3
330
1F
100
AcDbEntity
  8
0
  6
Continuous
 62
     7
370
    15
100
AcDbLine
 10
-24.0047516908
 20
-28.4092429683
 30
0.0
 11
-29.0047469224
 21
-31.2959927723
 31
0.0
  0
LINE
  5
2C4
330
1F
100
AcDbEntity
  8
0
  6
Continuous
 62
     7
370
    15
100
AcDbLine
 10
-19.0047564591
 20
-31.2959927723
 30
0.0
 11
-24.0047516908
 21
-28.4092429683
 31
0.0
  0
LINE
  5
2C5
330
1F
100
AcDbEntity
  8
0
  6
Continuous
 62
     7
370
    15
100
AcDbLine
 10
-19.0047564591
 20
-37.0694998309
 30
0.0
 11
-19.0047564591
 21
-31.2959927723
 31
0.0
  0
LINE
  5
2C6
330
1F
100
AcDbEntity
  8
0
  6
Continuous
 62
     7
370
    15
100
AcDbLine
 10
-24.0047516908
 20
-39.9562496349
 30
0.0
 11
-19.0047564591
 21
-37.0694998309
 31
0.0
  0
LINE
  5
2C7
330
1F
100
AcDbEntity
  8
0
  6
Continuous
 62
     7
370
    15
100
AcDbLine
 10
9.43860983
 20
-32.267675142
 30
0.0
 11
10.5034170066
 21
-37.9421341821
 31
0.0
  0
LINE
  5
2C8
330
1F
100
AcDbEntity
  8
0
  6
Continuous
 62
     7
370
    15
100
AcDbLine
 10
13.8204154884
 20
-28.5082835361
 30
0.0
 11
9.43860983
 21
-32.267675142
 31
0.0
  0
LINE
  5
2C9
330
1F
100
AcDbEntity
  8
0
  6
Continuous
 62
     7
370
    15
100
AcDbLine
 10
19.2670581256
 20
-30.423358421
 30
0.0
 11
13.8204154884
 21
-28.5082835361
 31
0.0
  0
LINE
  5
2CA
330
1F
100
AcDbEntity
  8
0
  6
Continuous
 62
     7
370
    15
100
AcDbLine
 10
20.3318653022
 20
-36.0978174612
 30
0.0
 11
19.2670581256
 21
-30.423358421
 31
0.0
  0
LINE
  5
2CB
330
1F
100
AcDbEntity
  8
0
  6
Continuous
 62
     7
370
    15
100
AcDbLine
 10
15.9500596439
 20
-39.857209067
 30
0.0
 11
20.3318653022
 21
-36.0978174612
 31
0.0
  0
LINE
  5
2CC
330
1F
100
AcDbEntity
  8
0
  6
Continuous
 62
     7
370
    15
100
AcDbLine
 10
10.5034170066
 20
-37.9421341821
 30
0.0
 11
15.9500596439
 21
-39.857209067
 31
0.0
  0
LINE
  5
2CD
330
1F
100
AcDbEntity
  8
0
  6
Continuous
 62
     7
370
    15
100
AcDbLine
 10
-29.0047469224
 20
1.8205006018
 30
0.0
 11
-24.0047516908
 21
-1.0662492022
 31
0.0
  0
LINE
  5
2CE
330
1F
100
AcDbEntity
  8
0
  6
Continuous
 62
     7
370
    15
100
AcDbLine
 10
-29.0047469224
 20
7.5940039352
 30
0.0
 11
-29.0047469224
 21
1.8205006018
 31
0.0
  0
LINE
  5
2CF
330
1F
100
AcDbEntity
  8
0
  6
Continuous
 62
     7
370
    15
100
AcDbLine
 10
-24.0047516908
 20
10.4807574645
 30
0.0
 11
-29.0047469224
 21
7.5940039352
 31
0.0
  0
LINE
  5
2D0
330
1F
100
AcDbEntity
  8
0
  6
Continuous
 62
     7
370
    15
100
AcDbLine
 10
-19.0047564591
 20
7.5940039352
 30
0.0
 11
-24.0047516908
 21
10.4807574645
 31
0.0
  0
LINE
  5
2D1
330
1F
100
AcDbEntity
  8
0
  6
Continuous
 62
     7
370
    15
100
AcDbLine
 10
-19.0047564591
 20
1.8205006018
 30
0.0
 11
-19.0047564591
 21
7.5940039352
 31
0.0
  0
LINE
  5
2D2
330
1F
100
AcDbEntity
  8
0
  6
Continuous
 62
     7
370
    15
100
AcDbLine
 10
-24.0047516908
 20
-1.0662492022
 30
0.0
 11
-19.0047564591
 21
1.8205006018
 31
0.0
  0
LINE
  5
2D3
330
1F
100
AcDbEntity
  8
0
  6
Continuous
 62
     7
370
    15
100
AcDbLine
 10
9.8852274333
 20
1.8205006018
 30
0.0
 11
14.8852524673
 21
-1.0662492022
 31
0.0
  0
LINE
  5
2D4
330
1F
100
AcDbEntity
  8
0
  6
Continuous
 62
     7
370
    15
100
AcDbLine
 10
14.8852524673
 20
10.4807574645
 30
0.0
 11
9.8852274333
 21
7.5940039352
 31
0.0
  0
LINE
  5
2D5
330
1F
100
AcDbEntity
  8
0
  6
Continuous
 62
     7
370
    15
100
AcDbLine
 10
19.8852476989
 20
7.5940039352
 30
0.0
 11
14.8852524673
 21
10.4807574645
 31
0.0
  0
LINE
  5
2D6
330
1F
100
AcDbEntity
  8
0
  6
Continuous
 62
     7
370
    15
100
AcDbLine
 10
14.8852524673
 20
-1.0662492022
 30
0.0
 11
19.8852476989
 21
1.8205006018
 31
0.0
  0
LINE
  5
2D7
330
1F
100
AcDbEntity
  8
0
  6
Continuous
 62
     7
370
    15
100
AcDbLine
 10
9.8852274333
 20
7.5940039352
 30
0.0
 11
9.8852274333
 21
1.8205006018
 31
0.0
  0
LINE
  5
2D8
330
1F
100
AcDbEntity
  8
0
  6
Continuous
 62
     7
370
    15
100
AcDbLine
 10
19.8852476989
 20
1.8205006018
 30
0.0
 11
19.8852476989
 21
7.5940039352
 31
0.0
  0
LINE
  5
2D9
330
1F
100
AcDbEntity
  8
0
  6
Continuous
 62
     7
370
    15
100
AcDbLine
 10
30.6352434074
 20
-11.5627500817
 30
0.0
 11
30.6352434074
 21
10.9372545376
 31
0.0
  0
ARC
  5
2DA
330
1F
100
AcDbEntity
  8
0
  6
Continuous
 62
     7
370
    15
100
AcDbCircle
 10
-4.3647595204
 20
-11.5627463862
 30
0.0
 40
35.00000000000002
100
AcDbArc
 50
270.0
 51
0.0
  0
LINE
  5
2DB
330
1F
100
AcDbEntity
  8
0
  6
Continuous
 62
     7
370
    15
100
AcDbLine
 10
-30.0547721471
 20
-46.5627465054
 30
0.0
 11
-4.3647530164
 21
-46.5627465054
 31
0.0
  0
LINE
  5
2DC
330
1F
100
AcDbEntity
  8
0
  6
Continuous
 62
     7
370
    15
100
AcDbLine
 10
30.6352434074
 20
10.9372545376
 30
0.0
 11
-30.0547721471
 21
10.9372545376
 31
0.0
  0
LINE
  5
2DD
330
1F
100
AcDbEntity
  8
0
  6
Continuous
 62
     7
370
    15
100
AcDbLine
 10
-30.0547721471
 20
10.9372545376
 30
0.0
 11
-30.0547721471
 21
-46.5627465054
 31
0.0
  0
LINE
  5
2DE
330
1F
100
AcDbEntity
  8
0
  6
Continuous
 62
     7
370
    15
100
AcDbLine
 10
-42.0447530831
 20
78.1340279028
 30
0.0
 11
36.9552431022
 21
78.1340279028
 31
0.0
  0
LINE
  5
2DF
330
1F
100
AcDbEntity
  8
0
  6
Continuous
 62
     7
370
    15
100
AcDbLine
 10
-42.0447530831
 20
30.0606169149
 30
0.0
 11
-42.0447530831
 21
78.1340279028
 31
0.0
  0
LINE
  5
2E0
330
1F
100
AcDbEntity
  8
0
  6
Continuous
 62
     7
370
    15
100
AcDbLine
 10
36.9552431022
 20
30.0606169149
 30
0.0
 11
36.9552431022
 21
78.1340279028
 31
0.0
  0
LINE
  5
2E1
330
1F
100
AcDbEntity
  8
0
  6
Continuous
 62
     7
370
    15
100
AcDbLine
 10
-42.0447530831
 20
78.1340279028
 30
0.0
 11
-42.0447530831
 21
111.937254329
 31
0.0
  0
LINE
  5
2E2
330
1F
100
AcDbEntity
  8
0
  6
Continuous
 62
     7
370
    15
100
AcDbLine
 10
36.9552431022
 20
78.1340279028
 30
0.0
 11
36.9552431022
 21
111.937254329
 31
0.0
  0
LINE
  5
2E3
330
1F
100
AcDbEntity
  8
0
  6
Continuous
 62
     7
370
    15
100
AcDbLine
 10
-42.0447530831
 20
121.9372522429
 30
0.0
 11
36.9552431022
 21
121.9372522429
 31
0.0
  0
LINE
  5
2E4
330
1F
100
AcDbEntity
  8
0
  6
Continuous
 62
     7
370
    15
100
AcDbLine
 10
-42.0447530831
 20
111.937254329
 30
0.0
 11
-42.0447530831
 21
121.9372522429
 31
0.0
  0
LINE
  5
2E5
330
1F
100
AcDbEntity
  8
0
  6
Continuous
 62
     7
370
    15
100
AcDbLine
 10
36.9552431022
 20
111.937254329
 30
0.0
 11
36.9552431022
 21
121.9372522429
 31
0.0
  0
LINE
  5
2E6
330
1F
100
AcDbEntity
  8
0
  6
Continuous
 62
     7
370
    15
100
AcDbLine
 10
-42.0447530831
 20
26.2379158631
 30
0.0
 11
-42.0447530831
 21
30.0606169149
 31
0.0
  0
LINE
  5
2E7
330
1F
100
AcDbEntity
  8
0
  6
Continuous
 62
     7
370
    15
100
AcDbLine
 10
36.9552431022
 20
26.2379158631
 30
0.0
 11
36.9552431022
 21
30.0606169149
 31
0.0
  0
LINE
  5
2E8
330
1F
100
AcDbEntity
  8
0
  6
Continuous
 62
     7
370
    15
100
AcDbLine
 10
30.6352434074
 20
-11.5627500817
 30
0.0
 11
36.9552431022
 21
-11.5627500817
 31
0.0
  0
LINE
  5
2E9
330
1F
100
AcDbEntity
  8
0
  6
Continuous
 62
     7
370
    15
100
AcDbLine
 10
-42.0447530831
 20
-38.5627451941
 30
0.0
 11
-42.0447530831
 21
26.2379158631
 31
0.0
  0
LINE
  5
2EA
330
1F
100
AcDbEntity
  8
0
  6
Continuous
 62
     7
370
    15
100
AcDbLine
 10
36.9552431022
 20
-11.5627500817
 30
0.0
 11
36.9552431022
 21
26.2379158631
 31
0.0
  0
LINE
  5
2EB
330
1F
100
AcDbEntity
  8
0
  6
Continuous
 62
     7
370
    15
100
AcDbLine
 10
30.6352434074
 20
-19.2507732317
 30
0.0
 11
30.6352434074
 21
-11.5627500817
 31
0.0
  0
ARC
  5
2EC
330
1F
100
AcDbEntity
  8
0
  6
Continuous
 62
     7
370
    15
100
AcDbCircle
 10
-3.5447595204
 20
-14.5627463862
 30
0.0
 40
34.50000000000002
100
AcDbArc
 50
315.9207901521
 51
352.1902104574
  0
LINE
  5
2ED
330
1F
100
AcDbEntity
  8
0
  6
Continuous
 62
     7
370
    15
100
AcDbLine
 10
2.3075995361
 20
-48.562743108
 30
0.0
 11
-42.0447530831
 21
-48.562743108
 31
0.0
  0
SPLINE
  5
2EE
330
1F
100
AcDbEntity
  8
0
  6
Continuous
 62
     7
370
    15
100
AcDbSpline
210
0.0
220
0.0
230
1.0
 70
     8
 71
     3
 72
    34
 73
    30
 74
     0
 42
0.00000001
 43
0.00000001
 12
1.0
 22
0.0
 32
0.0
 13
1.0
 23
0.0
 33
0.0
 40
0.0
 40
0.0
 40
0.0
 40
0.0
 40
0.1249999999999944
 40
0.1249999999999944
 40
0.2499999999999888
 40
0.2499999999999888
 40
0.312499999999986
 40
0.312499999999986
 40
0.3749999999999831
 40
0.3749999999999831
 40
0.4999999999999835
 40
0.4999999999999835
 40
0.6249999999999839
 40
0.6249999999999839
 40
0.6874999999999867
 40
0.6874999999999867
 40
0.7499999999999893
 40
0.7499999999999893
 40
0.8124999999999921
 40
0.8124999999999921
 40
0.8749999999999949
 40
0.8749999999999949
 40
0.9062499999999962
 40
0.9062499999999962
 40
0.9374999999999974
 40
0.9374999999999974
 40
0.9687499999999988
 40
0.9687499999999988
 40
1.0
 40
1.0
 40
1.0
 40
1.0
 10
21.23930794236567
 20
-38.56274638622354
 30
0.0
 10
20.51055536554358
 20
-39.3153069290419
 30
0.0
 10
19.75926626126651
 20
-40.02284485195253
 30
0.0
 10
18.21149765897867
 20
-41.35751276068554
 30
0.0
 10
17.41503255589771
 20
-41.98455050144299
 30
0.0
 10
16.18612051266527
 20
-42.86816864634777
 30
0.0
 10
15.77141980848407
 20
-43.15262630963538
 30
0.0
 10
14.94154043982182
 20
-43.69610753253584
 30
0.0
 10
14.52500509294719
 20
-43.95612197192559
 30
0.0
 10
13.27036845159829
 20
-44.70323671573499
 30
0.0
 10
12.42717138217986
 20
-45.15754229257792
 30
0.0
 10
10.72736839772853
 20
-45.98647114948038
 30
0.0
 10
9.870667869307626
 20
-46.36105434021146
 30
0.0
 10
8.57793863429407
 20
-46.86606215482708
 30
0.0
 10
8.145362251503862
 20
-47.02500689731878
 30
0.0
 10
7.28461125138502
 20
-47.32220354319424
 30
0.0
 10
6.855758662538792
 20
-47.46072773341344
 30
0.0
 10
6.003917866651721
 20
-47.7179980871493
 30
0.0
 10
5.580636437412911
 20
-47.83678193243411
 30
0.0
 10
4.749862243631108
 20
-48.05354426726922
 30
0.0
 10
4.340223782576924
 20
-48.15197755760451
 30
0.0
 10
3.755631161370565
 20
-48.28209022602103
 30
0.0
 10
3.565975526695575
 20
-48.32251024474947
 30
0.0
 10
3.203602231358682
 20
-48.39680943459008
 30
0.0
 10
3.030617616695985
 20
-48.43072759375488
 30
0.0
 10
2.715371605102379
 20
-48.49041199793743
 30
0.0
 10
2.575814052692249
 20
-48.51564889816589
 30
0.0
 10
2.369174944590657
 20
-48.55225048664987
 30
0.0
 10
2.307590434941498
 20
-48.56274638622361
 30
0.0
 10
2.307590434941498
 20
-48.56274638622358
 30
0.0
  0
LINE
  5
2EF
330
1F
100
AcDbEntity
  8
0
  6
Continuous
 62
     7
370
    15
100
AcDbLine
 10
-42.0447530831
 20
-48.562743108
 30
0.0
 11
-42.0447530831
 21
-38.5627451941
 31
0.0
  0
LINE
  5
2F0
330
1F
100
AcDbEntity
  8
0
  6
Continuous
 62
     7
370
    15
100
AcDbLine
 10
54.455241314
 20
118.4856217697
 30
0.0
 11
54.2545226728
 21
118.4856217697
 31
0.0
  0
LINE
  5
2F1
330
1F
100
AcDbEntity
  8
0
  6
Continuous
 62
     7
370
    15
100
AcDbLine
 10
54.455241314
 20
118.4856217697
 30
0.0
 11
54.455241314
 21
-5.6111145422
 31
0.0
  0
LINE
  5
2F2
330
1F
100
AcDbEntity
  8
0
  6
Continuous
 62
     7
370
    15
100
AcDbLine
 10
54.2545226728
 20
-5.6111145422
 30
0.0
 11
54.455241314
 21
-5.6111145422
 31
0.0
  0
LINE
  5
2F3
330
1F
100
AcDbEntity
  8
0
  6
Continuous
 62
     7
370
    15
100
AcDbLine
 10
531.9552478706
 20
56.4372536138
 30
0.0
 11
531.9552478706
 21
-6.0627463862
 31
0.0
  0
LINE
  5
2F4
330
1F
100
AcDbEntity
  8
0
  6
Continuous
 62
     7
370
    15
100
AcDbLine
 10
531.9552478706
 20
118.9372536138
 30
0.0
 11
531.9552478706
 21
56.4372536138
 31
0.0
  0
LINE
  5
2F5
330
1F
100
AcDbEntity
  8
0
  6
Continuous
 62
     7
370
    15
100
AcDbLine
 10
487.6559582864
 20
-5.6111145422
 30
0.0
 11
487.4552396451
 21
-5.6111145422
 31
0.0
  0
LINE
  5
2F6
330
1F
100
AcDbEntity
  8
0
  6
Continuous
 62
     7
370
    15
100
AcDbLine
 10
487.4552396451
 20
118.4856217697
 30
0.0
 11
487.6559582864
 21
118.4856217697
 31
0.0
  0
LINE
  5
2F7
330
1F
100
AcDbEntity
  8
0
  6
Continuous
 62
     7
370
    15
100
AcDbLine
 10
487.4552396451
 20
118.4856217697
 30
0.0
 11
487.4552396451
 21
-5.6111145422
 31
0.0
  0
LINE
  5
2F8
330
1F
100
AcDbEntity
  8
0
  6
Continuous
 62
     7
370
    15
100
AcDbLine
 10
-3.2247545804
 20
148.4372537926
 30
0.0
 11
-3.2247545804
 21
121.9372522429
 31
0.0
  0
LINE
  5
2F9
330
1F
100
AcDbEntity
  8
0
  6
Continuous
 62
     7
370
    15
100
AcDbLine
 10
6.545251361
 20
148.4372537926
 30
0.0
 11
-3.2247545804
 21
148.4372537926
 31
0.0
  0
LINE
  5
2FA
330
1F
100
AcDbEntity
  8
0
  6
Continuous
 62
     7
370
    15
100
AcDbLine
 10
6.545251361
 20
148.4372537926
 30
0.0
 11
6.545251361
 21
121.9372522429
 31
0.0
  0
LINE
  5
2FB
330
1F
100
AcDbEntity
  8
0
  6
Continuous
 62
     7
370
    15
100
AcDbLine
 10
-12.9947605218
 20
148.4372537926
 30
0.0
 11
-12.9947605218
 21
121.9372522429
 31
0.0
  0
LINE
  5
2FC
330
1F
100
AcDbEntity
  8
0
  6
Continuous
 62
     7
370
    15
100
AcDbLine
 10
-3.2247545804
 20
148.4372537926
 30
0.0
 11
-12.9947605218
 21
148.4372537926
 31
0.0
  0
LINE
  5
2FD
330
1F
100
AcDbEntity
  8
0
  6
Continuous
 62
     7
370
    15
100
AcDbLine
 10
54.455241314
 20
63.9372534461
 30
0.0
 11
144.5877162133
 21
63.9372534461
 31
0.0
  0
LINE
  5
2FE
330
1F
100
AcDbEntity
  8
0
  6
Continuous
 62
     7
370
    15
100
AcDbLine
 10
54.455241314
 20
48.9372537814
 30
0.0
 11
144.5877162133
 21
48.9372537814
 31
0.0
  0
LINE
  5
2FF
330
1F
100
AcDbEntity
  8
0
  6
Continuous
 62
     7
370
    15
100
AcDbLine
 10
487.4552396451
 20
48.9372537814
 30
0.0
 11
397.3227647458
 21
48.9372537814
 31
0.0
  0
LINE
  5
300
330
1F
100
AcDbEntity
  8
0
  6
Continuous
 62
     7
370
    15
100
AcDbLine
 10
487.4552396451
 20
63.9372534461
 30
0.0
 11
397.3227647458
 21
63.9372534461
 31
0.0
  0
LINE
  5
301
330
1F
100
AcDbEntity
  8
0
  6
Continuous
 62
     7
370
    15
100
AcDbLine
 10
70.3035054122
 20
85.4846291587
 30
0.0
 11
70.3035054122
 21
63.9372534461
 31
0.0
  0
SPLINE
  5
302
330
1F
100
AcDbEntity
  8
0
  6
Continuous
 62
     7
370
    15
100
AcDbSpline
210
0.0
220
0.0
230
1.0
 70
     8
 71
     3
 72
     8
 73
     4
 74
     0
 42
0.00000001
 43
0.00000001
 12
1.0
 22
0.0
 32
0.0
 13
1.0
 23
0.0
 33
0.0
 40
0.0
 40
0.0
 40
0.0
 40
0.0
 40
1.0
 40
1.0
 40
1.0
 40
1.0
 10
54.4552404795775
 20
94.86214788819085
 30
0.0
 10
59.74601000796487
 20
91.74987763772212
 30
0.0
 10
65.03131512570673
 20
88.62835558338197
 30
0.0
 10
70.30350536883267
 20
85.48462871033111
 30
0.0
  0
LINE
  5
303
330
1F
100
AcDbEntity
  8
0
  6
Continuous
 62
     7
370
    15
100
AcDbLine
 10
471.6069755469
 20
63.9372534461
 30
0.0
 11
471.6069755469
 21
85.4846291587
 31
0.0
  0
SPLINE
  5
304
330
1F
100
AcDbEntity
  8
0
  6
Continuous
 62
     7
370
    15
100
AcDbSpline
210
0.0
220
0.0
230
1.0
 70
     8
 71
     3
 72
     8
 73
     4
 74
     0
 42
0.00000001
 43
0.00000001
 12
1.0
 22
0.0
 32
0.0
 13
1.0
 23
0.0
 33
0.0
 40
0.0
 40
0.0
 40
0.0
 40
0.0
 40
1.0
 40
1.0
 40
1.0
 40
1.0
 10
471.6069755903224
 20
85.48462871033111
 30
0.0
 10
476.8791688614245
 20
88.62835738891815
 30
0.0
 10
482.1644732563539
 20
91.74987899372381
 30
0.0
 10
487.4552404795776
 20
94.86214788819085
 30
0.0
  0
LINE
  5
305
330
1F
100
AcDbEntity
  8
0
  6
Continuous
 62
     7
370
    15
100
AcDbLine
 10
471.6069755469
 20
27.3898780689
 30
0.0
 11
471.6069755469
 21
48.9372537814
 31
0.0
  0
SPLINE
  5
306
330
1F
100
AcDbEntity
  8
0
  6
Continuous
 62
     7
370
    15
100
AcDbSpline
210
0.0
220
0.0
230
1.0
 70
     8
 71
     3
 72
     8
 73
     4
 74
     0
 42
0.00000001
 43
0.00000001
 12
1.0
 22
0.0
 32
0.0
 13
1.0
 23
0.0
 33
0.0
 40
0.0
 40
0.0
 40
0.0
 40
0.0
 40
1.0
 40
1.0
 40
1.0
 40
1.0
 10
487.4552404795776
 20
18.01235933936011
 30
0.0
 10
482.1644709511902
 20
21.12462958982885
 30
0.0
 10
476.8791658334484
 20
24.24615164416898
 30
0.0
 10
471.6069755903224
 20
27.38987851721986
 30
0.0
  0
LINE
  5
307
330
1F
100
AcDbEntity
  8
0
  6
Continuous
 62
     7
370
    15
100
AcDbLine
 10
70.3035054122
 20
48.9372537814
 30
0.0
 11
70.3035054122
 21
27.3898780689
 31
0.0
  0
SPLINE
  5
308
330
1F
100
AcDbEntity
  8
0
  6
Continuous
 62
     7
370
    15
100
AcDbSpline
210
0.0
220
0.0
230
1.0
 70
     8
 71
     3
 72
     8
 73
     4
 74
     0
 42
0.00000001
 43
0.00000001
 12
1.0
 22
0.0
 32
0.0
 13
1.0
 23
0.0
 33
0.0
 40
0.0
 40
0.0
 40
0.0
 40
0.0
 40
1.0
 40
1.0
 40
1.0
 40
1.0
 10
70.30350536883267
 20
27.38987851721986
 30
0.0
 10
65.03131209773052
 20
24.24614983863281
 30
0.0
 10
59.74600770280117
 20
21.12462823382716
 30
0.0
 10
54.4552404795775
 20
18.01235933936011
 30
0.0
  0
LINE
  5
309
330
1F
100
AcDbEntity
  8
0
  6
Continuous
 62
     7
370
    15
100
AcDbLine
 10
-43.0447700108
 20
19.9372541502
 30
0.0
 11
-43.0447700108
 21
92.9372530773
 31
0.0
  0
LINE
  5
30A
330
1F
100
AcDbEntity
  8
0
  6
Continuous
 62
     7
370
    15
100
AcDbLine
 10
405.3752926503
 20
85.4846291587
 30
0.0
 11
471.6069755469
 21
85.4846291587
 31
0.0
  0
LINE
  5
30B
330
1F
100
AcDbEntity
  8
0
  6
Continuous
 62
     7
370
    15
100
AcDbLine
 10
70.3035054122
 20
85.4846291587
 30
0.0
 11
136.5351883088
 21
85.4846291587
 31
0.0
  0
LINE
  5
30C
330
1F
100
AcDbEntity
  8
0
  6
Continuous
 62
     7
370
    15
100
AcDbLine
 10
136.5351883088
 20
27.3898780689
 30
0.0
 11
70.3035054122
 21
27.3898780689
 31
0.0
  0
LINE
  5
30D
330
1F
100
AcDbEntity
  8
0
  6
Continuous
 62
     7
370
    15
100
AcDbLine
 10
471.6069755469
 20
27.3898780689
 30
0.0
 11
405.3752926503
 21
27.3898780689
 31
0.0
  0
LINE
  5
30E
330
1F
100
AcDbEntity
  8
0
  6
Continuous
 62
     7
370
    15
100
AcDbLine
 10
-42.0447530831
 20
121.9372522429
 30
0.0
 11
-42.0447530831
 21
125.4372518852
 31
0.0
  0
LINE
  5
30F
330
1F
100
AcDbEntity
  8
0
  6
Continuous
 62
     7
370
    15
100
AcDbLine
 10
36.9552431022
 20
121.9372522429
 30
0.0
 11
36.9552431022
 21
125.4372518852
 31
0.0
  0
CIRCLE
  5
310
330
1F
100
AcDbEntity
  8
0
  6
Continuous
 62
     7
370
    15
100
AcDbCircle
 10
90.9552404796
 20
118.4372536138
 30
0.0
 40
19.65616497644444
  0
LINE
  5
311
330
1F
100
AcDbEntity
  8
0
  6
Continuous
 62
     7
370
    15
100
AcDbLine
 10
72.4552330886
 20
159.437253733
 30
0.0
 11
54.2545226728
 21
118.4856217697
 31
0.0
  0
CIRCLE
  5
312
330
1F
100
AcDbEntity
  8
0
  6
Continuous
 62
     7
370
    15
100
AcDbCircle
 10
450.9552404796
 20
118.4372536138
 30
0.0
 40
19.65616497644444
  0
LINE
  5
313
330
1F
100
AcDbEntity
  8
0
  6
Continuous
 62
     7
370
    15
100
AcDbLine
 10
469.4552478706
 20
159.437253733
 30
0.0
 11
487.6559582864
 21
118.4856217697
 31
0.0
  0
CIRCLE
  5
314
330
1F
100
AcDbEntity
  8
0
  6
Continuous
 62
     7
370
    15
100
AcDbCircle
 10
450.9552404796
 20
118.4372536138
 30
0.0
 40
19.00000000000001
  0
CIRCLE
  5
315
330
1F
100
AcDbEntity
  8
0
  6
Continuous
 62
     7
370
    15
100
AcDbCircle
 10
90.9552404796
 20
118.4372536138
 30
0.0
 40
19.00000000000001
  0
LINE
  5
316
330
1F
100
AcDbEntity
  8
0
  6
Continuous
 62
     7
370
    15
100
AcDbLine
 10
72.4552330886
 20
-46.5627465054
 30
0.0
 11
54.2545226728
 21
-5.6111145422
 31
0.0
  0
CIRCLE
  5
317
330
1F
100
AcDbEntity
  8
0
  6
Continuous
 62
     7
370
    15
100
AcDbCircle
 10
90.9552404796
 20
-5.5627463862
 30
0.0
 40
19.65616497644444
  0
CIRCLE
  5
318
330
1F
100
AcDbEntity
  8
0
  6
Continuous
 62
     7
370
    15
100
AcDbCircle
 10
450.9552404796
 20
-5.5627463862
 30
0.0
 40
19.65616497644444
  0
LINE
  5
319
330
1F
100
AcDbEntity
  8
0
  6
Continuous
 62
     7
370
    15
100
AcDbLine
 10
469.4552478706
 20
-46.5627465054
 30
0.0
 11
487.6559582864
 21
-5.6111145422
 31
0.0
  0
CIRCLE
  5
31A
330
1F
100
AcDbEntity
  8
0
  6
Continuous
 62
     7
370
    15
100
AcDbCircle
 10
450.9552404796
 20
-5.5627463862
 30
0.0
 40
19.0
  0
CIRCLE
  5
31B
330
1F
100
AcDbEntity
  8
0
  6
Continuous
 62
     7
370
    15
100
AcDbCircle
 10
90.9552404796
 20
-5.5627463862
 30
0.0
 40
19.0
  0
LINE
  5
31C
330
1F
100
AcDbEntity
  8
0
  6
Continuous
 62
     8
370
     0
100
AcDbLine
 10
318.4055296098
 20
56.6589846968
 30
0.0
 11
319.4661905383
 21
56.6589846968
 31
0.0
  0
LINE
  5
31D
330
1F
100
AcDbEntity
  8
0
  6
Continuous
 62
     8
370
     0
100
AcDbLine
 10
301.9983359938
 20
62.9278855741
 30
0.0
 11
303.0589950596
 21
62.9278855741
 31
0.0
  0
LINE
  5
31E
330
1F
100
AcDbEntity
  8
0
  6
Continuous
 62
     8
370
     0
100
AcDbLine
 10
301.9983359938
 20
49.9466216534
 30
0.0
 11
303.0589950596
 21
49.9466216534
 31
0.0
  0
LINE
  5
31F
330
1F
100
AcDbEntity
  8
0
  6
Continuous
 62
     8
370
     0
100
AcDbLine
 10
318.4055296098
 20
56.2155225308
 30
0.0
 11
319.4661905383
 21
56.2155225308
 31
0.0
  0
LINE
  5
320
330
1F
100
AcDbEntity
  8
0
  6
Continuous
 62
     8
370
     0
100
AcDbLine
 10
301.828762642
 20
63.1496167153
 30
0.0
 11
302.8894235705
 21
63.1496167153
 31
0.0
  0
LINE
  5
321
330
1F
100
AcDbEntity
  8
0
  6
Continuous
 62
     8
370
     0
100
AcDbLine
 10
301.828762642
 20
80.8452532038
 30
0.0
 11
302.8894235705
 21
80.8452532038
 31
0.0
  0
LINE
  5
322
330
1F
100
AcDbEntity
  8
0
  6
Continuous
 62
     8
370
     0
100
AcDbLine
 10
301.828762642
 20
49.7248905122
 30
0.0
 11
302.8894235705
 21
49.7248905122
 31
0.0
  0
LINE
  5
323
330
1F
100
AcDbEntity
  8
0
  6
Continuous
 62
     8
370
     0
100
AcDbLine
 10
301.828762642
 20
33.3252527162
 30
0.0
 11
302.8894235705
 21
33.3252527162
 31
0.0
  0
LINE
  5
324
330
1F
100
AcDbEntity
  8
0
  6
Continuous
 62
     8
370
     0
100
AcDbLine
 10
309.3377520655
 20
45.5558743671
 30
0.0
 11
310.398412994
 21
45.5558743671
 31
0.0
  0
LINE
  5
325
330
1F
100
AcDbEntity
  8
0
  6
Continuous
 62
     8
370
     0
100
AcDbLine
 10
325.8540128683
 20
52.1786451683
 30
0.0
 11
326.9146737968
 21
52.1786451683
 31
0.0
  0
LINE
  5
326
330
1F
100
AcDbEntity
  8
0
  6
Continuous
 62
     8
370
     0
100
AcDbLine
 10
325.8540128683
 20
60.6958620593
 30
0.0
 11
326.9146737968
 21
60.6958620593
 31
0.0
  0
LINE
  5
327
330
1F
100
AcDbEntity
  8
0
  6
Continuous
 62
     8
370
     0
100
AcDbLine
 10
309.3377520655
 20
67.3186328605
 30
0.0
 11
310.398412994
 21
67.3186328605
 31
0.0
  0
LINE
  5
328
330
1F
100
AcDbEntity
  8
0
  6
Continuous
 62
     8
370
     0
100
AcDbLine
 10
309.176067016
 20
80.8452532038
 30
0.0
 11
310.2367279445
 21
80.8452532038
 31
0.0
  0
LINE
  5
329
330
1F
100
AcDbEntity
  8
0
  6
Continuous
 62
     8
370
     0
100
AcDbLine
 10
309.176067016
 20
76.2813926086
 30
0.0
 11
310.2367279445
 21
76.2813926086
 31
0.0
  0
LINE
  5
32A
330
1F
100
AcDbEntity
  8
0
  6
Continuous
 62
     8
370
     0
100
AcDbLine
 10
309.176067016
 20
72.2162980929
 30
0.0
 11
310.2367279445
 21
72.2162980929
 31
0.0
  0
LINE
  5
32B
330
1F
100
AcDbEntity
  8
0
  6
Continuous
 62
     8
370
     0
100
AcDbLine
 10
309.176067016
 20
67.5403640017
 30
0.0
 11
310.2367279445
 21
67.5403640017
 31
0.0
  0
LINE
  5
32C
330
1F
100
AcDbEntity
  8
0
  6
Continuous
 62
     8
370
     0
100
AcDbLine
 10
309.176067016
 20
45.3341432259
 30
0.0
 11
310.2367279445
 21
45.3341432259
 31
0.0
  0
LINE
  5
32D
330
1F
100
AcDbEntity
  8
0
  6
Continuous
 62
     8
370
     0
100
AcDbLine
 10
309.176067016
 20
33.3252527162
 30
0.0
 11
310.2367279445
 21
33.3252527162
 31
0.0
  0
LINE
  5
32E
330
1F
100
AcDbEntity
  8
0
  6
Continuous
 62
     8
370
     0
100
AcDbLine
 10
315.4695165669
 20
70.5548093066
 30
0.0
 11
316.3613696908
 21
70.5548093066
 31
0.0
  0
LINE
  5
32F
330
1F
100
AcDbEntity
  8
0
  6
Continuous
 62
     8
370
     0
100
AcDbLine
 10
315.5507763241
 20
36.3651678309
 30
0.0
 11
315.7406580959
 21
36.3651678309
 31
0.0
  0
LINE
  5
330
330
1F
100
AcDbEntity
  8
0
  6
Continuous
 62
     8
370
     0
100
AcDbLine
 10
325.8540128683
 20
31.806707044
 30
0.0
 11
326.9146737968
 21
31.806707044
 31
0.0
  0
LINE
  5
331
330
1F
100
AcDbEntity
  8
0
  6
Continuous
 62
     8
370
     0
100
AcDbLine
 10
318.5218667005
 20
43.5305653483
 30
0.0
 11
319.4223587726
 21
43.5305653483
 31
0.0
  0
LINE
  5
332
330
1F
100
AcDbEntity
  8
0
  6
Continuous
 62
     8
370
     0
100
AcDbLine
 10
318.5218667005
 20
40.4547877953
 30
0.0
 11
319.4223587726
 21
40.4547877953
 31
0.0
  0
LINE
  5
333
330
1F
100
AcDbEntity
  8
0
  6
Continuous
 62
     8
370
     0
100
AcDbLine
 10
320.1994729553
 20
74.2897592828
 30
0.0
 11
320.4611522471
 21
74.2897592828
 31
0.0
  0
LINE
  5
334
330
1F
100
AcDbEntity
  8
0
  6
Continuous
 62
     8
370
     0
100
AcDbLine
 10
325.8176950132
 20
78.3782057807
 30
0.0
 11
326.8783559416
 21
78.3782057807
 31
0.0
  0
LINE
  5
335
330
1F
100
AcDbEntity
  8
0
  6
Continuous
 62
     8
370
     0
100
AcDbLine
 10
-42.0447530831
 20
30.0606169149
 30
0.0
 11
36.9552431022
 21
30.0606169149
 31
0.0
  0
LINE
  5
336
330
1F
100
AcDbEntity
  8
0
  6
Continuous
 62
     8
370
     0
100
AcDbLine
 10
-42.0447530831
 20
111.937254329
 30
0.0
 11
36.9552431022
 21
111.937254329
 31
0.0
  0
LINE
  5
337
330
1F
100
AcDbEntity
  8
0
  6
Continuous
 62
     8
370
     0
100
AcDbLine
 10
-42.0447530831
 20
26.2379158631
 30
0.0
 11
36.9552431022
 21
26.2379158631
 31
0.0
  0
LINE
  5
338
330
1F
100
AcDbEntity
  8
0
  6
Continuous
 62
     8
370
     0
100
AcDbLine
 10
-42.0447530831
 20
-38.5627451941
 30
0.0
 11
-30.0547721471
 21
-38.5627451941
 31
0.0
  0
LINE
  5
339
330
1F
100
AcDbEntity
  8
0
  6
Continuous
 62
     8
370
     0
100
AcDbLine
 10
17.9062840854
 20
-38.5627451941
 30
0.0
 11
21.2393013154
 21
-38.5627451941
 31
0.0
  0
INSERT
  5
345
330
1F
100
AcDbEntity
  8
FORMAT
 62
     7
100
AcDbBlockReference
  2
SW_CENTERMARKSYMBOL_2
 10
-3.5447595204
 20
-14.5627463862
 30
0.0
  0
INSERT
  5
351
330
1F
100
AcDbEntity
  8
FORMAT
 62
     7
100
AcDbBlockReference
  2
SW_CENTERMARKSYMBOL_3
 10
270.9552404796
 20
56.4372536138
 30
0.0
  0
INSERT
  5
35D
330
1F
100
AcDbEntity
  8
FORMAT
 62
     7
100
AcDbBlockReference
  2
SW_CENTERMARKSYMBOL_4
 10
90.9552404796
 20
-5.5627463862
 30
0.0
  0
INSERT
  5
369
330
1F
100
AcDbEntity
  8
FORMAT
 62
     7
100
AcDbBlockReference
  2
SW_CENTERMARKSYMBOL_5
 10
90.9552404796
 20
118.4372536138
 30
0.0
  0
INSERT
  5
375
330
1F
100
AcDbEntity
  8
FORMAT
 62
     7
100
AcDbBlockReference
  2
SW_CENTERMARKSYMBOL_6
 10
450.9552404796
 20
-5.5627463862
 30
0.0
  0
INSERT
  5
381
330
1F
100
AcDbEntity
  8
FORMAT
 62
     7
100
AcDbBlockReference
  2
SW_CENTERMARKSYMBOL_7
 10
450.9552404796
 20
118.4372536138
 30
0.0
  0
ENDSEC
  0
SECTION
  2
OBJECTS
  0
DICTIONARY
  5
C
330
0
100
AcDbDictionary
281
     1
  3
ACAD_GROUP
350
D
  3
ACAD_LAYOUT
350
1A
  3
ACAD_MLINESTYLE
350
17
  3
ACAD_PLOTSETTINGS
350
19
  3
ACAD_PLOTSTYLENAME
350
E
  0
DICTIONARY
  5
D
102
{ACAD_REACTORS
330
C
102
}
330
C
100
AcDbDictionary
281
     1
  0
DICTIONARY
  5
1A
102
{ACAD_REACTORS
330
C
102
}
330
C
100
AcDbDictionary
281
     1
  3
Layout1
350
1E
  3
Layout2
350
26
  3
Model
350
22
  0
DICTIONARY
  5
17
102
{ACAD_REACTORS
330
C
102
}
330
C
100
AcDbDictionary
281
     1
  3
Standard
350
18
  0
DICTIONARY
  5
19
102
{ACAD_REACTORS
330
C
102
}
330
C
100
AcDbDictionary
281
     1
  0
ACDBDICTIONARYWDFLT
  5
E
102
{ACAD_REACTORS
330
C
102
}
330
C
100
AcDbDictionary
281
     1
  3
Normal
350
F
100
AcDbDictionaryWithDefault
340
F
  0
LAYOUT
  5
1E
102
{ACAD_REACTORS
330
1A
102
}
330
1A
100
AcDbPlotSettings
  1

  2
none_device
  4

  6

 40
0.0
 41
0.0
 42
0.0
 43
0.0
 44
0.0
 45
0.0
 46
0.0
 47
0.0
 48
0.0
 49
0.0
140
0.0
141
0.0
142
1.0
143
1.0
 70
   688
 72
     0
 73
     0
 74
     5
  7

 75
    16
147
1.0
148
0.0
149
0.0
100
AcDbLayout
  1
Layout1
 70
     1
 71
     1
 10
0.0
 20
0.0
 11
420.0
 21
297.0
 12
0.0
 22
0.0
 32
0.0
 14
1.0000000000E+20
 24
1.0000000000E+20
 34
1.0000000000E+20
 15
-1.0000000000E+20
 25
-1.0000000000E+20
 35
-1.0000000000E+20
146
0.0
 13
0.0
 23
0.0
 33
0.0
 16
1.0
 26
0.0
 36
0.0
 17
0.0
 27
1.0
 37
0.0
 76
     0
330
1B
  0
LAYOUT
  5
26
102
{ACAD_REACTORS
330
1A
102
}
330
1A
100
AcDbPlotSettings
  1

  2
none_device
  4

  6

 40
0.0
 41
0.0
 42
0.0
 43
0.0
 44
0.0
 45
0.0
 46
0.0
 47
0.0
 48
0.0
 49
0.0
140
0.0
141
0.0
142
1.0
143
1.0
 70
   688
 72
     0
 73
     0
 74
     5
  7

 75
    16
147
1.0
148
0.0
149
0.0
100
AcDbLayout
  1
Layout2
 70
     1
 71
     2
 10
0.0
 20
0.0
 11
0.0
 21
0.0
 12
0.0
 22
0.0
 32
0.0
 14
0.0
 24
0.0
 34
0.0
 15
0.0
 25
0.0
 35
0.0
146
0.0
 13
0.0
 23
0.0
 33
0.0
 16
1.0
 26
0.0
 36
0.0
 17
0.0
 27
1.0
 37
0.0
 76
     0
330
23
  0
LAYOUT
  5
22
102
{ACAD_REACTORS
330
1A
102
}
330
1A
100
AcDbPlotSettings
  1

  2
none_device
  4

  6

 40
0.0
 41
0.0
 42
0.0
 43
0.0
 44
0.0
 45
0.0
 46
0.0
 47
0.0
 48
0.0
 49
0.0
140
0.0
141
0.0
142
1.0
143
1.0
 70
  1712
 72
     0
 73
     0
 74
     0
  7

 75
     0
147
1.0
148
0.0
149
0.0
100
AcDbLayout
  1
Model
 70
     1
 71
     0
 10
0.0
 20
0.0
 11
841.0
 21
594.0
 12
0.0
 22
0.0
 32
0.0
 14
0.0
 24
0.0
 34
0.0
 15
841.0
 25
594.0
 35
0.0
146
0.0
 13
0.0
 23
0.0
 33
0.0
 16
1.0
 26
0.0
 36
0.0
 17
0.0
 27
1.0
 37
0.0
 76
     0
330
1F
331
29
  0
MLINESTYLE
  5
18
102
{ACAD_REACTORS
330
17
102
}
330
17
100
AcDbMlineStyle
  2
Standard
 70
     0
  3

 62
   256
 51
90.0
 52
90.0
 71
     2
 49
0.5
 62
   256
  6
BYLAYER
 49
-0.5
 62
   256
  6
BYLAYER
  0
ACDBPLACEHOLDER
  5
F
102
{ACAD_REACTORS
330
E
102
}
330
E
  0
ENDSEC
  0
EOF
