  0
SECTION
  2
HEADER
  9
$ACADVER
  1
AC1015
  9
$ACADMAINTVER
 70
     6
  9
$DWGCODEPAGE
  3
ANSI_1252
  9
$INSBASE
 10
0.0
 20
0.0
 30
0.0
  9
$EXTMIN
 10
0.0
 20
0.0
 30
0.0
  9
$EXTMAX
 10
594.0
 20
420.0
 30
0.0
  9
$LIMMIN
 10
0.0
 20
0.0
  9
$LIMMAX
 10
594.0
 20
420.0
  9
$ORTHOMODE
 70
     0
  9
$REGENMODE
 70
     1
  9
$FILLMODE
 70
     1
  9
$QTEXTMODE
 70
     0
  9
$MIRRTEXT
 70
     1
  9
$LTSCALE
 40
1.0
  9
$ATTMODE
 70
     1
  9
$TEXTSIZE
 40
2.5
  9
$TRACEWID
 40
1.0
  9
$TEXTSTYLE
  7
Standard
  9
$CLAYER
  8
0
  9
$CELTYPE
  6
ByLayer
  9
$CECOLOR
 62
   256
  9
$CELTSCALE
 40
1.0
  9
$DISPSILH
 70
     0
  9
$DIMSCALE
 40
1.0
  9
$DIMASZ
 40
2.5
  9
$DIMEXO
 40
1.0
  9
$DIMDLI
 40
3.75
  9
$DIMRND
 40
0.0
  9
$DIMDLE
 40
0.0
  9
$DIMEXE
 40
1.0
  9
$DIMTP
 40
0.0
  9
$DIMTM
 40
0.0
  9
$DIMTXT
 40
2.5
  9
$DIMCEN
 40
2.5
  9
$DIMTSZ
 40
0.0
  9
$DIMTOL
 70
     0
  9
$DIMLIM
 70
     0
  9
$DIMTIH
 70
     1
  9
$DIMTOH
 70
     1
  9
$DIMSE1
 70
     0
  9
$DIMSE2
 70
     0
  9
$DIMTAD
 70
     1
  9
$DIMZIN
 70
     0
  9
$DIMBLK
  1

  9
$DIMASO
 70
     1
  9
$DIMSHO
 70
     1
  9
$DIMPOST
  1

  9
$DIMAPOST
  1

  9
$DIMALT
 70
     0
  9
$DIMALTD
 70
     3
  9
$DIMALTF
 40
0.0393700787
  9
$DIMLFAC
 40
1.0
  9
$DIMTOFL
 70
     1
  9
$DIMTVP
 40
0.0
  9
$DIMTIX
 70
     0
  9
$DIMSOXD
 70
     0
  9
$DIMSAH
 70
     0
  9
$DIMBLK1
  1

  9
$DIMBLK2
  1

  9
$DIMSTYLE
  2
ISO-25
  9
$DIMCLRD
 70
     0
  9
$DIMCLRE
 70
     0
  9
$DIMCLRT
 70
     0
  9
$DIMTFAC
 40
1.0
  9
$DIMGAP
 40
1.524
  9
$DIMJUST
 70
     0
  9
$DIMSD1
 70
     0
  9
$DIMSD2
 70
     0
  9
$DIMTOLJ
 70
     0
  9
$DIMTZIN
 70
     0
  9
$DIMALTZ
 70
     0
  9
$DIMALTTZ
 70
     0
  9
$DIMUPT
 70
     0
  9
$DIMDEC
 70
     2
  9
$DIMTDEC
 70
     2
  9
$DIMALTU
 70
     2
  9
$DIMALTTD
 70
     3
  9
$DIMTXSTY
  7
Standard
  9
$DIMAUNIT
 70
     0
  9
$DIMADEC
 70
     2
  9
$DIMALTRND
 40
0.0
  9
$DIMAZIN
 70
     0
  9
$DIMDSEP
 70
    44
  9
$DIMATFIT
 70
     3
  9
$DIMFRAC
 70
     0
  9
$DIMLDRBLK
  1

  9
$DIMLUNIT
 70
     2
  9
$DIMLWD
 70
    -2
  9
$DIMLWE
 70
    -2
  9
$DIMTMOVE
 70
     0
  9
$LUNITS
 70
     2
  9
$LUPREC
 70
     2
  9
$SKETCHINC
 40
1.0
  9
$FILLETRAD
 40
10.0
  9
$AUNITS
 70
     0
  9
$AUPREC
 70
     2
  9
$MENU
  1
.
  9
$ELEVATION
 40
0.0
  9
$PELEVATION
 40
0.0
  9
$THICKNESS
 40
0.0
  9
$LIMCHECK
 70
     0
  9
$CHAMFERA
 40
10.0
  9
$CHAMFERB
 40
10.0
  9
$CHAMFERC
 40
20.0
  9
$CHAMFERD
 40
0.0
  9
$SKPOLY
 70
     0
  9
$TDCREATE
 40
2458043.462135567
  9
$TDUCREATE
 40
2458043.378802234
  9
$TDUPDATE
 40
2458043.462136285
  9
$TDUUPDATE
 40
2458043.378802951
  9
$TDINDWG
 40
0.0000000116
  9
$TDUSRTIMER
 40
0.0000000116
  9
$USRTIMER
 70
     1
  9
$ANGBASE
 50
0.0
  9
$ANGDIR
 70
     0
  9
$PDMODE
 70
     0
  9
$PDSIZE
 40
-1.0
  9
$PLINEWID
 40
0.0
  9
$SPLFRAME
 70
     0
  9
$SPLINETYPE
 70
     6
  9
$SPLINESEGS
 70
     8
  9
$HANDSEED
  5
278
  9
$SURFTAB1
 70
     6
  9
$SURFTAB2
 70
     6
  9
$SURFTYPE
 70
     6
  9
$SURFU
 70
     6
  9
$SURFV
 70
     6
  9
$UCSBASE
  2

  9
$UCSNAME
  2

  9
$UCSORG
 10
0.0
 20
0.0
 30
0.0
  9
$UCSXDIR
 10
1.0
 20
0.0
 30
0.0
  9
$UCSYDIR
 10
0.0
 20
1.0
 30
0.0
  9
$UCSORTHOREF
  2

  9
$UCSORTHOVIEW
 70
     0
  9
$UCSORGTOP
 10
0.0
 20
0.0
 30
0.0
  9
$UCSORGBOTTOM
 10
0.0
 20
0.0
 30
0.0
  9
$UCSORGLEFT
 10
0.0
 20
0.0
 30
0.0
  9
$UCSORGRIGHT
 10
0.0
 20
0.0
 30
0.0
  9
$UCSORGFRONT
 10
0.0
 20
0.0
 30
0.0
  9
$UCSORGBACK
 10
0.0
 20
0.0
 30
0.0
  9
$PUCSBASE
  2

  9
$PUCSNAME
  2

  9
$PUCSORG
 10
0.0
 20
0.0
 30
0.0
  9
$PUCSXDIR
 10
1.0
 20
0.0
 30
0.0
  9
$PUCSYDIR
 10
0.0
 20
1.0
 30
0.0
  9
$PUCSORTHOREF
  2

  9
$PUCSORTHOVIEW
 70
     0
  9
$PUCSORGTOP
 10
0.0
 20
0.0
 30
0.0
  9
$PUCSORGBOTTOM
 10
0.0
 20
0.0
 30
0.0
  9
$PUCSORGLEFT
 10
0.0
 20
0.0
 30
0.0
  9
$PUCSORGRIGHT
 10
0.0
 20
0.0
 30
0.0
  9
$PUCSORGFRONT
 10
0.0
 20
0.0
 30
0.0
  9
$PUCSORGBACK
 10
0.0
 20
0.0
 30
0.0
  9
$USERI1
 70
     0
  9
$USERI2
 70
     0
  9
$USERI3
 70
     0
  9
$USERI4
 70
     0
  9
$USERI5
 70
     0
  9
$USERR1
 40
0.0
  9
$USERR2
 40
0.0
  9
$USERR3
 40
0.0
  9
$USERR4
 40
0.0
  9
$USERR5
 40
0.0
  9
$WORLDVIEW
 70
     1
  9
$SHADEDGE
 70
     3
  9
$SHADEDIF
 70
    70
  9
$TILEMODE
 70
     1
  9
$MAXACTVP
 70
    64
  9
$PINSBASE
 10
0.0
 20
0.0
 30
0.0
  9
$PLIMCHECK
 70
     0
  9
$PEXTMIN
 10
1.0000000000E+20
 20
1.0000000000E+20
 30
1.0000000000E+20
  9
$PEXTMAX
 10
-1.0000000000E+20
 20
-1.0000000000E+20
 30
-1.0000000000E+20
  9
$PLIMMIN
 10
0.0
 20
0.0
  9
$PLIMMAX
 10
420.0
 20
297.0
  9
$UNITMODE
 70
     0
  9
$VISRETAIN
 70
     1
  9
$PLINEGEN
 70
     0
  9
$PSLTSCALE
 70
     1
  9
$TREEDEPTH
 70
  3020
  9
$CMLSTYLE
  2
Standard
  9
$CMLJUST
 70
     0
  9
$CMLSCALE
 40
20.0
  9
$PROXYGRAPHICS
 70
     1
  9
$MEASUREMENT
 70
     1
  9
$CELWEIGHT
370
    -1
  9
$ENDCAPS
280
     0
  9
$JOINSTYLE
280
     0
  9
$LWDISPLAY
290
     1
  9
$INSUNITS
 70
     4
  9
$HYPERLINKBASE
  1

  9
$STYLESHEET
  1

  9
$XEDIT
290
     1
  9
$CEPSNTYPE
380
     0
  9
$PSTYLEMODE
290
     1
  9
$FINGERPRINTGUID
  2
{41B2D8D0-1929-4D03-AE3C-2034ACBC7049}
  9
$VERSIONGUID
  2
{FAEB1C32-E019-11D5-929B-00C0DF256EC4}
  9
$EXTNAMES
290
     1
  9
$PSVPSCALE
 40
0.0
  9
$OLESTARTUP
290
     0
  0
ENDSEC
  0
SECTION
  2
CLASSES
  0
CLASS
  1
ACDBDICTIONARYWDFLT
  2
AcDbDictionaryWithDefault
  3
ObjectDBX Classes
 90
        0
280
     0
281
     0
  0
CLASS
  1
VISUALSTYLE
  2
AcDbVisualStyle
  3
ObjectDBX Classes
 90
     4095
280
     0
281
     0
  0
CLASS
  1
MATERIAL
  2
AcDbMaterial
  3
ObjectDBX Classes
 90
     1153
280
     0
281
     0
  0
CLASS
  1
ACDBPLACEHOLDER
  2
AcDbPlaceHolder
  3
ObjectDBX Classes
 90
        0
280
     0
281
     0
  0
CLASS
  1
LAYOUT
  2
AcDbLayout
  3
ObjectDBX Classes
 90
        0
280
     0
281
     0
  0
ENDSEC
  0
SECTION
  2
TABLES
  0
TABLE
  2
VPORT
  5
8
330
0
100
AcDbSymbolTable
 70
     1
  0
VPORT
  5
29
330
8
100
AcDbSymbolTableRecord
100
AcDbViewportTableRecord
  2
*Active
 70
     0
 10
0.0
 20
0.0
 11
1.0
 21
1.0
 12
297.0
 22
210.0
 13
0.0
 23
0.0
 14
10.0
 24
10.0
 15
10.0
 25
10.0
 16
0.0
 26
0.0
 36
1.0
 17
0.0
 27
0.0
 37
0.0
 40
420.0
 41
1.4142857143
 42
50.0
 43
0.0
 44
0.0
 50
0.0
 51
0.0
 71
     0
 72
  2000
 73
     1
 74
     3
 75
     0
 76
     0
 77
     0
 78
     0
281
     0
 65
     1
110
0.0
120
0.0
130
0.0
111
1.0
121
0.0
131
0.0
112
0.0
122
1.0
132
0.0
 79
     0
146
0.0
  0
ENDTAB
  0
TABLE
  2
LTYPE
  5
5
330
0
100
AcDbSymbolTable
 70
     6
  0
LTYPE
  5
14
330
5
100
AcDbSymbolTableRecord
100
AcDbLinetypeTableRecord
  2
ByBlock
 70
     0
  3

 72
    65
 73
     0
 40
0.0
  0
LTYPE
  5
15
330
5
100
AcDbSymbolTableRecord
100
AcDbLinetypeTableRecord
  2
ByLayer
 70
     0
  3

 72
    65
 73
     0
 40
0.0
  0
LTYPE
  5
16
330
5
100
AcDbSymbolTableRecord
100
AcDbLinetypeTableRecord
  2
Continuous
 70
     0
  3
Solid line
 72
    65
 73
     0
 40
0.0
  0
LTYPE
  5
3F
330
5
100
AcDbSymbolTableRecord
100
AcDbLinetypeTableRecord
  2
HIDDEN
 70
     0
  3
Hidden __ __ __ __ __ __ __ __ __ __ __ __ __ __
 72
    65
 73
     2
 40
1.905
 49
1.27
 74
     0
 49
-0.635
 74
     0
  0
LTYPE
  5
40
330
5
100
AcDbSymbolTableRecord
100
AcDbLinetypeTableRecord
  2
PHANTOM
 70
     0
  3
Phantom ______  __  __  ______  __  __  ______
 72
    65
 73
     6
 40
12.7
 49
6.35
 74
     0
 49
-1.27
 74
     0
 49
1.27
 74
     0
 49
-1.27
 74
     0
 49
1.27
 74
     0
 49
-1.27
 74
     0
  0
LTYPE
  5
41
330
5
100
AcDbSymbolTableRecord
100
AcDbLinetypeTableRecord
  2
CENTER
 70
     0
  3
Center ____ _ ____ _ ____ _ ____ _ ____ _ ____
 72
    65
 73
     4
 40
10.16
 49
6.35
 74
     0
 49
-1.27
 74
     0
 49
1.27
 74
     0
 49
-1.27
 74
     0
  0
LTYPE
  5
42
330
5
100
AcDbSymbolTableRecord
100
AcDbLinetypeTableRecord
  2
CENTERX2
 70
     0
  3
Center (2x) ________  __  ________  __  _____
 72
    65
 73
     4
 40
20.32
 49
12.7
 74
     0
 49
-2.54
 74
     0
 49
2.54
 74
     0
 49
-2.54
 74
     0
  0
LTYPE
  5
43
330
5
100
AcDbSymbolTableRecord
100
AcDbLinetypeTableRecord
  2
DOT2
 70
     0
  3
Dot (.5x) ........................................
 72
    65
 73
     2
 40
0.635
 49
0.0
 74
     0
 49
-0.635
 74
     0
  0
ENDTAB
  0
TABLE
  2
LAYER
  5
2
330
0
100
AcDbSymbolTable
 70
     3
  0
LAYER
  5
10
330
2
100
AcDbSymbolTableRecord
100
AcDbLayerTableRecord
  2
0
 70
     0
 62
     7
  6
Continuous
370
    -3
390
F
  0
LAYER
  5
44
330
2
100
AcDbSymbolTableRecord
100
AcDbLayerTableRecord
  2
FORMAT
 70
     0
 62
     7
  6
Continuous
370
    -3
390
F
  0
LAYER
  5
45
330
2
100
AcDbSymbolTableRecord
100
AcDbLayerTableRecord
  2
PROTOTYPE
 70
     0
 62
     7
  6
Continuous
370
    -3
390
F
  0
ENDTAB
  0
TABLE
  2
STYLE
  5
3
330
0
100
AcDbSymbolTable
 70
     1
  0
STYLE
  5
11
330
3
100
AcDbSymbolTableRecord
100
AcDbTextStyleTableRecord
  2
Standard
 70
     0
 40
0.0
 41
1.0
 50
0.0
 71
     0
 42
2.5
  3
txt
  4

  0
ENDTAB
  0
TABLE
  2
VIEW
  5
6
330
0
100
AcDbSymbolTable
 70
     0
  0
ENDTAB
  0
TABLE
  2
UCS
  5
7
330
0
100
AcDbSymbolTable
 70
     0
  0
ENDTAB
  0
TABLE
  2
APPID
  5
9
330
0
100
AcDbSymbolTable
 70
     1
  0
APPID
  5
12
330
9
100
AcDbSymbolTableRecord
100
AcDbRegAppTableRecord
  2
ACAD
 70
     0
  0
ENDTAB
  0
TABLE
  2
DIMSTYLE
  5
A
330
0
100
AcDbSymbolTable
 70
     1
100
AcDbDimStyleTable
  0
DIMSTYLE
105
27
330
A
100
AcDbSymbolTableRecord
100
AcDbDimStyleTableRecord
  2
ISO-25
 70
     0
 41
2.5
 42
0.625
 43
3.75
 44
1.25
 73
     0
 74
     0
 77
     1
 78
     8
140
2.5
141
2.5
143
0.0393700787
147
0.625
171
     3
172
     1
178
     0
271
     2
272
     2
274
     3
278
    44
283
     0
284
     8
340
11
  0
ENDTAB
  0
TABLE
  2
BLOCK_RECORD
  5
1
330
0
100
AcDbSymbolTable
 70
     3
  0
BLOCK_RECORD
  5
1F
330
1
100
AcDbSymbolTableRecord
100
AcDbBlockTableRecord
  2
*Model_Space
340
22
  0
BLOCK_RECORD
  5
1B
330
1
100
AcDbSymbolTableRecord
100
AcDbBlockTableRecord
  2
*Paper_Space
340
1E
  0
BLOCK_RECORD
  5
23
330
1
100
AcDbSymbolTableRecord
100
AcDbBlockTableRecord
  2
*Paper_Space0
340
26
  0
BLOCK_RECORD
  5
1A6
330
1
100
AcDbSymbolTableRecord
100
AcDbBlockTableRecord
  2
SW_CENTERMARKSYMBOL_0
340
0
102
{BLKREFS
331
1B1
102
}
  0
BLOCK_RECORD
  5
26C
330
1
100
AcDbSymbolTableRecord
100
AcDbBlockTableRecord
  2
SW_CENTERMARKSYMBOL_1
340
0
102
{BLKREFS
331
277
102
}
  0
ENDTAB
  0
ENDSEC
  0
SECTION
  2
BLOCKS
  0
BLOCK
  5
20
330
1F
100
AcDbEntity
  8
0
100
AcDbBlockBegin
  2
*Model_Space
 70
     0
 10
0.0
 20
0.0
 30
0.0
  3
*Model_Space
  1

  0
ENDBLK
  5
21
330
1F
100
AcDbEntity
  8
0
100
AcDbBlockEnd
  0
BLOCK
  5
1C
330
1B
100
AcDbEntity
 67
     1
  8
0
100
AcDbBlockBegin
  2
*Paper_Space
 70
     0
 10
0.0
 20
0.0
 30
0.0
  3
*Paper_Space
  1

  0
ENDBLK
  5
1D
330
1B
100
AcDbEntity
 67
     1
  8
0
100
AcDbBlockEnd
  0
BLOCK
  5
24
330
23
100
AcDbEntity
  8
0
100
AcDbBlockBegin
  2
*Paper_Space0
 70
     0
 10
0.0
 20
0.0
 30
0.0
  3
*Paper_Space0
  1

  0
ENDBLK
  5
25
330
23
100
AcDbEntity
  8
0
100
AcDbBlockEnd
  0
BLOCK
  5
1A7
330
1A6
100
AcDbEntity
  8
0
100
AcDbBlockBegin
  2
SW_CENTERMARKSYMBOL_0
 70
     0
 10
0.0
 20
0.0
 30
0.0
  3
SW_CENTERMARKSYMBOL_0
  1

  0
LINE
  5
1A9
330
1A6
100
AcDbEntity
  8
FORMAT
 62
     0
100
AcDbLine
 10
0.0
 20
0.0
 30
0.0
 11
0.0
 21
2.5
 31
0.0
  0
LINE
  5
1AA
330
1A6
100
AcDbEntity
  8
FORMAT
 62
     0
100
AcDbLine
 10
0.0
 20
0.0
 30
0.0
 11
-2.5
 21
0.0
 31
0.0
  0
LINE
  5
1AB
330
1A6
100
AcDbEntity
  8
FORMAT
 62
     0
100
AcDbLine
 10
0.0
 20
0.0
 30
0.0
 11
0.0
 21
-2.5
 31
0.0
  0
LINE
  5
1AC
330
1A6
100
AcDbEntity
  8
FORMAT
 62
     0
100
AcDbLine
 10
0.0
 20
0.0
 30
0.0
 11
2.5
 21
0.0
 31
0.0
  0
LINE
  5
1AD
330
1A6
100
AcDbEntity
  8
FORMAT
 62
     0
100
AcDbLine
 10
0.0
 20
5.0
 30
0.0
 11
0.0
 21
216.4372387188
 31
0.0
  0
LINE
  5
1AE
330
1A6
100
AcDbEntity
  8
FORMAT
 62
     0
100
AcDbLine
 10
-5.0
 20
0.0
 30
0.0
 11
-49.8872558955
 21
0.0
 31
0.0
  0
LINE
  5
1AF
330
1A6
100
AcDbEntity
  8
FORMAT
 62
     0
100
AcDbLine
 10
0.0
 20
-5.0
 30
0.0
 11
0.0
 21
-42.0927156655
 31
0.0
  0
LINE
  5
1B0
330
1A6
100
AcDbEntity
  8
FORMAT
 62
     0
100
AcDbLine
 10
5.0
 20
0.0
 30
0.0
 11
49.3882465881
 21
0.0
 31
0.0
  0
ENDBLK
  5
1A8
330
1A6
100
AcDbEntity
  8
0
100
AcDbBlockEnd
  0
BLOCK
  5
26D
330
26C
100
AcDbEntity
  8
0
100
AcDbBlockBegin
  2
SW_CENTERMARKSYMBOL_1
 70
     0
 10
0.0
 20
0.0
 30
0.0
  3
SW_CENTERMARKSYMBOL_1
  1

  0
LINE
  5
26F
330
26C
100
AcDbEntity
  8
FORMAT
 62
     0
100
AcDbLine
 10
0.0
 20
0.0
 30
0.0
 11
0.0
 21
2.5
 31
0.0
  0
LINE
  5
270
330
26C
100
AcDbEntity
  8
FORMAT
 62
     0
100
AcDbLine
 10
0.0
 20
0.0
 30
0.0
 11
-2.5
 21
0.0
 31
0.0
  0
LINE
  5
271
330
26C
100
AcDbEntity
  8
FORMAT
 62
     0
100
AcDbLine
 10
0.0
 20
0.0
 30
0.0
 11
0.0
 21
-2.5
 31
0.0
  0
LINE
  5
272
330
26C
100
AcDbEntity
  8
FORMAT
 62
     0
100
AcDbLine
 10
0.0
 20
0.0
 30
0.0
 11
2.5
 21
0.0
 31
0.0
  0
LINE
  5
273
330
26C
100
AcDbEntity
  8
FORMAT
 62
     0
100
AcDbLine
 10
0.0
 20
5.0
 30
0.0
 11
0.0
 21
51.8792187916
 31
0.0
  0
LINE
  5
274
330
26C
100
AcDbEntity
  8
FORMAT
 62
     0
100
AcDbLine
 10
-5.0
 20
0.0
 30
0.0
 11
-95.6043313236
 21
0.0
 31
0.0
  0
LINE
  5
275
330
26C
100
AcDbEntity
  8
FORMAT
 62
     0
100
AcDbLine
 10
0.0
 20
-5.0
 30
0.0
 11
0.0
 21
-52.0498228709
 31
0.0
  0
LINE
  5
276
330
26C
100
AcDbEntity
  8
FORMAT
 62
     0
100
AcDbLine
 10
5.0
 20
0.0
 30
0.0
 11
96.2248948296
 21
0.0
 31
0.0
  0
ENDBLK
  5
26E
330
26C
100
AcDbEntity
  8
0
100
AcDbBlockEnd
  0
ENDSEC
  0
SECTION
  2
ENTITIES
  0
ARC
  5
46
330
1F
100
AcDbEntity
  8
0
  6
Continuous
 62
     7
370
    15
100
AcDbCircle
 10
247.5172112019
 20
351.0346582642
 30
0.0
 40
3.000000000000028
100
AcDbArc
 50
0.0
 51
90.0
  0
ARC
  5
47
330
1F
100
AcDbEntity
  8
0
  6
Continuous
 62
     7
370
    15
100
AcDbCircle
 10
199.0172112019
 20
351.0346582642
 30
0.0
 40
3.0
100
AcDbArc
 50
90.0
 51
180.0
  0
LINE
  5
48
330
1F
100
AcDbEntity
  8
0
  6
Continuous
 62
     7
370
    15
100
AcDbLine
 10
218.7669119754
 20
354.034660714
 30
0.0
 11
199.0172104866
 21
354.034660714
 31
0.0
  0
LINE
  5
49
330
1F
100
AcDbEntity
  8
0
  6
Continuous
 62
     7
370
    15
100
AcDbLine
 10
247.5172119171
 20
354.034660714
 30
0.0
 11
227.7686536268
 21
354.034660714
 31
0.0
  0
LINE
  5
4A
330
1F
100
AcDbEntity
  8
0
  6
Continuous
 62
     7
370
    15
100
AcDbLine
 10
250.5172105462
 20
339.031709688
 30
0.0
 11
250.5172105462
 21
351.0346546343
 31
0.0
  0
LINE
  5
4B
330
1F
100
AcDbEntity
  8
0
  6
Continuous
 62
     7
370
    15
100
AcDbLine
 10
196.0172118575
 20
351.0346546343
 30
0.0
 11
196.0172118575
 21
339.031709688
 31
0.0
  0
ARC
  5
4C
330
1F
100
AcDbEntity
  8
0
  6
Continuous
 62
     7
370
    15
100
AcDbCircle
 10
199.2832556355
 20
357.0287570587
 30
0.0
 40
3.000000000000017
100
AcDbArc
 50
273.5943352744
 51
350.0
  0
ARC
  5
4D
330
1F
100
AcDbEntity
  8
0
  6
Continuous
 62
     7
370
    15
100
AcDbCircle
 10
247.2511667682
 20
357.0287570587
 30
0.0
 40
3.000000000000017
100
AcDbArc
 50
190.0
 51
266.4056647256
  0
LINE
  5
4E
330
1F
100
AcDbEntity
  8
0
  6
Continuous
 62
     7
370
    15
100
AcDbLine
 10
244.2967431576
 20
356.5078064373
 30
0.0
 11
239.2672119618
 21
385.0317135027
 31
0.0
  0
LINE
  5
4F
330
1F
100
AcDbEntity
  8
0
  6
Continuous
 62
     7
370
    15
100
AcDbLine
 10
207.2672104419
 20
385.0317135027
 30
0.0
 11
202.2376792461
 21
356.5078064373
 31
0.0
  0
LINE
  5
50
330
1F
100
AcDbEntity
  8
0
  6
Continuous
 62
     7
370
    15
100
AcDbLine
 10
161.4480452568
 20
339.031709688
 30
0.0
 11
160.7672112019
 21
313.0317091516
 31
0.0
  0
LINE
  5
51
330
1F
100
AcDbEntity
  8
0
  6
Continuous
 62
     7
370
    15
100
AcDbLine
 10
285.7672112019
 20
313.0317091516
 30
0.0
 11
285.0863771469
 21
339.031709688
 31
0.0
  0
LINE
  5
52
330
1F
100
AcDbEntity
  8
0
  6
Continuous
 62
     7
370
    15
100
AcDbLine
 10
232.2672108144
 20
385.0317135027
 30
0.0
 11
232.2672108144
 21
389.8204400709
 31
0.0
  0
LINE
  5
53
330
1F
100
AcDbEntity
  8
0
  6
Continuous
 62
     7
370
    15
100
AcDbLine
 10
214.2672115893
 20
389.8204400709
 30
0.0
 11
214.2672115893
 21
385.0317135027
 31
0.0
  0
SPLINE
  5
54
330
1F
100
AcDbEntity
  8
0
  6
Continuous
 62
     7
370
    15
100
AcDbSpline
210
0.0
220
0.0
230
1.0
 70
     8
 71
     3
 72
    16
 73
    12
 74
     0
 42
0.00000001
 43
0.00000001
 12
1.0
 22
0.0
 32
0.0
 13
1.0
 23
0.0
 33
0.0
 40
0.0
 40
0.0
 40
0.0
 40
0.0
 40
0.25
 40
0.25
 40
0.5
 40
0.5
 40
0.7499999999999999
 40
0.7499999999999999
 40
0.875
 40
0.875
 40
1.0
 40
1.0
 40
1.0
 40
1.0
 10
287.0684813910887
 20
213.0317076614481
 30
0.0
 10
286.2196976271919
 20
214.501844265157
 30
0.0
 10
285.4356529999577
 20
215.9888696461018
 30
0.0
 10
284.0329543612643
 20
219.0060665698149
 30
0.0
 10
283.4143294688761
 20
220.5362457090005
 30
0.0
 10
282.3861387152438
 20
223.6511421166733
 30
0.0
 10
281.9767171661277
 20
225.2358970324865
 30
0.0
 10
281.5562164213175
 20
227.6635429096275
 30
0.0
 10
281.4483504538977
 20
228.4811846892186
 30
0.0
 10
281.3033213348387
 20
230.1349127962777
 30
0.0
 10
281.2672112018669
 20
230.960612679319
 30
0.0
 10
281.2672112018669
 20
231.7817076614481
 30
0.0
  0
SPLINE
  5
55
330
1F
100
AcDbEntity
  8
0
  6
Continuous
 62
     7
370
    15
100
AcDbSpline
210
0.0
220
0.0
230
1.0
 70
     8
 71
     3
 72
    14
 73
    10
 74
     0
 42
0.00000001
 43
0.00000001
 12
1.0
 22
0.0
 32
0.0
 13
1.0
 23
0.0
 33
0.0
 40
0.0
 40
0.0
 40
0.0
 40
0.0
 40
0.2500000000000002
 40
0.2500000000000002
 40
0.5000000000000003
 40
0.5000000000000003
 40
0.7500000000000001
 40
0.7500000000000001
 40
1.0
 40
1.0
 40
1.0
 40
1.0
 10
281.2672112018669
 20
231.7817076614481
 30
0.0
 10
281.2672112018669
 20
233.4123960749629
 30
0.0
 10
281.4096889615388
 20
235.0293626122474
 30
0.0
 10
281.957152727092
 20
238.2380138065271
 30
0.0
 10
282.3618789493169
 20
239.8297234830005
 30
0.0
 10
283.3995648225842
 20
242.9911619255997
 30
0.0
 10
284.0243878027418
 20
244.5380099515465
 30
0.0
 10
285.4347292666657
 20
247.5734647983566
 30
0.0
 10
286.2206807799872
 20
249.0632739283322
 30
0.0
 10
287.0684813910888
 20
250.5317076614482
 30
0.0
  0
LINE
  5
56
330
1F
100
AcDbEntity
  8
0
  6
Continuous
 62
     7
370
    15
100
AcDbLine
 10
287.0684849054
 20
250.5317091516
 30
0.0
 11
313.2672147781
 21
250.5317091516
 31
0.0
  0
LINE
  5
57
330
1F
100
AcDbEntity
  8
0
  6
Continuous
 62
     7
370
    15
100
AcDbLine
 10
313.2672147781
 20
213.0317076614
 30
0.0
 11
313.2672147781
 21
250.5317091516
 31
0.0
  0
LINE
  5
58
330
1F
100
AcDbEntity
  8
0
  6
Continuous
 62
     7
370
    15
100
AcDbLine
 10
287.0684849054
 20
213.0317076614
 30
0.0
 11
313.2672147781
 21
213.0317076614
 31
0.0
  0
LINE
  5
59
330
1F
100
AcDbEntity
  8
0
  6
Continuous
 62
     7
370
    15
100
AcDbLine
 10
281.2672095329
 20
231.7817084065
 30
0.0
 11
281.2672095329
 21
194.2817069164
 31
0.0
  0
SPLINE
  5
5A
330
1F
100
AcDbEntity
  8
0
  6
Continuous
 62
     7
370
    15
100
AcDbSpline
210
0.0
220
0.0
230
1.0
 70
     8
 71
     3
 72
    14
 73
    10
 74
     0
 42
0.00000001
 43
0.00000001
 12
1.0
 22
0.0
 32
0.0
 13
1.0
 23
0.0
 33
0.0
 40
0.0
 40
0.0
 40
0.0
 40
0.0
 40
0.25
 40
0.25
 40
0.5
 40
0.5
 40
0.75
 40
0.75
 40
1.0
 40
1.0
 40
1.0
 40
1.0
 10
281.2672112018669
 20
194.2817076614482
 30
0.0
 10
281.2672112018669
 20
195.912396074963
 30
0.0
 10
281.4096889615389
 20
197.5293626122475
 30
0.0
 10
281.957152727092
 20
200.7380138065272
 30
0.0
 10
282.3618789493169
 20
202.3297234830005
 30
0.0
 10
283.3995648225842
 20
205.4911619255997
 30
0.0
 10
284.0243878027417
 20
207.0380099515465
 30
0.0
 10
285.4347292666657
 20
210.0734647983566
 30
0.0
 10
286.2206807799871
 20
211.5632739283321
 30
0.0
 10
287.0684813910887
 20
213.0317076614481
 30
0.0
  0
LINE
  5
5B
330
1F
100
AcDbEntity
  8
0
  6
Continuous
 62
     7
370
    15
100
AcDbLine
 10
133.2672076256
 20
213.0317076614
 30
0.0
 11
133.2672076256
 21
250.5317091516
 31
0.0
  0
LINE
  5
5C
330
1F
100
AcDbEntity
  8
0
  6
Continuous
 62
     7
370
    15
100
AcDbLine
 10
159.4659374983
 20
250.5317091516
 30
0.0
 11
133.2672076256
 21
250.5317091516
 31
0.0
  0
SPLINE
  5
5D
330
1F
100
AcDbEntity
  8
0
  6
Continuous
 62
     7
370
    15
100
AcDbSpline
210
0.0
220
0.0
230
1.0
 70
     8
 71
     3
 72
    14
 73
    10
 74
     0
 42
0.00000001
 43
0.00000001
 12
1.0
 22
0.0
 32
0.0
 13
1.0
 23
0.0
 33
0.0
 40
0.0
 40
0.0
 40
0.0
 40
0.0
 40
0.2500000000000002
 40
0.2500000000000002
 40
0.5000000000000003
 40
0.5000000000000003
 40
0.7500000000000001
 40
0.7500000000000001
 40
1.0
 40
1.0
 40
1.0
 40
1.0
 10
165.2672112018669
 20
231.7817076614481
 30
0.0
 10
165.2672112018669
 20
233.4123960749629
 30
0.0
 10
165.124733442195
 20
235.0293626122474
 30
0.0
 10
164.5772696766419
 20
238.2380138065271
 30
0.0
 10
164.1725434544169
 20
239.8297234830005
 30
0.0
 10
163.1348575811496
 20
242.9911619255997
 30
0.0
 10
162.510034600992
 20
244.5380099515465
 30
0.0
 10
161.099693137068
 20
247.5734647983566
 30
0.0
 10
160.3137416237467
 20
249.0632739283322
 30
0.0
 10
159.465941012645
 20
250.5317076614482
 30
0.0
  0
SPLINE
  5
5E
330
1F
100
AcDbEntity
  8
0
  6
Continuous
 62
     7
370
    15
100
AcDbSpline
210
0.0
220
0.0
230
1.0
 70
     8
 71
     3
 72
    16
 73
    12
 74
     0
 42
0.00000001
 43
0.00000001
 12
1.0
 22
0.0
 32
0.0
 13
1.0
 23
0.0
 33
0.0
 40
0.0
 40
0.0
 40
0.0
 40
0.0
 40
0.25
 40
0.25
 40
0.5
 40
0.5
 40
0.7499999999999999
 40
0.7499999999999999
 40
0.875
 40
0.875
 40
1.0
 40
1.0
 40
1.0
 40
1.0
 10
159.4659410126451
 20
213.0317076614481
 30
0.0
 10
160.3147247765419
 20
214.501844265157
 30
0.0
 10
161.0987694037761
 20
215.9888696461018
 30
0.0
 10
162.5014680424695
 20
219.0060665698149
 30
0.0
 10
163.1200929348578
 20
220.5362457090005
 30
0.0
 10
164.14828368849
 20
223.6511421166733
 30
0.0
 10
164.5577052376061
 20
225.2358970324865
 30
0.0
 10
164.9782059824164
 20
227.6635429096275
 30
0.0
 10
165.0860719498361
 20
228.4811846892186
 30
0.0
 10
165.2311010688951
 20
230.1349127962777
 30
0.0
 10
165.2672112018669
 20
230.960612679319
 30
0.0
 10
165.2672112018669
 20
231.7817076614481
 30
0.0
  0
LINE
  5
5F
330
1F
100
AcDbEntity
  8
0
  6
Continuous
 62
     7
370
    15
100
AcDbLine
 10
159.4659374983
 20
213.0317076614
 30
0.0
 11
133.2672076256
 21
213.0317076614
 31
0.0
  0
LINE
  5
60
330
1F
100
AcDbEntity
  8
0
  6
Continuous
 62
     7
370
    15
100
AcDbLine
 10
165.2672128708
 20
231.7817084065
 30
0.0
 11
165.2672128708
 21
194.2817069164
 31
0.0
  0
SPLINE
  5
61
330
1F
100
AcDbEntity
  8
0
  6
Continuous
 62
     7
370
    15
100
AcDbSpline
210
0.0
220
0.0
230
1.0
 70
     8
 71
     3
 72
    14
 73
    10
 74
     0
 42
0.00000001
 43
0.00000001
 12
1.0
 22
0.0
 32
0.0
 13
1.0
 23
0.0
 33
0.0
 40
0.0
 40
0.0
 40
0.0
 40
0.0
 40
0.25
 40
0.25
 40
0.5
 40
0.5
 40
0.75
 40
0.75
 40
1.0
 40
1.0
 40
1.0
 40
1.0
 10
165.2672112018669
 20
194.2817076614482
 30
0.0
 10
165.2672112018669
 20
195.912396074963
 30
0.0
 10
165.124733442195
 20
197.5293626122475
 30
0.0
 10
164.5772696766418
 20
200.7380138065272
 30
0.0
 10
164.1725434544169
 20
202.3297234830005
 30
0.0
 10
163.1348575811496
 20
205.4911619255997
 30
0.0
 10
162.510034600992
 20
207.0380099515465
 30
0.0
 10
161.0996931370681
 20
210.0734647983566
 30
0.0
 10
160.3137416237468
 20
211.5632739283321
 30
0.0
 10
159.4659410126451
 20
213.0317076614481
 30
0.0
  0
LINE
  5
62
330
1F
100
AcDbEntity
  8
0
  6
Continuous
 62
     7
370
    15
100
AcDbLine
 10
242.6579302133
 20
313.0317091516
 30
0.0
 11
270.6460045607
 21
313.0317091516
 31
0.0
  0
LINE
  5
63
330
1F
100
AcDbEntity
  8
0
  6
Continuous
 62
     7
370
    15
100
AcDbLine
 10
242.6579302133
 20
313.0317091516
 30
0.0
 11
242.6157506139
 21
320.8317070773
 31
0.0
  0
LINE
  5
64
330
1F
100
AcDbEntity
  8
0
  6
Continuous
 62
     7
370
    15
100
AcDbLine
 10
242.6157506139
 20
320.8317070773
 30
0.0
 11
270.4883912534
 21
320.8317070773
 31
0.0
  0
LINE
  5
65
330
1F
100
AcDbEntity
  8
0
  6
Continuous
 62
     7
370
    15
100
AcDbLine
 10
270.6460045607
 20
313.0317091516
 30
0.0
 11
270.4883912534
 21
320.8317070773
 31
0.0
  0
LINE
  5
66
330
1F
100
AcDbEntity
  8
0
  6
Continuous
 62
     7
370
    15
100
AcDbLine
 10
203.9186717898
 20
320.8317070773
 30
0.0
 11
176.0460311503
 21
320.8317070773
 31
0.0
  0
LINE
  5
67
330
1F
100
AcDbEntity
  8
0
  6
Continuous
 62
     7
370
    15
100
AcDbLine
 10
203.8764921904
 20
313.0317091516
 30
0.0
 11
203.9186717898
 21
320.8317070773
 31
0.0
  0
LINE
  5
68
330
1F
100
AcDbEntity
  8
0
  6
Continuous
 62
     7
370
    15
100
AcDbLine
 10
203.8764921904
 20
313.0317091516
 30
0.0
 11
175.8884178431
 21
313.0317091516
 31
0.0
  0
LINE
  5
69
330
1F
100
AcDbEntity
  8
0
  6
Continuous
 62
     7
370
    15
100
AcDbLine
 10
175.8884178431
 20
313.0317091516
 30
0.0
 11
176.0460311503
 21
320.8317070773
 31
0.0
  0
LINE
  5
6A
330
1F
100
AcDbEntity
  8
0
  6
Continuous
 62
     7
370
    15
100
AcDbLine
 10
203.9667671502
 20
303.0317112377
 30
0.0
 11
203.8764921904
 21
313.0317091516
 31
0.0
  0
LINE
  5
6B
330
1F
100
AcDbEntity
  8
0
  6
Continuous
 62
     7
370
    15
100
AcDbLine
 10
203.9667671502
 20
303.0317112377
 30
0.0
 11
176.1384369762
 21
303.0317112377
 31
0.0
  0
SPLINE
  5
6C
330
1F
100
AcDbEntity
  8
0
  6
Continuous
 62
     7
370
    15
100
AcDbSpline
210
0.0
220
0.0
230
1.0
 70
    24
 71
     3
 72
     8
 73
     4
 74
     0
 42
0.00000001
 43
0.00000001
 12
1.0
 22
0.0
 32
0.0
 13
1.0
 23
0.0
 33
0.0
 40
0.0
 40
0.0
 40
0.0
 40
0.0
 40
1.0
 40
1.0
 40
1.0
 40
1.0
 10
175.8197112018669
 20
313.0317076614482
 30
0.0
 10
175.9259569056433
 20
309.6982464425123
 30
0.0
 10
176.0321987139165
 20
306.3649074450745
 30
0.0
 10
176.138436085099
 20
303.0317076614481
 30
0.0
  0
SPLINE
  5
6D
330
1F
100
AcDbEntity
  8
0
  6
Continuous
 62
     7
370
    15
100
AcDbSpline
210
0.0
220
0.0
230
1.0
 70
    24
 71
     3
 72
     8
 73
     4
 74
     0
 42
0.00000001
 43
0.00000001
 12
1.0
 22
0.0
 32
0.0
 13
1.0
 23
0.0
 33
0.0
 40
0.0
 40
0.0
 40
0.0
 40
0.0
 40
1.0
 40
1.0
 40
1.0
 40
1.0
 10
270.7147112018669
 20
313.0317076614482
 30
0.0
 10
270.6084654980905
 20
309.6982464425123
 30
0.0
 10
270.5022236898174
 20
306.3649074450745
 30
0.0
 10
270.3959863186348
 20
303.0317076614481
 30
0.0
  0
LINE
  5
6E
330
1F
100
AcDbEntity
  8
0
  6
Continuous
 62
     7
370
    15
100
AcDbLine
 10
242.5676552535
 20
303.0317112377
 30
0.0
 11
270.3959854276
 21
303.0317112377
 31
0.0
  0
LINE
  5
6F
330
1F
100
AcDbEntity
  8
0
  6
Continuous
 62
     7
370
    15
100
AcDbLine
 10
242.5676552535
 20
303.0317112377
 30
0.0
 11
242.6579302133
 21
313.0317091516
 31
0.0
  0
LINE
  5
70
330
1F
100
AcDbEntity
  8
0
  6
Continuous
 62
     7
370
    15
100
AcDbLine
 10
242.6579302133
 20
313.0317091516
 30
0.0
 11
203.8764921904
 21
313.0317091516
 31
0.0
  0
LINE
  5
71
330
1F
100
AcDbEntity
  8
0
  6
Continuous
 62
     7
370
    15
100
AcDbLine
 10
203.9186717898
 20
320.8317070773
 30
0.0
 11
242.6157506139
 21
320.8317070773
 31
0.0
  0
LINE
  5
72
330
1F
100
AcDbEntity
  8
0
  6
Continuous
 62
     7
370
    15
100
AcDbLine
 10
203.9667671502
 20
303.0317112377
 30
0.0
 11
242.5676552535
 21
303.0317112377
 31
0.0
  0
SPLINE
  5
73
330
1F
100
AcDbEntity
  8
0
  6
Continuous
 62
     7
370
    15
100
AcDbSpline
210
0.0
220
0.0
230
1.0
 70
     8
 71
     3
 72
     8
 73
     4
 74
     0
 42
0.00000001
 43
0.00000001
 12
1.0
 22
0.0
 32
0.0
 13
1.0
 23
0.0
 33
0.0
 40
0.0
 40
0.0
 40
0.0
 40
0.0
 40
1.0
 40
1.0
 40
1.0
 40
1.0
 10
241.0436000364981
 20
301.1390778621459
 30
0.0
 10
241.5724281122543
 20
301.7688022406463
 30
0.0
 10
242.078870621626
 20
302.3997660887805
 30
0.0
 10
242.5676548384085
 20
303.0317076614481
 30
0.0
  0
SPLINE
  5
74
330
1F
100
AcDbEntity
  8
0
  6
Continuous
 62
     7
370
    15
100
AcDbSpline
210
0.0
220
0.0
230
1.0
 70
     8
 71
     3
 72
    12
 73
     8
 74
     0
 42
0.00000001
 43
0.00000001
 12
1.0
 22
0.0
 32
0.0
 13
1.0
 23
0.0
 33
0.0
 40
0.0
 40
0.0
 40
0.0
 40
0.0
 40
0.4999999999999998
 40
0.4999999999999998
 40
0.7499999999999999
 40
0.7499999999999999
 40
1.0
 40
1.0
 40
1.0
 40
1.0
 10
270.3959863186348
 20
303.0317076614481
 30
0.0
 10
269.5427178136798
 20
302.7956255399209
 30
0.0
 10
268.7282830525984
 20
302.563841716041
 30
0.0
 10
267.5627285273454
 20
302.2231065366603
 30
0.0
 10
267.1836398447842
 20
302.1107075444417
 30
0.0
 10
266.4449510287473
 20
301.8886685412722
 30
0.0
 10
266.0878520203173
 20
301.7797648523696
 30
0.0
 10
265.7487139737358
 20
301.6749762470081
 30
0.0
  0
LINE
  5
75
330
1F
100
AcDbEntity
  8
0
  6
Continuous
 62
     7
370
    15
100
AcDbLine
 10
245.3126186461
 20
301.6749754122
 30
0.0
 11
265.7487155826
 21
301.6749754122
 31
0.0
  0
SPLINE
  5
76
330
1F
100
AcDbEntity
  8
0
  6
Continuous
 62
     7
370
    15
100
AcDbSpline
210
0.0
220
0.0
230
1.0
 70
     8
 71
     3
 72
     8
 73
     4
 74
     0
 42
0.00000001
 43
0.00000001
 12
1.0
 22
0.0
 32
0.0
 13
1.0
 23
0.0
 33
0.0
 40
0.0
 40
0.0
 40
0.0
 40
0.0
 40
1.0
 40
1.0
 40
1.0
 40
1.0
 10
241.0436000364981
 20
301.1390778621459
 30
0.0
 10
242.4687229721407
 20
301.3026465714152
 30
0.0
 10
243.8916260860576
 20
301.4820136178667
 30
0.0
 10
245.3126188869155
 20
301.6749762470082
 30
0.0
  0
SPLINE
  5
77
330
1F
100
AcDbEntity
  8
0
  6
Continuous
 62
     7
370
    15
100
AcDbSpline
210
0.0
220
0.0
230
1.0
 70
     8
 71
     3
 72
     8
 73
     4
 74
     0
 42
0.00000001
 43
0.00000001
 12
1.0
 22
0.0
 32
0.0
 13
1.0
 23
0.0
 33
0.0
 40
0.0
 40
0.0
 40
0.0
 40
0.0
 40
1.0
 40
1.0
 40
1.0
 40
1.0
 10
205.4908223672357
 20
301.1390778621459
 30
0.0
 10
204.9619942914795
 20
301.7688022406463
 30
0.0
 10
204.4555517821079
 20
302.3997660887805
 30
0.0
 10
203.9667675653253
 20
303.0317076614481
 30
0.0
  0
LINE
  5
78
330
1F
100
AcDbEntity
  8
0
  6
Continuous
 62
     7
370
    15
100
AcDbLine
 10
205.4908225269
 20
301.1390775016
 30
0.0
 11
241.0435998768
 21
301.1390775016
 31
0.0
  0
LINE
  5
79
330
1F
100
AcDbEntity
  8
0
  6
Continuous
 62
     7
370
    15
100
AcDbLine
 10
201.2218037576
 20
301.6749754122
 30
0.0
 11
180.7857068212
 21
301.6749754122
 31
0.0
  0
SPLINE
  5
7A
330
1F
100
AcDbEntity
  8
0
  6
Continuous
 62
     7
370
    15
100
AcDbSpline
210
0.0
220
0.0
230
1.0
 70
     8
 71
     3
 72
    12
 73
     8
 74
     0
 42
0.00000001
 43
0.00000001
 12
1.0
 22
0.0
 32
0.0
 13
1.0
 23
0.0
 33
0.0
 40
0.0
 40
0.0
 40
0.0
 40
0.0
 40
0.4999999999999998
 40
0.4999999999999998
 40
0.7499999999999999
 40
0.7499999999999999
 40
1.0
 40
1.0
 40
1.0
 40
1.0
 10
176.138436085099
 20
303.0317076614481
 30
0.0
 10
176.9917045900541
 20
302.7956255399209
 30
0.0
 10
177.8061393511354
 20
302.563841716041
 30
0.0
 10
178.9716938763885
 20
302.2231065366603
 30
0.0
 10
179.3507825589496
 20
302.1107075444417
 30
0.0
 10
180.0894713749865
 20
301.8886685412722
 30
0.0
 10
180.4465703834165
 20
301.7797648523696
 30
0.0
 10
180.785708429998
 20
301.6749762470081
 30
0.0
  0
SPLINE
  5
7B
330
1F
100
AcDbEntity
  8
0
  6
Continuous
 62
     7
370
    15
100
AcDbSpline
210
0.0
220
0.0
230
1.0
 70
     8
 71
     3
 72
     8
 73
     4
 74
     0
 42
0.00000001
 43
0.00000001
 12
1.0
 22
0.0
 32
0.0
 13
1.0
 23
0.0
 33
0.0
 40
0.0
 40
0.0
 40
0.0
 40
0.0
 40
1.0
 40
1.0
 40
1.0
 40
1.0
 10
205.4908223672357
 20
301.1390778621459
 30
0.0
 10
204.0656994315931
 20
301.3026465714152
 30
0.0
 10
202.6427963176763
 20
301.4820136178667
 30
0.0
 10
201.2218035168183
 20
301.6749762470082
 30
0.0
  0
LINE
  5
7C
330
1F
100
AcDbEntity
  8
0
  6
Continuous
 62
     7
370
    15
100
AcDbLine
 10
133.2672076256
 20
175.5317061713
 30
0.0
 11
133.2672076256
 21
213.0317076614
 31
0.0
  0
SPLINE
  5
7D
330
1F
100
AcDbEntity
  8
0
  6
Continuous
 62
     7
370
    15
100
AcDbSpline
210
0.0
220
0.0
230
1.0
 70
     8
 71
     3
 72
    16
 73
    12
 74
     0
 42
0.00000001
 43
0.00000001
 12
1.0
 22
0.0
 32
0.0
 13
1.0
 23
0.0
 33
0.0
 40
0.0
 40
0.0
 40
0.0
 40
0.0
 40
0.25
 40
0.25
 40
0.5
 40
0.5
 40
0.75
 40
0.75
 40
0.875
 40
0.875
 40
1.0
 40
1.0
 40
1.0
 40
1.0
 10
159.465941012645
 20
175.5317076614481
 30
0.0
 10
160.3147247765418
 20
177.0018442651569
 30
0.0
 10
161.098769403776
 20
178.4888696461017
 30
0.0
 10
162.5014680424695
 20
181.5060665698149
 30
0.0
 10
163.1200929348577
 20
183.0362457090005
 30
0.0
 10
164.14828368849
 20
186.1511421166734
 30
0.0
 10
164.557705237606
 20
187.7358970324866
 30
0.0
 10
164.9782059824163
 20
190.1635429096276
 30
0.0
 10
165.0860719498361
 20
190.9811846892187
 30
0.0
 10
165.2311010688951
 20
192.6349127962778
 30
0.0
 10
165.2672112018669
 20
193.4606126793191
 30
0.0
 10
165.2672112018669
 20
194.2817076614482
 30
0.0
  0
LINE
  5
7E
330
1F
100
AcDbEntity
  8
0
  6
Continuous
 62
     7
370
    15
100
AcDbLine
 10
159.4659374983
 20
175.5317061713
 30
0.0
 11
133.2672076256
 21
175.5317061713
 31
0.0
  0
SPLINE
  5
7F
330
1F
100
AcDbEntity
  8
0
  6
Continuous
 62
     7
370
    15
100
AcDbSpline
210
0.0
220
0.0
230
1.0
 70
     8
 71
     3
 72
    16
 73
    12
 74
     0
 42
0.00000001
 43
0.00000001
 12
1.0
 22
0.0
 32
0.0
 13
1.0
 23
0.0
 33
0.0
 40
0.0
 40
0.0
 40
0.0
 40
0.0
 40
0.25
 40
0.25
 40
0.5
 40
0.5
 40
0.75
 40
0.75
 40
0.875
 40
0.875
 40
1.0
 40
1.0
 40
1.0
 40
1.0
 10
287.0684813910888
 20
175.5317076614481
 30
0.0
 10
286.219697627192
 20
177.0018442651569
 30
0.0
 10
285.4356529999578
 20
178.4888696461017
 30
0.0
 10
284.0329543612643
 20
181.5060665698149
 30
0.0
 10
283.4143294688761
 20
183.0362457090005
 30
0.0
 10
282.3861387152438
 20
186.1511421166734
 30
0.0
 10
281.9767171661277
 20
187.7358970324866
 30
0.0
 10
281.5562164213175
 20
190.1635429096276
 30
0.0
 10
281.4483504538977
 20
190.9811846892187
 30
0.0
 10
281.3033213348387
 20
192.6349127962778
 30
0.0
 10
281.2672112018669
 20
193.4606126793191
 30
0.0
 10
281.2672112018669
 20
194.2817076614482
 30
0.0
  0
LINE
  5
80
330
1F
100
AcDbEntity
  8
0
  6
Continuous
 62
     7
370
    15
100
AcDbLine
 10
287.0684849054
 20
175.5317061713
 30
0.0
 11
313.2672147781
 21
175.5317061713
 31
0.0
  0
LINE
  5
81
330
1F
100
AcDbEntity
  8
0
  6
Continuous
 62
     7
370
    15
100
AcDbLine
 10
313.2672147781
 20
175.5317061713
 30
0.0
 11
313.2672147781
 21
213.0317076614
 31
0.0
  0
LINE
  5
82
330
1F
100
AcDbEntity
  8
0
  6
Continuous
 62
     7
370
    15
100
AcDbLine
 10
184.8502518565
 20
320.8317070773
 30
0.0
 11
185.1919801862
 21
324.9252944759
 31
0.0
  0
LINE
  5
83
330
1F
100
AcDbEntity
  8
0
  6
Continuous
 62
     7
370
    15
100
AcDbLine
 10
261.3424422175
 20
324.9252944759
 30
0.0
 11
185.1919801862
 21
324.9252944759
 31
0.0
  0
LINE
  5
84
330
1F
100
AcDbEntity
  8
0
  6
Continuous
 62
     7
370
    15
100
AcDbLine
 10
261.6841705472
 20
320.8317070773
 30
0.0
 11
261.3424422175
 21
324.9252944759
 31
0.0
  0
SPLINE
  5
85
330
1F
100
AcDbEntity
  8
0
  6
Continuous
 62
     7
370
    15
100
AcDbSpline
210
0.0
220
0.0
230
1.0
 70
     8
 71
     3
 72
    10
 73
     6
 74
     0
 42
0.00000001
 43
0.00000001
 12
1.0
 22
0.0
 32
0.0
 13
1.0
 23
0.0
 33
0.0
 40
0.0
 40
0.0
 40
0.0
 40
0.0
 40
0.5
 40
0.5
 40
1.0
 40
1.0
 40
1.0
 40
1.0
 10
261.3424420381083
 20
324.9252923508566
 30
0.0
 10
259.086021361854
 20
326.1717611441322
 30
0.0
 10
256.8258850585241
 20
327.4112573331855
 30
0.0
 10
252.2926733787529
 20
329.8659687396089
 30
0.0
 10
250.0198041698936
 20
331.0815708432091
 30
0.0
 10
247.734651056809
 20
332.274121440099
 30
0.0
  0
SPLINE
  5
86
330
1F
100
AcDbEntity
  8
0
  6
Continuous
 62
     7
370
    15
100
AcDbSpline
210
0.0
220
0.0
230
1.0
 70
     8
 71
     3
 72
    10
 73
     6
 74
     0
 42
0.00000001
 43
0.00000001
 12
1.0
 22
0.0
 32
0.0
 13
1.0
 23
0.0
 33
0.0
 40
0.0
 40
0.0
 40
0.0
 40
0.0
 40
0.5
 40
0.5
 40
1.0
 40
1.0
 40
1.0
 40
1.0
 10
185.1919803656255
 20
324.9252923508566
 30
0.0
 10
187.4484010418798
 20
326.1717611441322
 30
0.0
 10
189.7085373452097
 20
327.4112573331855
 30
0.0
 10
194.2417490249809
 20
329.8659687396089
 30
0.0
 10
196.5146182338402
 20
331.0815708432091
 30
0.0
 10
198.7997713469249
 20
332.274121440099
 30
0.0
  0
LINE
  5
87
330
1F
100
AcDbEntity
  8
0
  6
Continuous
 62
     7
370
    15
100
AcDbLine
 10
198.7997708798
 20
332.2741224936
 30
0.0
 11
247.7346515239
 21
332.2741224936
 31
0.0
  0
LINE
  5
88
330
1F
100
AcDbEntity
  8
0
  6
Continuous
 62
     7
370
    15
100
AcDbLine
 10
216.9757733078
 20
290.6031369737
 30
0.0
 11
217.7945767485
 21
292.7361934951
 31
0.0
  0
LINE
  5
89
330
1F
100
AcDbEntity
  8
0
  6
Continuous
 62
     7
370
    15
100
AcDbLine
 10
218.6630359807
 20
290.6031369737
 30
0.0
 11
216.9757733078
 21
290.6031369737
 31
0.0
  0
LINE
  5
8A
330
1F
100
AcDbEntity
  8
0
  6
Continuous
 62
     7
370
    15
100
AcDbLine
 10
214.2672115893
 20
288.0317106417
 30
0.0
 11
215.9534712278
 21
292.424565511
 31
0.0
  0
LINE
  5
8B
330
1F
100
AcDbEntity
  8
0
  6
Continuous
 62
     7
370
    15
100
AcDbLine
 10
215.9534712278
 20
292.424565511
 30
0.0
 11
214.2672115893
 21
292.424565511
 31
0.0
  0
LINE
  5
8C
330
1F
100
AcDbEntity
  8
0
  6
Continuous
 62
     7
370
    15
100
AcDbLine
 10
214.2672115893
 20
292.424565511
 30
0.0
 11
214.2672115893
 21
294.1388472489
 31
0.0
  0
LINE
  5
8D
330
1F
100
AcDbEntity
  8
0
  6
Continuous
 62
     7
370
    15
100
AcDbLine
 10
214.2672115893
 20
294.1388472489
 30
0.0
 11
219.1438293972
 21
294.1388472489
 31
0.0
  0
LINE
  5
8E
330
1F
100
AcDbEntity
  8
0
  6
Continuous
 62
     7
370
    15
100
AcDbLine
 10
219.1438293972
 20
294.1388472489
 30
0.0
 11
221.6303090987
 21
288.0317106417
 31
0.0
  0
LINE
  5
8F
330
1F
100
AcDbEntity
  8
0
  6
Continuous
 62
     7
370
    15
100
AcDbLine
 10
221.6303090987
 20
288.0317106417
 30
0.0
 11
219.7099745695
 21
288.0317106417
 31
0.0
  0
LINE
  5
90
330
1F
100
AcDbEntity
  8
0
  6
Continuous
 62
     7
370
    15
100
AcDbLine
 10
219.7099745695
 20
288.0317106417
 30
0.0
 11
219.3260971413
 21
288.9745667151
 31
0.0
  0
LINE
  5
91
330
1F
100
AcDbEntity
  8
0
  6
Continuous
 62
     7
370
    15
100
AcDbLine
 10
219.3260971413
 20
288.9745667151
 30
0.0
 11
216.5342481763
 21
288.9745667151
 31
0.0
  0
LINE
  5
92
330
1F
100
AcDbEntity
  8
0
  6
Continuous
 62
     7
370
    15
100
AcDbLine
 10
216.5342481763
 20
288.9745667151
 30
0.0
 11
216.1723189943
 21
288.0317106417
 31
0.0
  0
LINE
  5
93
330
1F
100
AcDbEntity
  8
0
  6
Continuous
 62
     7
370
    15
100
AcDbLine
 10
216.1723189943
 20
288.0317106417
 30
0.0
 11
214.2672115893
 21
288.0317106417
 31
0.0
  0
LINE
  5
94
330
1F
100
AcDbEntity
  8
0
  6
Continuous
 62
     7
370
    15
100
AcDbLine
 10
217.7945767485
 20
292.7361934951
 30
0.0
 11
218.6630359807
 21
290.6031369737
 31
0.0
  0
LINE
  5
95
330
1F
100
AcDbEntity
  8
0
  6
Continuous
 62
     7
370
    15
100
AcDbLine
 10
223.2672112019
 20
290.6031369737
 30
0.0
 11
225.7100684524
 21
296.6031342319
 31
0.0
  0
LINE
  5
96
330
1F
100
AcDbEntity
  8
0
  6
Continuous
 62
     7
370
    15
100
AcDbLine
 10
225.7100684524
 20
296.6031342319
 30
0.0
 11
232.2672108144
 21
296.6031342319
 31
0.0
  0
LINE
  5
97
330
1F
100
AcDbEntity
  8
0
  6
Continuous
 62
     7
370
    15
100
AcDbLine
 10
232.2672108144
 20
296.6031342319
 30
0.0
 11
232.2672108144
 21
294.8245614341
 31
0.0
  0
LINE
  5
98
330
1F
100
AcDbEntity
  8
0
  6
Continuous
 62
     7
370
    15
100
AcDbLine
 10
232.2672108144
 20
294.8245614341
 30
0.0
 11
226.9294067242
 21
294.8245614341
 31
0.0
  0
LINE
  5
99
330
1F
100
AcDbEntity
  8
0
  6
Continuous
 62
     7
370
    15
100
AcDbLine
 10
219.6050156795
 20
294.8245614341
 30
0.0
 11
214.2672115893
 21
294.8245614341
 31
0.0
  0
LINE
  5
9A
330
1F
100
AcDbEntity
  8
0
  6
Continuous
 62
     7
370
    15
100
AcDbLine
 10
224.163743465
 20
288.0317106417
 30
0.0
 11
222.3706789387
 21
288.0317106417
 31
0.0
  0
LINE
  5
9B
330
1F
100
AcDbEntity
  8
0
  6
Continuous
 62
     7
370
    15
100
AcDbLine
 10
226.9294067242
 20
294.8245614341
 30
0.0
 11
224.163743465
 21
288.0317106417
 31
0.0
  0
LINE
  5
9C
330
1F
100
AcDbEntity
  8
0
  6
Continuous
 62
     7
370
    15
100
AcDbLine
 10
214.2672115893
 20
296.6031342319
 30
0.0
 11
220.8243539513
 21
296.6031342319
 31
0.0
  0
LINE
  5
9D
330
1F
100
AcDbEntity
  8
0
  6
Continuous
 62
     7
370
    15
100
AcDbLine
 10
222.3706789387
 20
288.0317106417
 30
0.0
 11
219.6050156795
 21
294.8245614341
 31
0.0
  0
LINE
  5
9E
330
1F
100
AcDbEntity
  8
0
  6
Continuous
 62
     7
370
    15
100
AcDbLine
 10
214.2672115893
 20
294.8245614341
 30
0.0
 11
214.2672115893
 21
296.6031342319
 31
0.0
  0
LINE
  5
9F
330
1F
100
AcDbEntity
  8
0
  6
Continuous
 62
     7
370
    15
100
AcDbLine
 10
220.8243539513
 20
296.6031342319
 30
0.0
 11
223.2672112019
 21
290.6031369737
 31
0.0
  0
LINE
  5
A0
330
1F
100
AcDbEntity
  8
0
  6
Continuous
 62
     7
370
    15
100
AcDbLine
 10
224.9041133051
 20
288.0317106417
 30
0.0
 11
227.3905930065
 21
294.1388472489
 31
0.0
  0
LINE
  5
A1
330
1F
100
AcDbEntity
  8
0
  6
Continuous
 62
     7
370
    15
100
AcDbLine
 10
229.3109275357
 20
294.1388472489
 30
0.0
 11
228.4041625404
 21
291.9117122462
 31
0.0
  0
ARC
  5
A2
330
1F
100
AcDbEntity
  8
0
  6
Continuous
 62
     7
370
    15
100
AcDbCircle
 10
229.2309910988
 20
293.3888505186
 30
0.0
 40
2.69999999999998
100
AcDbArc
 50
281.9911275691
 51
339.0751675724
  0
LINE
  5
A3
330
1F
100
AcDbEntity
  8
0
  6
Continuous
 62
     7
370
    15
100
AcDbLine
 10
229.7919435383
 20
290.7477676442
 30
0.0
 11
231.8386394487
 21
288.0317106417
 31
0.0
  0
LINE
  5
A4
330
1F
100
AcDbEntity
  8
0
  6
Continuous
 62
     7
370
    15
100
AcDbLine
 10
231.8386394487
 20
288.0317106417
 30
0.0
 11
229.611626915
 21
288.0317106417
 31
0.0
  0
LINE
  5
A5
330
1F
100
AcDbEntity
  8
0
  6
Continuous
 62
     7
370
    15
100
AcDbLine
 10
232.2672108144
 20
294.1388472489
 30
0.0
 11
232.2672108144
 21
292.424565511
 31
0.0
  0
LINE
  5
A6
330
1F
100
AcDbEntity
  8
0
  6
Continuous
 62
     7
370
    15
100
AcDbLine
 10
230.5529253513
 20
294.1388472489
 30
0.0
 11
232.2672108144
 21
294.1388472489
 31
0.0
  0
ARC
  5
A7
330
1F
100
AcDbEntity
  8
0
  6
Continuous
 62
     7
370
    15
100
AcDbCircle
 10
228.324354059
 20
294.1388505186
 30
0.0
 40
2.228571428571439
100
AcDbArc
 50
272.0522846805
 51
0.0
  0
LINE
  5
A8
330
1F
100
AcDbEntity
  8
0
  6
Continuous
 62
     7
370
    15
100
AcDbLine
 10
229.611626915
 20
288.0317106417
 30
0.0
 11
227.8021193066
 21
290.4330029657
 31
0.0
  0
LINE
  5
A9
330
1F
100
AcDbEntity
  8
0
  6
Continuous
 62
     7
370
    15
100
AcDbLine
 10
232.2672108144
 20
292.424565511
 30
0.0
 11
231.7529251755
 21
292.424565511
 31
0.0
  0
LINE
  5
AA
330
1F
100
AcDbEntity
  8
0
  6
Continuous
 62
     7
370
    15
100
AcDbLine
 10
226.8244478342
 20
288.0317106417
 30
0.0
 11
224.9041133051
 21
288.0317106417
 31
0.0
  0
LINE
  5
AB
330
1F
100
AcDbEntity
  8
0
  6
Continuous
 62
     7
370
    15
100
AcDbLine
 10
227.3905930065
 20
294.1388472489
 30
0.0
 11
229.3109275357
 21
294.1388472489
 31
0.0
  0
LINE
  5
AC
330
1F
100
AcDbEntity
  8
0
  6
Continuous
 62
     7
370
    15
100
AcDbLine
 10
227.8021193066
 20
290.4330029657
 30
0.0
 11
226.8244478342
 21
288.0317106417
 31
0.0
  0
CIRCLE
  5
AD
330
1F
100
AcDbEntity
  8
0
  6
Continuous
 62
     7
370
    15
100
AcDbCircle
 10
195.2672112019
 20
213.0317076614
 30
0.0
 40
9.0
  0
CIRCLE
  5
AE
330
1F
100
AcDbEntity
  8
0
  6
Continuous
 62
     7
370
    15
100
AcDbCircle
 10
195.2672112019
 20
213.0317076614
 30
0.0
 40
4.0
  0
LINE
  5
AF
330
1F
100
AcDbEntity
  8
0
  6
Continuous
 62
     7
370
    15
100
AcDbLine
 10
177.510357085
 20
250.1261815003
 30
0.0
 11
177.510357085
 21
175.6518989375
 31
0.0
  0
LINE
  5
B0
330
1F
100
AcDbEntity
  8
0
  6
Continuous
 62
     7
370
    15
100
AcDbLine
 10
165.2672128708
 20
175.6518989375
 30
0.0
 11
177.510357085
 21
175.6518989375
 31
0.0
  0
LINE
  5
B1
330
1F
100
AcDbEntity
  8
0
  6
Continuous
 62
     7
370
    15
100
AcDbLine
 10
165.2672128708
 20
194.2817069164
 30
0.0
 11
165.2672128708
 21
175.6518989375
 31
0.0
  0
LINE
  5
B2
330
1F
100
AcDbEntity
  8
0
  6
Continuous
 62
     7
370
    15
100
AcDbLine
 10
165.2672128708
 20
250.1261815003
 30
0.0
 11
165.2672128708
 21
231.7817084065
 31
0.0
  0
LINE
  5
B3
330
1F
100
AcDbEntity
  8
0
  6
Continuous
 62
     7
370
    15
100
AcDbLine
 10
165.2672128708
 20
250.1261815003
 30
0.0
 11
177.510357085
 21
250.1261815003
 31
0.0
  0
LINE
  5
B4
330
1F
100
AcDbEntity
  8
0
  6
Continuous
 62
     7
370
    15
100
AcDbLine
 10
269.0240653188
 20
250.1261815003
 30
0.0
 11
269.0240653188
 21
175.6518989375
 31
0.0
  0
SPLINE
  5
B5
330
1F
100
AcDbEntity
  8
0
  6
Continuous
 62
     7
370
    15
100
AcDbSpline
210
0.0
220
0.0
230
1.0
 70
     8
 71
     3
 72
    14
 73
    10
 74
     0
 42
0.00000001
 43
0.00000001
 12
1.0
 22
0.0
 32
0.0
 13
1.0
 23
0.0
 33
0.0
 40
0.0
 40
0.0
 40
0.0
 40
0.0
 40
0.25
 40
0.25
 40
0.5
 40
0.5
 40
0.75
 40
0.75
 40
1.0
 40
1.0
 40
1.0
 40
1.0
 10
269.0240654513593
 20
175.6519002783168
 30
0.0
 10
268.7630075806383
 20
175.6519002783168
 30
0.0
 10
268.5037528437144
 20
175.6772934647773
 30
0.0
 10
267.9889069979891
 20
175.7796740079089
 30
0.0
 10
267.7352397465073
 20
175.8567653428784
 30
0.0
 10
267.2494836733903
 20
176.0587796587068
 30
0.0
 10
267.0163861024273
 20
176.1842003923756
 30
0.0
 10
266.5838127525775
 20
176.4745188491107
 30
0.0
 10
266.3820682853137
 20
176.6402934752744
 30
0.0
 10
266.1956383266131
 20
176.8273623786234
 30
0.0
  0
LINE
  5
B6
330
1F
100
AcDbEntity
  8
0
  6
Continuous
 62
     7
370
    15
100
AcDbLine
 10
266.1956386597
 20
248.6737392417
 30
0.0
 11
266.1956386597
 21
176.8273621371
 31
0.0
  0
SPLINE
  5
B7
330
1F
100
AcDbEntity
  8
0
  6
Continuous
 62
     7
370
    15
100
AcDbSpline
210
0.0
220
0.0
230
1.0
 70
     8
 71
     3
 72
     8
 73
     4
 74
     0
 42
0.00000001
 43
0.00000001
 12
1.0
 22
0.0
 32
0.0
 13
1.0
 23
0.0
 33
0.0
 40
0.0
 40
0.0
 40
0.0
 40
0.0
 40
1.0
 40
1.0
 40
1.0
 40
1.0
 10
266.1956383266131
 20
248.6737400496642
 30
0.0
 10
266.27815071151
 20
248.8572220686556
 30
0.0
 10
266.3524925651241
 20
249.0145864278182
 30
0.0
 10
266.4181092226497
 20
249.1499765085108
 30
0.0
  0
SPLINE
  5
B8
330
1F
100
AcDbEntity
  8
0
  6
Continuous
 62
     7
370
    15
100
AcDbSpline
210
0.0
220
0.0
230
1.0
 70
     8
 71
     3
 72
    10
 73
     6
 74
     0
 42
0.00000001
 43
0.00000001
 12
1.0
 22
0.0
 32
0.0
 13
1.0
 23
0.0
 33
0.0
 40
0.0
 40
0.0
 40
0.0
 40
0.0
 40
0.5
 40
0.5
 40
1.0
 40
1.0
 40
1.0
 40
1.0
 10
269.0240654513593
 20
250.1261816434309
 30
0.0
 10
268.5532141028465
 20
250.126181643431
 30
0.0
 10
268.0763668058386
 20
250.0397161880814
 30
0.0
 10
267.1943187602137
 20
249.7095562354998
 30
0.0
 10
266.778489494364
 20
249.4630165456953
 30
0.0
 10
266.4181092226497
 20
249.1499765085108
 30
0.0
  0
SPLINE
  5
B9
330
1F
100
AcDbEntity
  8
0
  6
Continuous
 62
     7
370
    15
100
AcDbSpline
210
0.0
220
0.0
230
1.0
 70
     8
 71
     3
 72
     8
 73
     4
 74
     0
 42
0.00000001
 43
0.00000001
 12
1.0
 22
0.0
 32
0.0
 13
1.0
 23
0.0
 33
0.0
 40
0.0
 40
0.0
 40
0.0
 40
0.0
 40
1.0
 40
1.0
 40
1.0
 40
1.0
 10
180.3387840771207
 20
248.6737400496642
 30
0.0
 10
180.2562716922239
 20
248.8572220686556
 30
0.0
 10
180.1819298386097
 20
249.0145864278182
 30
0.0
 10
180.1163131810841
 20
249.1499765085108
 30
0.0
  0
LINE
  5
BA
330
1F
100
AcDbEntity
  8
0
  6
Continuous
 62
     7
370
    15
100
AcDbLine
 10
180.3387837441
 20
248.6737392417
 30
0.0
 11
180.3387837441
 21
176.8273621371
 31
0.0
  0
SPLINE
  5
BB
330
1F
100
AcDbEntity
  8
0
  6
Continuous
 62
     7
370
    15
100
AcDbSpline
210
0.0
220
0.0
230
1.0
 70
     8
 71
     3
 72
    14
 73
    10
 74
     0
 42
0.00000001
 43
0.00000001
 12
1.0
 22
0.0
 32
0.0
 13
1.0
 23
0.0
 33
0.0
 40
0.0
 40
0.0
 40
0.0
 40
0.0
 40
0.25
 40
0.25
 40
0.5
 40
0.5
 40
0.75
 40
0.75
 40
1.0
 40
1.0
 40
1.0
 40
1.0
 10
177.5103569523745
 20
175.6519002783168
 30
0.0
 10
177.7714148230955
 20
175.6519002783168
 30
0.0
 10
178.0306695600194
 20
175.6772934647773
 30
0.0
 10
178.5455154057447
 20
175.7796740079089
 30
0.0
 10
178.7991826572265
 20
175.8567653428784
 30
0.0
 10
179.2849387303435
 20
176.0587796587068
 30
0.0
 10
179.5180363013065
 20
176.1842003923756
 30
0.0
 10
179.9506096511563
 20
176.4745188491107
 30
0.0
 10
180.1523541184201
 20
176.6402934752744
 30
0.0
 10
180.3387840771207
 20
176.8273623786234
 30
0.0
  0
SPLINE
  5
BC
330
1F
100
AcDbEntity
  8
0
  6
Continuous
 62
     7
370
    15
100
AcDbSpline
210
0.0
220
0.0
230
1.0
 70
     8
 71
     3
 72
    10
 73
     6
 74
     0
 42
0.00000001
 43
0.00000001
 12
1.0
 22
0.0
 32
0.0
 13
1.0
 23
0.0
 33
0.0
 40
0.0
 40
0.0
 40
0.0
 40
0.0
 40
0.5
 40
0.5
 40
1.0
 40
1.0
 40
1.0
 40
1.0
 10
177.5103569523745
 20
250.1261816434309
 30
0.0
 10
177.9812083008873
 20
250.126181643431
 30
0.0
 10
178.4580555978952
 20
250.0397161880814
 30
0.0
 10
179.3401036435202
 20
249.7095562354998
 30
0.0
 10
179.7559329093699
 20
249.4630165456953
 30
0.0
 10
180.1163131810841
 20
249.1499765085108
 30
0.0
  0
LINE
  5
BD
330
1F
100
AcDbEntity
  8
0
  6
Continuous
 62
     7
370
    15
100
AcDbLine
 10
281.2672095329
 20
250.1261815003
 30
0.0
 11
281.2672095329
 21
231.7817084065
 31
0.0
  0
LINE
  5
BE
330
1F
100
AcDbEntity
  8
0
  6
Continuous
 62
     7
370
    15
100
AcDbLine
 10
281.2672095329
 20
194.2817069164
 30
0.0
 11
281.2672095329
 21
175.6518989375
 31
0.0
  0
LINE
  5
BF
330
1F
100
AcDbEntity
  8
0
  6
Continuous
 62
     7
370
    15
100
AcDbLine
 10
281.2672095329
 20
175.6518989375
 30
0.0
 11
269.0240653188
 21
175.6518989375
 31
0.0
  0
LINE
  5
C0
330
1F
100
AcDbEntity
  8
0
  6
Continuous
 62
     7
370
    15
100
AcDbLine
 10
281.2672095329
 20
250.1261815003
 30
0.0
 11
269.0240653188
 21
250.1261815003
 31
0.0
  0
SPLINE
  5
C1
330
1F
100
AcDbEntity
  8
0
  6
Continuous
 62
     7
370
    15
100
AcDbSpline
210
0.0
220
0.0
230
1.0
 70
     8
 71
     3
 72
    14
 73
    10
 74
     0
 42
0.00000001
 43
0.00000001
 12
1.0
 22
0.0
 32
0.0
 13
1.0
 23
0.0
 33
0.0
 40
0.0
 40
0.0
 40
0.0
 40
0.0
 40
0.25
 40
0.25
 40
0.5
 40
0.5
 40
0.75
 40
0.75
 40
1.0
 40
1.0
 40
1.0
 40
1.0
 10
187.3240654513592
 20
232.022750983031
 30
0.0
 10
187.0508772312587
 20
232.5397970371166
 30
0.0
 10
186.7894179558775
 20
233.0641594878841
 30
0.0
 10
186.284130530131
 20
234.120161956259
 30
0.0
 10
186.0404152694884
 20
234.6519291459877
 30
0.0
 10
185.5693584860639
 20
235.7216660271829
 30
0.0
 10
185.342037092841
 20
236.2596302993692
 30
0.0
 10
184.9048455024534
 20
237.3448035706602
 30
0.0
 10
184.6949290830964
 20
237.8918719955448
 30
0.0
 10
184.495638326613
 20
238.4481386557653
 30
0.0
  0
SPLINE
  5
C2
330
1F
100
AcDbEntity
  8
0
  6
Continuous
 62
     7
370
    15
100
AcDbSpline
210
0.0
220
0.0
230
1.0
 70
     8
 71
     3
 72
    16
 73
    12
 74
     0
 42
0.00000001
 43
0.00000001
 12
1.0
 22
0.0
 32
0.0
 13
1.0
 23
0.0
 33
0.0
 40
0.0
 40
0.0
 40
0.0
 40
0.0
 40
0.2500000000000003
 40
0.2500000000000003
 40
0.5000000000000007
 40
0.5000000000000007
 40
0.6250000000000007
 40
0.6250000000000007
 40
0.7500000000000008
 40
0.7500000000000008
 40
1.0
 40
1.0
 40
1.0
 40
1.0
 10
184.4956383266131
 20
238.4481386557653
 30
0.0
 10
184.0948868090112
 20
239.5667289617497
 30
0.0
 10
183.6940904269776
 20
240.6308527201675
 30
0.0
 10
182.909140521538
 20
242.6431147804847
 30
0.0
 10
182.5248719973308
 20
243.591418127305
 30
0.0
 10
181.9750885223067
 20
244.9136753670806
 30
0.0
 10
181.7955724283165
 20
245.3393093065075
 30
0.0
 10
181.4521134333836
 20
246.144524258208
 30
0.0
 10
181.2886594980856
 20
246.5230206572127
 30
0.0
 10
180.8270546623095
 20
247.5822937257468
 30
0.0
 10
180.5573513703423
 20
248.1877140028359
 30
0.0
 10
180.3387840771207
 20
248.6737400496641
 30
0.0
  0
LINE
  5
C3
330
1F
100
AcDbEntity
  8
0
  6
Continuous
 62
     7
370
    15
100
AcDbLine
 10
180.1163131327
 20
249.1499766281
 30
0.0
 11
180.1163131327
 21
282.4496537021
 31
0.0
  0
SPLINE
  5
C4
330
1F
100
AcDbEntity
  8
0
  6
Continuous
 62
     7
370
    15
100
AcDbSpline
210
0.0
220
0.0
230
1.0
 70
     8
 71
     3
 72
     8
 73
     4
 74
     0
 42
0.00000001
 43
0.00000001
 12
1.0
 22
0.0
 32
0.0
 13
1.0
 23
0.0
 33
0.0
 40
0.0
 40
0.0
 40
0.0
 40
0.0
 40
1.0
 40
1.0
 40
1.0
 40
1.0
 10
180.590824886182
 20
282.4081414827104
 30
0.0
 10
180.6534246913589
 20
288.830152447367
 30
0.0
 10
180.7183859556075
 20
295.2524573487752
 30
0.0
 10
180.785708429998
 20
301.6749762470081
 30
0.0
  0
LINE
  5
C5
330
1F
100
AcDbEntity
  8
0
  6
Continuous
 62
     7
370
    15
100
AcDbLine
 10
201.2218037576
 20
233.2088112405
 30
0.0
 11
201.2218037576
 21
301.6749754122
 31
0.0
  0
ELLIPSE
  5
C6
330
1F
100
AcDbEntity
  8
0
  6
Continuous
 62
     7
370
    15
100
AcDbEllipse
 10
223.2672112019
 20
93.2569052016
 30
0.0
 11
0.0
 21
162.3442101292457
 31
0.0
210
0.0
220
0.0
230
1.0
 40
0.2679491924
 41
0.5314582379388508
 42
0.6559365839432181
  0
SPLINE
  5
C7
330
1F
100
AcDbEntity
  8
0
  6
Continuous
 62
     7
370
    15
100
AcDbSpline
210
0.0
220
0.0
230
1.0
 70
     8
 71
     3
 72
    14
 73
    10
 74
     0
 42
0.00000001
 43
0.00000001
 12
1.0
 22
0.0
 32
0.0
 13
1.0
 23
0.0
 33
0.0
 40
0.0
 40
0.0
 40
0.0
 40
0.0
 40
0.1249999999999999
 40
0.1249999999999999
 40
0.2499999999999999
 40
0.2499999999999999
 40
0.4999999999999999
 40
0.4999999999999999
 40
1.0
 40
1.0
 40
1.0
 40
1.0
 10
191.6568449365106
 20
221.2758119445087
 30
0.0
 10
191.5261000452515
 20
221.7771270368607
 30
0.0
 10
191.3855706212633
 20
222.2733628597658
 30
0.0
 10
191.0869282029064
 20
223.2561782387927
 30
0.0
 10
190.9283324059294
 20
223.7440888825031
 30
0.0
 10
190.4338286523712
 20
225.1803342599169
 30
0.0
 10
190.078983282931
 20
226.1033719804244
 30
0.0
 10
188.9637096470689
 20
228.7835317334429
 30
0.0
 10
188.1534662873727
 20
230.4529965135361
 30
0.0
 10
187.3240654513593
 20
232.022750983031
 30
0.0
  0
LINE
  5
C8
330
1F
100
AcDbEntity
  8
0
  6
Continuous
 62
     7
370
    15
100
AcDbLine
 10
245.3126186461
 20
233.2088112405
 30
0.0
 11
245.3126186461
 21
301.6749754122
 31
0.0
  0
LINE
  5
C9
330
1F
100
AcDbEntity
  8
0
  6
Continuous
 62
     7
370
    15
100
AcDbLine
 10
245.3126186461
 20
233.2088112405
 30
0.0
 11
201.2218037576
 21
233.2088112405
 31
0.0
  0
ELLIPSE
  5
CA
330
1F
100
AcDbEntity
  8
0
  6
Continuous
 62
     7
370
    15
100
AcDbEllipse
 10
223.2672112019
 20
93.2569052016
 30
0.0
 11
0.0
 21
162.3442101292457
 31
0.0
210
0.0
220
0.0
230
1.0
 40
0.2679491924
 41
5.471615970145065
 42
5.751727069240774
  0
LINE
  5
CB
330
1F
100
AcDbEntity
  8
0
  6
Continuous
 62
     7
370
    15
100
AcDbLine
 10
254.8207329542
 20
205.008317115
 30
0.0
 11
199.3446132124
 21
205.008317115
 31
0.0
  0
SPLINE
  5
CC
330
1F
100
AcDbEntity
  8
0
  6
Continuous
 62
     7
370
    15
100
AcDbSpline
210
0.0
220
0.0
230
1.0
 70
     8
 71
     3
 72
    16
 73
    12
 74
     0
 42
0.00000001
 43
0.00000001
 12
1.0
 22
0.0
 32
0.0
 13
1.0
 23
0.0
 33
0.0
 40
0.0
 40
0.0
 40
0.0
 40
0.0
 40
0.2500000000000003
 40
0.2500000000000003
 40
0.5000000000000007
 40
0.5000000000000007
 40
0.6250000000000007
 40
0.6250000000000007
 40
0.7500000000000008
 40
0.7500000000000008
 40
1.0
 40
1.0
 40
1.0
 40
1.0
 10
262.0387840771207
 20
238.4481386557653
 30
0.0
 10
262.4395355947225
 20
239.5667289617497
 30
0.0
 10
262.8403319767561
 20
240.6308527201675
 30
0.0
 10
263.6252818821958
 20
242.6431147804847
 30
0.0
 10
264.009550406403
 20
243.591418127305
 30
0.0
 10
264.5593338814271
 20
244.9136753670806
 30
0.0
 10
264.7388499754173
 20
245.3393093065075
 30
0.0
 10
265.0823089703502
 20
246.144524258208
 30
0.0
 10
265.2457629056482
 20
246.5230206572127
 30
0.0
 10
265.7073677414243
 20
247.5822937257468
 30
0.0
 10
265.9770710333915
 20
248.1877140028359
 30
0.0
 10
266.1956383266131
 20
248.6737400496641
 30
0.0
  0
SPLINE
  5
CD
330
1F
100
AcDbEntity
  8
0
  6
Continuous
 62
     7
370
    15
100
AcDbSpline
210
0.0
220
0.0
230
1.0
 70
     8
 71
     3
 72
    14
 73
    10
 74
     0
 42
0.00000001
 43
0.00000001
 12
1.0
 22
0.0
 32
0.0
 13
1.0
 23
0.0
 33
0.0
 40
0.0
 40
0.0
 40
0.0
 40
0.0
 40
0.25
 40
0.25
 40
0.5
 40
0.5
 40
0.75
 40
0.75
 40
1.0
 40
1.0
 40
1.0
 40
1.0
 10
259.2103569523746
 20
232.022750983031
 30
0.0
 10
259.4835451724751
 20
232.5397970371166
 30
0.0
 10
259.7450044478564
 20
233.0641594878841
 30
0.0
 10
260.2502918736028
 20
234.120161956259
 30
0.0
 10
260.4940071342454
 20
234.6519291459877
 30
0.0
 10
260.9650639176699
 20
235.7216660271829
 30
0.0
 10
261.1923853108928
 20
236.2596302993692
 30
0.0
 10
261.6295769012804
 20
237.3448035706602
 30
0.0
 10
261.8394933206374
 20
237.8918719955448
 30
0.0
 10
262.0387840771208
 20
238.4481386557653
 30
0.0
  0
SPLINE
  5
CE
330
1F
100
AcDbEntity
  8
0
  6
Continuous
 62
     7
370
    15
100
AcDbSpline
210
0.0
220
0.0
230
1.0
 70
     8
 71
     3
 72
    28
 73
    24
 74
     0
 42
0.00000001
 43
0.00000001
 12
1.0
 22
0.0
 32
0.0
 13
1.0
 23
0.0
 33
0.0
 40
0.0
 40
0.0
 40
0.0
 40
0.0
 40
0.0624999999999999
 40
0.0624999999999999
 40
0.1249999999999998
 40
0.1249999999999998
 40
0.2499999999999995
 40
0.2499999999999995
 40
0.3749999999999993
 40
0.3749999999999993
 40
0.4374999999999992
 40
0.4374999999999992
 40
0.4999999999999991
 40
0.4999999999999991
 40
0.6249999999999989
 40
0.6249999999999989
 40
0.6874999999999989
 40
0.6874999999999989
 40
0.7499999999999989
 40
0.7499999999999989
 40
0.8749999999999996
 40
0.8749999999999996
 40
1.0
 40
1.0
 40
1.0
 40
1.0
 10
254.8207338813012
 20
205.00831726327
 30
0.0
 10
254.6744502211584
 20
205.5836058331739
 30
0.0
 10
254.5407024843281
 20
206.16740006314
 30
0.0
 10
254.301941421147
 20
207.3535088631043
 30
0.0
 10
254.1966202238734
 20
207.9586047309922
 30
0.0
 10
253.9337768299911
 20
209.7728165933485
 30
0.0
 10
253.8278588410162
 20
210.986202314647
 30
0.0
 10
253.7618107448693
 20
213.4209496011678
 30
0.0
 10
253.8017036044628
 20
214.64231169425
 30
0.0
 10
253.9717981786378
 20
216.480456156288
 30
0.0
 10
254.0471403758489
 20
217.0950030478862
 30
0.0
 10
254.2297300861112
 20
218.3027516851009
 30
0.0
 10
254.3371717919396
 20
218.8989539322132
 30
0.0
 10
254.7029559980162
 20
220.6661403071111
 30
0.0
 10
255.0046667765488
 20
221.8157793565835
 30
0.0
 10
255.5255593843384
 20
223.502475768858
 30
0.0
 10
255.7109657737282
 20
224.0592079125761
 30
0.0
 10
256.0965794515531
 20
225.1468209808919
 30
0.0
 10
256.2973000030228
 20
225.6795104309617
 30
0.0
 10
256.9184385073381
 20
227.2470407177497
 30
0.0
 10
257.3576791460721
 20
228.2515178443118
 30
0.0
 10
258.2658092002237
 20
230.1893438389087
 30
0.0
 10
258.7347762227128
 20
231.1226494355325
 30
0.0
 10
259.2103569523745
 20
232.022750983031
 30
0.0
  0
SPLINE
  5
CF
330
1F
100
AcDbEntity
  8
0
  6
Continuous
 62
     7
370
    15
100
AcDbSpline
210
0.0
220
0.0
230
1.0
 70
     8
 71
     3
 72
     8
 73
     4
 74
     0
 42
0.00000001
 43
0.00000001
 12
1.0
 22
0.0
 32
0.0
 13
1.0
 23
0.0
 33
0.0
 40
0.0
 40
0.0
 40
0.0
 40
0.0
 40
1.0
 40
1.0
 40
1.0
 40
1.0
 10
265.9435975175518
 20
282.4081414827104
 30
0.0
 10
265.8809977123749
 20
288.830152447367
 30
0.0
 10
265.8160364481263
 20
295.2524573487752
 30
0.0
 10
265.7487139737358
 20
301.6749762470081
 30
0.0
  0
LINE
  5
D0
330
1F
100
AcDbEntity
  8
0
  6
Continuous
 62
     7
370
    15
100
AcDbLine
 10
266.418109271
 20
249.1499766281
 30
0.0
 11
266.418109271
 21
282.4496537021
 31
0.0
  0
LINE
  5
D1
330
1F
100
AcDbEntity
  8
0
  6
Continuous
 62
     7
370
    15
100
AcDbLine
 10
281.3870185942
 20
175.5317061713
 30
0.0
 11
281.2672095329
 21
175.6518989375
 31
0.0
  0
SPLINE
  5
D2
330
1F
100
AcDbEntity
  8
0
  6
Continuous
 62
     7
370
    15
100
AcDbSpline
210
0.0
220
0.0
230
1.0
 70
    24
 71
     3
 72
    14
 73
    10
 74
     0
 42
0.00000001
 43
0.00000001
 12
1.0
 22
0.0
 32
0.0
 13
1.0
 23
0.0
 33
0.0
 40
0.0
 40
0.0
 40
0.0
 40
0.0
 40
0.1249999999999999
 40
0.1249999999999999
 40
0.2499999999999999
 40
0.2499999999999999
 40
0.4999999999999998
 40
0.4999999999999998
 40
1.0
 40
1.0
 40
1.0
 40
1.0
 10
287.0684813910887
 20
175.5317076614481
 30
0.0
 10
286.7026104784589
 20
175.5317076614481
 30
0.0
 10
286.347183552795
 20
175.5317076614481
 30
0.0
 10
285.6602310221173
 20
175.5317076614482
 30
0.0
 10
285.3282577286294
 20
175.5317076614481
 30
0.0
 10
284.3809295969995
 20
175.5317076614481
 30
0.0
 10
283.8117938193239
 20
175.5317076614481
 30
0.0
 10
282.3319354794004
 20
175.5317076614481
 30
0.0
 10
281.6491791831771
 20
175.5317076614481
 30
0.0
 10
281.3870198138202
 20
175.5317076614481
 30
0.0
  0
LINE
  5
D3
330
1F
100
AcDbEntity
  8
0
  6
Continuous
 62
     7
370
    15
100
AcDbLine
 10
165.1474038095
 20
175.5317061713
 30
0.0
 11
165.2672128708
 21
175.6518989375
 31
0.0
  0
SPLINE
  5
D4
330
1F
100
AcDbEntity
  8
0
  6
Continuous
 62
     7
370
    15
100
AcDbSpline
210
0.0
220
0.0
230
1.0
 70
    24
 71
     3
 72
    14
 73
    10
 74
     0
 42
0.00000001
 43
0.00000001
 12
1.0
 22
0.0
 32
0.0
 13
1.0
 23
0.0
 33
0.0
 40
0.0
 40
0.0
 40
0.0
 40
0.0
 40
0.1249999999999999
 40
0.1249999999999999
 40
0.2499999999999999
 40
0.2499999999999999
 40
0.4999999999999998
 40
0.4999999999999998
 40
1.0
 40
1.0
 40
1.0
 40
1.0
 10
159.4659410126451
 20
175.5317076614481
 30
0.0
 10
159.8318119252749
 20
175.5317076614481
 30
0.0
 10
160.1872388509388
 20
175.5317076614481
 30
0.0
 10
160.8741913816165
 20
175.5317076614482
 30
0.0
 10
161.2061646751044
 20
175.5317076614481
 30
0.0
 10
162.1534928067344
 20
175.5317076614481
 30
0.0
 10
162.7226285844099
 20
175.5317076614481
 30
0.0
 10
164.2024869243333
 20
175.5317076614481
 30
0.0
 10
164.8852432205568
 20
175.5317076614481
 30
0.0
 10
165.1474025899136
 20
175.5317076614481
 30
0.0
  0
SPLINE
  5
D5
330
1F
100
AcDbEntity
  8
0
  6
Continuous
 62
     7
370
    15
100
AcDbSpline
210
0.0
220
0.0
230
1.0
 70
     8
 71
     3
 72
     8
 73
     4
 74
     0
 42
0.00000001
 43
0.00000001
 12
1.0
 22
0.0
 32
0.0
 13
1.0
 23
0.0
 33
0.0
 40
0.0
 40
0.0
 40
0.0
 40
0.0
 40
1.0
 40
1.0
 40
1.0
 40
1.0
 10
180.3387840771207
 20
176.8273623786234
 30
0.0
 10
181.7247108369953
 20
178.2180390751089
 30
0.0
 10
183.1103703696279
 20
179.6089848591225
 30
0.0
 10
184.4956383266131
 20
181.0003152273411
 30
0.0
  0
LINE
  5
D6
330
1F
100
AcDbEntity
  8
0
  6
Continuous
 62
     7
370
    15
100
AcDbLine
 10
184.4956377477
 20
238.4481377473
 30
0.0
 11
184.4956377477
 21
181.0003168455
 31
0.0
  0
SPLINE
  5
D7
330
1F
100
AcDbEntity
  8
0
  6
Continuous
 62
     7
370
    15
100
AcDbSpline
210
0.0
220
0.0
230
1.0
 70
     8
 71
     3
 72
     8
 73
     4
 74
     0
 42
0.00000001
 43
0.00000001
 12
1.0
 22
0.0
 32
0.0
 13
1.0
 23
0.0
 33
0.0
 40
0.0
 40
0.0
 40
0.0
 40
0.0
 40
1.0
 40
1.0
 40
1.0
 40
1.0
 10
266.1956383266131
 20
176.8273623786234
 30
0.0
 10
264.8097115667385
 20
178.2180390751089
 30
0.0
 10
263.4240520341059
 20
179.6089848591225
 30
0.0
 10
262.0387840771208
 20
181.0003152273411
 30
0.0
  0
LINE
  5
D8
330
1F
100
AcDbEntity
  8
0
  6
Continuous
 62
     7
370
    15
100
AcDbLine
 10
262.038784656
 20
238.4481377473
 30
0.0
 11
262.038784656
 21
181.0003168455
 31
0.0
  0
SPLINE
  5
D9
330
1F
100
AcDbEntity
  8
0
  6
Continuous
 62
     7
370
    15
100
AcDbSpline
210
0.0
220
0.0
230
1.0
 70
    24
 71
     3
 72
    14
 73
    10
 74
     0
 42
0.00000001
 43
0.00000001
 12
1.0
 22
0.0
 32
0.0
 13
1.0
 23
0.0
 33
0.0
 40
0.0
 40
0.0
 40
0.0
 40
0.0
 40
0.1249999999999999
 40
0.1249999999999999
 40
0.2499999999999998
 40
0.2499999999999998
 40
0.5
 40
0.5
 40
1.0
 40
1.0
 40
1.0
 40
1.0
 10
287.0684813910887
 20
250.5317076614481
 30
0.0
 10
286.749360662116
 20
250.5317076614482
 30
0.0
 10
286.438189220651
 20
250.5317076614481
 30
0.0
 10
285.8337232177219
 20
250.5317076614482
 30
0.0
 10
285.5399253294361
 20
250.5317076614481
 30
0.0
 10
284.692994103662
 20
250.5317076614481
 30
0.0
 10
284.1746714831532
 20
250.5317076614481
 30
0.0
 10
282.7846928159883
 20
250.5317076614481
 30
0.0
 10
282.0778450801554
 20
250.5317076614481
 30
0.0
 10
281.6683985183611
 20
250.5317076614481
 30
0.0
  0
LWPOLYLINE
  5
DA
330
1F
100
AcDbEntity
  8
0
  6
Continuous
 62
     7
370
    15
100
AcDbPolyline
 90
        3
 70
   128
 43
0.0
 10
281.668397221
 20
250.5317091516
 10
281.4356522591
 20
250.2964570692
 10
281.2672095329
 20
250.1261815003
  0
SPLINE
  5
DB
330
1F
100
AcDbEntity
  8
0
  6
Continuous
 62
     7
370
    15
100
AcDbSpline
210
0.0
220
0.0
230
1.0
 70
    24
 71
     3
 72
    14
 73
    10
 74
     0
 42
0.00000001
 43
0.00000001
 12
1.0
 22
0.0
 32
0.0
 13
1.0
 23
0.0
 33
0.0
 40
0.0
 40
0.0
 40
0.0
 40
0.0
 40
0.1249999999999999
 40
0.1249999999999999
 40
0.2499999999999998
 40
0.2499999999999998
 40
0.5
 40
0.5
 40
1.0
 40
1.0
 40
1.0
 40
1.0
 10
159.4659410126451
 20
250.5317076614481
 30
0.0
 10
159.7850617416178
 20
250.5317076614482
 30
0.0
 10
160.0962331830828
 20
250.5317076614481
 30
0.0
 10
160.7006991860119
 20
250.5317076614482
 30
0.0
 10
160.9944970742978
 20
250.5317076614481
 30
0.0
 10
161.8414283000718
 20
250.5317076614481
 30
0.0
 10
162.3597509205806
 20
250.5317076614481
 30
0.0
 10
163.7497295877455
 20
250.5317076614481
 30
0.0
 10
164.4565773235784
 20
250.5317076614481
 30
0.0
 10
164.8660238853727
 20
250.5317076614481
 30
0.0
  0
LWPOLYLINE
  5
DC
330
1F
100
AcDbEntity
  8
0
  6
Continuous
 62
     7
370
    15
100
AcDbPolyline
 90
        3
 70
   128
 43
0.0
 10
164.8660251827
 20
250.5317091516
 10
165.0987701447
 20
250.2964570692
 10
165.2672128708
 20
250.1261815003
  0
SPLINE
  5
DD
330
1F
100
AcDbEntity
  8
0
  6
Continuous
 62
     7
370
    15
100
AcDbSpline
210
0.0
220
0.0
230
1.0
 70
     8
 71
     3
 72
    14
 73
    10
 74
     0
 42
0.00000001
 43
0.00000001
 12
1.0
 22
0.0
 32
0.0
 13
1.0
 23
0.0
 33
0.0
 40
0.0
 40
0.0
 40
0.0
 40
0.0
 40
0.2499999999999987
 40
0.2499999999999987
 40
0.4999999999999974
 40
0.4999999999999974
 40
0.7499999999999987
 40
0.7499999999999987
 40
1.0
 40
1.0
 40
1.0
 40
1.0
 10
262.0387840771207
 20
181.0003152273411
 30
0.0
 10
261.8549808856754
 20
181.184922805062
 30
0.0
 10
261.6540344865114
 20
181.3511233036497
 30
0.0
 10
261.2165258142799
 20
181.6452826706648
 30
0.0
 10
260.9844950673344
 20
181.7700051897784
 30
0.0
 10
260.4980470664365
 20
181.9724581671124
 30
0.0
 10
260.2462861596759
 20
182.0488986060395
 30
0.0
 10
259.7356571609644
 20
182.1509800787093
 30
0.0
 10
259.4732361044222
 20
182.1772104203651
 30
0.0
 10
259.2103569523745
 20
182.1772104203651
 30
0.0
  0
LINE
  5
DE
330
1F
100
AcDbEntity
  8
0
  6
Continuous
 62
     7
370
    15
100
AcDbLine
 10
259.2103579969
 20
182.1772105566
 30
0.0
 11
259.2103579969
 21
232.0227514526
 31
0.0
  0
SPLINE
  5
DF
330
1F
100
AcDbEntity
  8
0
  6
Continuous
 62
     7
370
    15
100
AcDbSpline
210
0.0
220
0.0
230
1.0
 70
     8
 71
     3
 72
    14
 73
    10
 74
     0
 42
0.00000001
 43
0.00000001
 12
1.0
 22
0.0
 32
0.0
 13
1.0
 23
0.0
 33
0.0
 40
0.0
 40
0.0
 40
0.0
 40
0.0
 40
0.2499999999999987
 40
0.2499999999999987
 40
0.4999999999999974
 40
0.4999999999999974
 40
0.7499999999999987
 40
0.7499999999999987
 40
1.0
 40
1.0
 40
1.0
 40
1.0
 10
184.4956383266131
 20
181.0003152273411
 30
0.0
 10
184.6794415180584
 20
181.184922805062
 30
0.0
 10
184.8803879172224
 20
181.3511233036497
 30
0.0
 10
185.3178965894539
 20
181.6452826706648
 30
0.0
 10
185.5499273363995
 20
181.7700051897784
 30
0.0
 10
186.0363753372973
 20
181.9724581671124
 30
0.0
 10
186.2881362440579
 20
182.0488986060395
 30
0.0
 10
186.7987652427695
 20
182.1509800787093
 30
0.0
 10
187.0611862993116
 20
182.1772104203651
 30
0.0
 10
187.3240654513593
 20
182.1772104203651
 30
0.0
  0
LINE
  5
E0
330
1F
100
AcDbEntity
  8
0
  6
Continuous
 62
     7
370
    15
100
AcDbLine
 10
187.3240644068
 20
217.2633072866
 30
0.0
 11
187.3240644068
 21
232.0227514526
 31
0.0
  0
LINE
  5
E1
330
1F
100
AcDbEntity
  8
0
  6
Continuous
 62
     7
370
    15
100
AcDbLine
 10
187.3240644068
 20
182.1772105566
 30
0.0
 11
187.3240644068
 21
208.8001080362
 31
0.0
  0
LINE
  5
E2
330
1F
100
AcDbEntity
  8
0
  6
Continuous
 62
     7
370
    15
100
AcDbLine
 10
259.2103579969
 20
182.1772105566
 30
0.0
 11
187.3240644068
 21
182.1772105566
 31
0.0
  0
LINE
  5
E3
330
1F
100
AcDbEntity
  8
0
  6
Continuous
 62
     7
370
    15
100
AcDbLine
 10
227.7672110082
 20
352.6929750612
 30
0.0
 11
218.7672113956
 21
352.6929750612
 31
0.0
  0
ELLIPSE
  5
E4
330
1F
100
AcDbEntity
  8
0
  6
Continuous
 62
     7
370
    15
100
AcDbEllipse
 10
223.2672112019
 20
790.3874488743
 30
0.0
 11
0.0
 21
1040.635515843946
 31
0.0
210
0.0
220
0.0
230
1.0
 40
0.0261859216
 41
4.256540207799426
 42
4.263759701715692
  0
ELLIPSE
  5
E5
330
1F
100
AcDbEntity
  8
0
  6
Continuous
 62
     7
370
    15
100
AcDbEllipse
 10
223.2672112019
 20
790.3874488743
 30
0.0
 11
0.0
 21
1040.635515843946
 31
0.0
210
0.0
220
0.0
230
1.0
 40
0.0261859216
 41
2.019425605463995
 42
2.026645099380264
  0
LINE
  5
E6
330
1F
100
AcDbEntity
  8
0
  6
Continuous
 62
     7
370
    15
100
AcDbLine
 10
227.7672110082
 20
382.031707423
 30
0.0
 11
218.7672113956
 21
382.031707423
 31
0.0
  0
LINE
  5
E7
330
1F
100
AcDbEntity
  8
0
  6
Continuous
 62
     7
370
    15
100
AcDbLine
 10
227.7672110082
 20
379.0317013434
 30
0.0
 11
227.7672110082
 21
382.031707423
 31
0.0
  0
LINE
  5
E8
330
1F
100
AcDbEntity
  8
0
  6
Continuous
 62
     7
370
    15
100
AcDbLine
 10
218.7672113956
 20
379.0317013434
 30
0.0
 11
227.7672110082
 21
379.0317013434
 31
0.0
  0
LINE
  5
E9
330
1F
100
AcDbEntity
  8
0
  6
Continuous
 62
     7
370
    15
100
AcDbLine
 10
218.7672113956
 20
379.0317013434
 30
0.0
 11
218.7672113956
 21
382.031707423
 31
0.0
  0
LINE
  5
EA
330
1F
100
AcDbEntity
  8
0
  6
Continuous
 62
     7
370
    15
100
AcDbLine
 10
218.7672113956
 20
385.0317135027
 30
0.0
 11
227.7672110082
 21
385.0317135027
 31
0.0
  0
SPLINE
  5
EB
330
1F
100
AcDbEntity
  8
0
  6
Continuous
 62
     7
370
    15
100
AcDbSpline
210
0.0
220
0.0
230
1.0
 70
    24
 71
     3
 72
     8
 73
     4
 74
     0
 42
0.00000001
 43
0.00000001
 12
1.0
 22
0.0
 32
0.0
 13
1.0
 23
0.0
 33
0.0
 40
0.0
 40
0.0
 40
0.0
 40
0.0
 40
0.0042774229445205
 40
0.0042774229445205
 40
0.0042774229445205
 40
0.0042774229445205
 10
227.7672112018667
 20
385.0317076614481
 30
0.0
 10
227.7672112018667
 20
384.0327659406224
 30
0.0
 10
227.7672112018667
 20
383.0326445371376
 30
0.0
 10
227.7672112018667
 20
382.031707661465
 30
0.0
  0
SPLINE
  5
EC
330
1F
100
AcDbEntity
  8
0
  6
Continuous
 62
     7
370
    15
100
AcDbSpline
210
0.0
220
0.0
230
1.0
 70
    24
 71
     3
 72
     8
 73
     4
 74
     0
 42
0.00000001
 43
0.00000001
 12
1.0
 22
0.0
 32
0.0
 13
1.0
 23
0.0
 33
0.0
 40
0.0
 40
0.0
 40
0.0
 40
0.0
 40
0.0042774229445205
 40
0.0042774229445205
 40
0.0042774229445205
 40
0.0042774229445205
 10
218.7672112018666
 20
382.031707661465
 30
0.0
 10
218.7672112018666
 20
383.0326445371376
 30
0.0
 10
218.7672112018667
 20
384.0327659406224
 30
0.0
 10
218.7672112018667
 20
385.0317076614481
 30
0.0
  0
LINE
  5
ED
330
1F
100
AcDbEntity
  8
0
  6
Continuous
 62
     7
370
    15
100
AcDbLine
 10
218.7672113956
 20
352.6929750612
 30
0.0
 11
218.7672113956
 21
373.0317040852
 31
0.0
  0
LINE
  5
EE
330
1F
100
AcDbEntity
  8
0
  6
Continuous
 62
     7
370
    15
100
AcDbLine
 10
227.7672110082
 20
373.0317040852
 30
0.0
 11
218.7672113956
 21
373.0317040852
 31
0.0
  0
LINE
  5
EF
330
1F
100
AcDbEntity
  8
0
  6
Continuous
 62
     7
370
    15
100
AcDbLine
 10
227.7672110082
 20
352.6929750612
 30
0.0
 11
227.7672110082
 21
373.0317040852
 31
0.0
  0
LINE
  5
F0
330
1F
100
AcDbEntity
  8
0
  6
Continuous
 62
     7
370
    15
100
AcDbLine
 10
218.7672113956
 20
373.0317040852
 30
0.0
 11
218.7672113956
 21
379.0317013434
 31
0.0
  0
LINE
  5
F1
330
1F
100
AcDbEntity
  8
0
  6
Continuous
 62
     7
370
    15
100
AcDbLine
 10
227.7672110082
 20
379.0317013434
 30
0.0
 11
227.7672110082
 21
373.0317040852
 31
0.0
  0
LINE
  5
F2
330
1F
100
AcDbEntity
  8
0
  6
Continuous
 62
     7
370
    15
100
AcDbLine
 10
239.2672119618
 20
385.0317135027
 30
0.0
 11
227.7672110082
 21
385.0317135027
 31
0.0
  0
LINE
  5
F3
330
1F
100
AcDbEntity
  8
0
  6
Continuous
 62
     7
370
    15
100
AcDbLine
 10
218.7672113956
 20
385.0317135027
 30
0.0
 11
207.2672104419
 21
385.0317135027
 31
0.0
  0
LINE
  5
F4
330
1F
100
AcDbEntity
  8
0
  6
Continuous
 62
     7
370
    15
100
AcDbLine
 10
162.0422402353
 20
313.0317091516
 30
0.0
 11
173.2672104568
 21
313.0317091516
 31
0.0
  0
LWPOLYLINE
  5
F5
330
1F
100
AcDbEntity
  8
0
  6
Continuous
 62
     7
370
    15
100
AcDbPolyline
 90
       38
 70
   128
 43
0.0
 10
166.4015749425
 20
283.6495399049
 10
166.7356440754
 20
283.6203112772
 10
167.0786650807
 20
283.5903003386
 10
167.4301573963
 20
283.5595517924
 10
167.7896441848
 20
283.5281028917
 10
168.1566262574
 20
283.4959908894
 10
168.5305969746
 20
283.46327539
 10
168.911038521
 20
283.4299936464
 10
169.2974293561
 20
283.3961829117
 10
169.6892367632
 20
283.3619102409
 10
170.0859205753
 20
283.3271979859
 10
170.4869331748
 20
283.2921206525
 10
170.8917194933
 20
283.2567005923
 10
171.2997207374
 20
283.2210048607
 10
171.7103818388
 20
283.1850781611
 10
172.1231253774
 20
283.1489726475
 10
172.5373925597
 20
283.1127255729
 10
172.9526022405
 20
283.0763965419
 10
173.3681919009
 20
283.0400377086
 10
173.7835803957
 20
283.003701227
 10
174.1981977553
 20
282.9674243501
 10
174.6114740104
 20
282.9312666824
 10
175.0228354663
 20
282.8952803782
 10
175.4317196042
 20
282.8595026901
 10
175.8375564546
 20
282.8240006736
 10
176.2397909493
 20
282.7888041309
 10
176.63786802
 20
282.7539801171
 10
177.0312363238
 20
282.7195658854
 10
177.4193556935
 20
282.685606139
 10
177.8016896875
 20
282.6521604827
 10
178.1777093143
 20
282.6192587188
 10
178.546900484
 20
282.5869604519
 10
178.9087491066
 20
282.5553029349
 10
179.2627597184
 20
282.5243308714
 10
179.6084443063
 20
282.4940889648
 10
179.945322308
 20
282.4646144679
 10
180.2729355127
 20
282.4359520844
 10
180.5908257098
 20
282.408139067
  0
SPLINE
  5
F6
330
1F
100
AcDbEntity
  8
0
  6
Continuous
 62
     7
370
    15
100
AcDbSpline
210
0.0
220
0.0
230
1.0
 70
     8
 71
     3
 72
    16
 73
    12
 74
     0
 42
0.00000001
 43
0.00000001
 12
1.0
 22
0.0
 32
0.0
 13
1.0
 23
0.0
 33
0.0
 40
0.0
 40
0.0
 40
0.0
 40
0.0
 40
0.2500000000000006
 40
0.2500000000000006
 40
0.5000000000000012
 40
0.5000000000000012
 40
0.7500000000000018
 40
0.7500000000000018
 40
0.8750000000000009
 40
0.8750000000000009
 40
1.0
 40
1.0
 40
1.0
 40
1.0
 10
163.4245823781081
 20
284.9763389599479
 30
0.0
 10
163.6043392547964
 20
284.8084572334154
 30
0.0
 10
163.8002102339834
 20
284.6502018376557
 30
0.0
 10
164.2278558435067
 20
284.3576172484829
 30
0.0
 10
164.4613218887701
 20
284.2225482763492
 30
0.0
 10
164.9592683676198
 20
283.98847944696
 30
0.0
 10
165.2237549667242
 20
283.8890438885711
 30
0.0
 10
165.6458499944609
 20
283.7723628528846
 30
0.0
 10
165.7907892565981
 20
283.7389100816986
 30
0.0
 10
166.0897075786802
 20
283.6843931557209
 30
0.0
 10
166.2444347952789
 20
283.6632879781849
 30
0.0
 10
166.401575060137
 20
283.6495399864264
 30
0.0
  0
SPLINE
  5
F7
330
1F
100
AcDbEntity
  8
0
  6
Continuous
 62
     7
370
    15
100
AcDbSpline
210
0.0
220
0.0
230
1.0
 70
     8
 71
     3
 72
     8
 73
     4
 74
     0
 42
0.00000001
 43
0.00000001
 12
1.0
 22
0.0
 32
0.0
 13
1.0
 23
0.0
 33
0.0
 40
0.0
 40
0.0
 40
0.0
 40
0.0
 40
1.0
 40
1.0
 40
1.0
 40
1.0
 10
163.4245823781081
 20
284.9763389599479
 30
0.0
 10
162.9568684573849
 20
294.3277858050348
 30
0.0
 10
162.496940520962
 20
303.6796211370565
 30
0.0
 10
162.0422390415451
 20
313.0317076614482
 30
0.0
  0
LINE
  5
F8
330
1F
100
AcDbEntity
  8
0
  6
Continuous
 62
     7
370
    15
100
AcDbLine
 10
273.2672119469
 20
339.031709688
 30
0.0
 11
247.8206181855
 21
339.031709688
 31
0.0
  0
LINE
  5
F9
330
1F
100
AcDbEntity
  8
0
  6
Continuous
 62
     7
370
    15
100
AcDbLine
 10
273.2672119469
 20
339.031709688
 30
0.0
 11
273.2672119469
 21
313.0317091516
 31
0.0
  0
LINE
  5
FA
330
1F
100
AcDbEntity
  8
0
  6
Continuous
 62
     7
370
    15
100
AcDbLine
 10
273.2672119469
 20
313.0317091516
 30
0.0
 11
270.6460045607
 21
313.0317091516
 31
0.0
  0
LINE
  5
FB
330
1F
100
AcDbEntity
  8
0
  6
Continuous
 62
     7
370
    15
100
AcDbLine
 10
173.2672104568
 20
339.031709688
 30
0.0
 11
161.4480452568
 21
339.031709688
 31
0.0
  0
LINE
  5
FC
330
1F
100
AcDbEntity
  8
0
  6
Continuous
 62
     7
370
    15
100
AcDbLine
 10
173.2672104568
 20
339.031709688
 30
0.0
 11
173.2672104568
 21
313.0317091516
 31
0.0
  0
LINE
  5
FD
330
1F
100
AcDbEntity
  8
0
  6
Continuous
 62
     7
370
    15
100
AcDbLine
 10
173.2672104568
 20
313.0317091516
 30
0.0
 11
175.8884178431
 21
313.0317091516
 31
0.0
  0
LINE
  5
FE
330
1F
100
AcDbEntity
  8
0
  6
Continuous
 62
     7
370
    15
100
AcDbLine
 10
173.2672104568
 20
339.031709688
 30
0.0
 11
198.7138042183
 21
339.031709688
 31
0.0
  0
SPLINE
  5
FF
330
1F
100
AcDbEntity
  8
0
  6
Continuous
 62
     7
370
    15
100
AcDbSpline
210
0.0
220
0.0
230
1.0
 70
     8
 71
     3
 72
    16
 73
    12
 74
     0
 42
0.00000001
 43
0.00000001
 12
1.0
 22
0.0
 32
0.0
 13
1.0
 23
0.0
 33
0.0
 40
0.0
 40
0.0
 40
0.0
 40
0.0
 40
0.2500000000000006
 40
0.2500000000000006
 40
0.5000000000000012
 40
0.5000000000000012
 40
0.7500000000000018
 40
0.7500000000000018
 40
0.8750000000000009
 40
0.8750000000000009
 40
1.0
 40
1.0
 40
1.0
 40
1.0
 10
283.1098400256257
 20
284.9763389599479
 30
0.0
 10
282.9300831489374
 20
284.8084572334154
 30
0.0
 10
282.7342121697504
 20
284.6502018376557
 30
0.0
 10
282.3065665602271
 20
284.3576172484829
 30
0.0
 10
282.0731005149637
 20
284.2225482763492
 30
0.0
 10
281.575154036114
 20
283.98847944696
 30
0.0
 10
281.3106674370096
 20
283.8890438885711
 30
0.0
 10
280.8885724092729
 20
283.7723628528846
 30
0.0
 10
280.7436331471357
 20
283.7389100816986
 30
0.0
 10
280.4447148250536
 20
283.6843931557209
 30
0.0
 10
280.2899876084549
 20
283.6632879781849
 30
0.0
 10
280.1328473435968
 20
283.6495399864264
 30
0.0
  0
LWPOLYLINE
  5
100
330
1F
100
AcDbEntity
  8
0
  6
Continuous
 62
     7
370
    15
100
AcDbPolyline
 90
       38
 70
   128
 43
0.0
 10
280.1328474612
 20
283.6495399049
 10
279.7987783284
 20
283.6203112772
 10
279.455757323
 20
283.5903003386
 10
279.1042650075
 20
283.5595517924
 10
278.7447782189
 20
283.5281028917
 10
278.3777961464
 20
283.4959908894
 10
278.0038254292
 20
283.46327539
 10
277.6233838827
 20
283.4299936464
 10
277.2369930477
 20
283.3961829117
 10
276.8451856405
 20
283.3619102409
 10
276.4485018284
 20
283.3271979859
 10
276.0474892289
 20
283.2921206525
 10
275.6427029104
 20
283.2567005923
 10
275.2347016663
 20
283.2210048607
 10
274.824040565
 20
283.1850781611
 10
274.4112970264
 20
283.1489726475
 10
273.997029844
 20
283.1127255729
 10
273.5818201632
 20
283.0763965419
 10
273.1662305028
 20
283.0400377086
 10
272.7508420081
 20
283.003701227
 10
272.3362246484
 20
282.9674243501
 10
271.9229483933
 20
282.9312666824
 10
271.5115869374
 20
282.8952803782
 10
271.1027027995
 20
282.8595026901
 10
270.6968659491
 20
282.8240006736
 10
270.2946314544
 20
282.7888041309
 10
269.8965543837
 20
282.7539801171
 10
269.5031860799
 20
282.7195658854
 10
269.1150667102
 20
282.685606139
 10
268.7327327163
 20
282.6521604827
 10
268.3567130894
 20
282.6192587188
 10
267.9875219197
 20
282.5869604519
 10
267.6256732971
 20
282.5553029349
 10
267.2716626854
 20
282.5243308714
 10
266.9259780974
 20
282.4940889648
 10
266.5891000957
 20
282.4646144679
 10
266.261486891
 20
282.4359520844
 10
265.943596694
 20
282.408139067
  0
LINE
  5
101
330
1F
100
AcDbEntity
  8
0
  6
Continuous
 62
     7
370
    15
100
AcDbLine
 10
284.4921821684
 20
313.0317091516
 30
0.0
 11
273.2672119469
 21
313.0317091516
 31
0.0
  0
SPLINE
  5
102
330
1F
100
AcDbEntity
  8
0
  6
Continuous
 62
     7
370
    15
100
AcDbSpline
210
0.0
220
0.0
230
1.0
 70
     8
 71
     3
 72
     8
 73
     4
 74
     0
 42
0.00000001
 43
0.00000001
 12
1.0
 22
0.0
 32
0.0
 13
1.0
 23
0.0
 33
0.0
 40
0.0
 40
0.0
 40
0.0
 40
0.0
 40
1.0
 40
1.0
 40
1.0
 40
1.0
 10
283.1098400256257
 20
284.9763389599479
 30
0.0
 10
283.5775539463489
 20
294.3277858050348
 30
0.0
 10
284.0374818827718
 20
303.6796211370565
 30
0.0
 10
284.4921833621887
 20
313.0317076614482
 30
0.0
  0
LINE
  5
103
330
1F
100
AcDbEntity
  8
0
  6
Continuous
 62
     7
370
    15
100
AcDbLine
 10
273.2672119469
 20
339.031709688
 30
0.0
 11
285.0863771469
 21
339.031709688
 31
0.0
  0
LWPOLYLINE
  5
104
330
1F
100
AcDbEntity
  8
0
  6
Continuous
 62
     7
370
    15
100
AcDbPolyline
 90
       16
 70
   128
 43
0.0
 10
215.589078232
 20
391.0317107609
 10
215.4224539132
 20
390.8790185621
 10
215.2663307221
 20
390.7359674147
 10
215.1209177405
 20
390.6027212313
 10
214.9864105464
 20
390.4794588259
 10
214.8629888848
 20
390.3663739136
 10
214.7508166686
 20
390.2635857037
 10
214.6500457034
 20
390.1712432078
 10
214.5608110309
 20
390.0894805363
 10
214.4832299978
 20
390.0183870962
 10
214.4174087749
 20
389.9580671957
 10
214.3634339751
 20
389.9086102417
 10
214.3213791729
 20
389.8700758389
 10
214.2912993164
 20
389.8425086907
 10
214.2732353837
 20
389.8259535006
 10
214.2672115893
 20
389.8204400709
  0
LWPOLYLINE
  5
105
330
1F
100
AcDbEntity
  8
0
  6
Continuous
 62
     7
370
    15
100
AcDbPolyline
 90
       10
 70
   128
 43
0.0
 10
215.589078232
 20
391.0317107609
 10
215.7151252919
 20
393.9186617306
 10
215.8463886895
 20
396.9250902107
 10
215.9827785523
 20
400.0489249399
 10
216.1242003509
 20
403.288020151
 10
216.2705562965
 20
406.6401257685
 10
216.4217453406
 20
410.1029172114
 10
216.5776627094
 20
413.6740251949
 10
216.7382013009
 20
417.3509612253
 10
216.9032502876
 20
421.1311921051
  0
ELLIPSE
  5
106
330
1F
100
AcDbEntity
  8
0
  6
Continuous
 62
     7
370
    15
100
AcDbEllipse
 10
223.2672112019
 20
566.8898657843
 30
0.0
 11
0.0
 21
206.1338899358805
 31
0.0
210
0.0
220
0.0
230
1.0
 40
0.0436609429
 41
2.356194490192345
 42
2.592744264804702
  0
ELLIPSE
  5
107
330
1F
100
AcDbEntity
  8
0
  6
Continuous
 62
     7
370
    15
100
AcDbEllipse
 10
223.2672112019
 20
398.0674202892
 30
0.0
 11
9.0
 21
-5.684341886080801E-14
 31
0.0
210
0.0
220
0.0
230
1.0
 40
0.916331174
 41
4.163540591599618
 42
5.2612373691698
  0
ELLIPSE
  5
108
330
1F
100
AcDbEntity
  8
0
  6
Continuous
 62
     7
370
    15
100
AcDbEllipse
 10
223.2672112019
 20
566.8898657843
 30
0.0
 11
0.0
 21
206.1338899358805
 31
0.0
210
0.0
220
0.0
230
1.0
 40
0.0436609429
 41
3.690441042375117
 42
3.926990816987402
  0
LWPOLYLINE
  5
109
330
1F
100
AcDbEntity
  8
0
  6
Continuous
 62
     7
370
    15
100
AcDbPolyline
 90
       10
 70
   128
 43
0.0
 10
229.6311721162
 20
421.1311921051
 10
229.7962211029
 20
417.3509612253
 10
229.9567596943
 20
413.6740251949
 10
230.1126770631
 20
410.1029172114
 10
230.2638661072
 20
406.6401257685
 10
230.4102220529
 20
403.288020151
 10
230.5516438515
 20
400.0489249399
 10
230.6880337142
 20
396.9250902107
 10
230.8192971119
 20
393.9186617306
 10
230.9453441718
 20
391.0317107609
  0
LWPOLYLINE
  5
10A
330
1F
100
AcDbEntity
  8
0
  6
Continuous
 62
     7
370
    15
100
AcDbPolyline
 90
       16
 70
   128
 43
0.0
 10
232.2672108144
 20
389.8204400709
 10
232.26118702
 20
389.8259535006
 10
232.2431230874
 20
389.8425086907
 10
232.2130432309
 20
389.8700758389
 10
232.1709884287
 20
389.9086102417
 10
232.1170136289
 20
389.9580671957
 10
232.0511924059
 20
390.0183870962
 10
231.9736113728
 20
390.0894805363
 10
231.8843767003
 20
390.1712432078
 10
231.7836057351
 20
390.2635857037
 10
231.6714335189
 20
390.3663739136
 10
231.5480118574
 20
390.4794588259
 10
231.4135046632
 20
390.6027212313
 10
231.2680916817
 20
390.7359674147
 10
231.1119684906
 20
390.8790185621
 10
230.9453441718
 20
391.0317107609
  0
LINE
  5
10B
330
1F
100
AcDbEntity
  8
0
  6
Continuous
 62
     7
370
    15
100
AcDbLine
 10
218.5718650886
 20
391.0317107609
 30
0.0
 11
227.9625573152
 21
391.0317107609
 31
0.0
  0
LINE
  5
10C
330
1F
100
AcDbEntity
  8
0
  6
Continuous
 62
     7
370
    15
100
AcDbLine
 10
216.9032502876
 20
421.1311921051
 30
0.0
 11
217.1172114045
 21
426.0317071846
 31
0.0
  0
LINE
  5
10D
330
1F
100
AcDbEntity
  8
0
  6
Continuous
 62
     7
370
    15
100
AcDbLine
 10
217.1172114045
 20
426.0317071846
 30
0.0
 11
229.4172109992
 21
426.0317071846
 31
0.0
  0
LINE
  5
10E
330
1F
100
AcDbEntity
  8
0
  6
Continuous
 62
     7
370
    15
100
AcDbLine
 10
229.6311721162
 20
421.1311921051
 30
0.0
 11
229.4172109992
 21
426.0317071846
 31
0.0
  0
LINE
  5
10F
330
1F
100
AcDbEntity
  8
0
  6
Continuous
 62
     7
370
    15
100
AcDbLine
 10
160.7672112019
 20
313.0317091516
 30
0.0
 11
163.4960198731
 21
250.5317091516
 31
0.0
  0
LINE
  5
110
330
1F
100
AcDbEntity
  8
0
  6
Continuous
 62
     7
370
    15
100
AcDbLine
 10
160.7672112019
 20
313.0317091516
 30
0.0
 11
162.0422402353
 21
313.0317091516
 31
0.0
  0
LINE
  5
111
330
1F
100
AcDbEntity
  8
0
  6
Continuous
 62
     7
370
    15
100
AcDbLine
 10
285.7672112019
 20
313.0317091516
 30
0.0
 11
283.0384025306
 21
250.5317091516
 31
0.0
  0
LINE
  5
112
330
1F
100
AcDbEntity
  8
0
  6
Continuous
 62
     7
370
    15
100
AcDbLine
 10
285.7672112019
 20
313.0317091516
 30
0.0
 11
284.4921821684
 21
313.0317091516
 31
0.0
  0
LINE
  5
113
330
1F
100
AcDbEntity
  8
0
  6
Continuous
 62
     7
370
    15
100
AcDbLine
 10
165.1474038095
 20
175.5317061713
 30
0.0
 11
281.3870185942
 21
175.5317061713
 31
0.0
  0
LINE
  5
114
330
1F
100
AcDbEntity
  8
0
  6
Continuous
 62
     7
370
    15
100
AcDbLine
 10
248.3532434285
 20
373.0317040852
 30
0.0
 11
245.4921962649
 21
373.0317040852
 31
0.0
  0
LINE
  5
115
330
1F
100
AcDbEntity
  8
0
  6
Continuous
 62
     7
370
    15
100
AcDbLine
 10
248.3532434285
 20
353.9158090523
 30
0.0
 11
248.3532434285
 21
373.0317040852
 31
0.0
  0
SPLINE
  5
116
330
1F
100
AcDbEntity
  8
0
  6
Continuous
 62
     7
370
    15
100
AcDbSpline
210
0.0
220
0.0
230
1.0
 70
     8
 71
     3
 72
     8
 73
     4
 74
     0
 42
0.00000001
 43
0.00000001
 12
1.0
 22
0.0
 32
0.0
 13
1.0
 23
0.0
 33
0.0
 40
0.0
 40
0.0
 40
0.0
 40
0.0
 40
0.0042774229446187
 40
0.0042774229446187
 40
0.0042774229446187
 40
0.0042774229446187
 10
248.3532435849233
 20
382.0317076614082
 30
0.0
 10
247.4738747115698
 20
383.0326445370997
 30
0.0
 10
246.5938085546103
 20
384.0327659406035
 30
0.0
 10
245.7127397911023
 20
385.0317076614481
 30
0.0
  0
LINE
  5
117
330
1F
100
AcDbEntity
  8
0
  6
Continuous
 62
     7
370
    15
100
AcDbLine
 10
248.3532434285
 20
379.0317013434
 30
0.0
 11
248.3532434285
 21
382.031707423
 31
0.0
  0
LINE
  5
118
330
1F
100
AcDbEntity
  8
0
  6
Continuous
 62
     7
370
    15
100
AcDbLine
 10
245.4921962649
 20
379.0317013434
 30
0.0
 11
248.3532434285
 21
379.0317013434
 31
0.0
  0
LINE
  5
119
330
1F
100
AcDbEntity
  8
0
  6
Continuous
 62
     7
370
    15
100
AcDbLine
 10
245.4921962649
 20
373.0317040852
 30
0.0
 11
245.4921962649
 21
379.0317013434
 31
0.0
  0
LINE
  5
11A
330
1F
100
AcDbEntity
  8
0
  6
Continuous
 62
     7
370
    15
100
AcDbLine
 10
239.2672119618
 20
385.0317135027
 30
0.0
 11
245.7127390385
 21
385.0317135027
 31
0.0
  0
SPLINE
  5
11B
330
1F
100
AcDbEntity
  8
0
  6
Continuous
 62
     7
370
    15
100
AcDbSpline
210
0.0
220
0.0
230
1.0
 70
     8
 71
     3
 72
     8
 73
     4
 74
     0
 42
0.00000001
 43
0.00000001
 12
1.0
 22
0.0
 32
0.0
 13
1.0
 23
0.0
 33
0.0
 40
0.0
 40
0.0
 40
0.0
 40
0.0
 40
0.0042774229446188
 40
0.0042774229446188
 40
0.0042774229446188
 40
0.0042774229446188
 10
200.8216826126316
 20
385.0317076614481
 30
0.0
 10
199.9406138491236
 20
384.0327659406035
 30
0.0
 10
199.0605476921641
 20
383.0326445370997
 30
0.0
 10
198.1811788188105
 20
382.0317076614082
 30
0.0
  0
LINE
  5
11C
330
1F
100
AcDbEntity
  8
0
  6
Continuous
 62
     7
370
    15
100
AcDbLine
 10
198.1811789752
 20
353.9158090523
 30
0.0
 11
198.1811789752
 21
373.0317040852
 31
0.0
  0
LINE
  5
11D
330
1F
100
AcDbEntity
  8
0
  6
Continuous
 62
     7
370
    15
100
AcDbLine
 10
201.0422261388
 20
373.0317040852
 30
0.0
 11
198.1811789752
 21
373.0317040852
 31
0.0
  0
LINE
  5
11E
330
1F
100
AcDbEntity
  8
0
  6
Continuous
 62
     7
370
    15
100
AcDbLine
 10
201.0422261388
 20
379.0317013434
 30
0.0
 11
201.0422261388
 21
373.0317040852
 31
0.0
  0
LINE
  5
11F
330
1F
100
AcDbEntity
  8
0
  6
Continuous
 62
     7
370
    15
100
AcDbLine
 10
198.1811789752
 20
379.0317013434
 30
0.0
 11
201.0422261388
 21
379.0317013434
 31
0.0
  0
LINE
  5
120
330
1F
100
AcDbEntity
  8
0
  6
Continuous
 62
     7
370
    15
100
AcDbLine
 10
198.1811789752
 20
379.0317013434
 30
0.0
 11
198.1811789752
 21
382.031707423
 31
0.0
  0
LINE
  5
121
330
1F
100
AcDbEntity
  8
0
  6
Continuous
 62
     7
370
    15
100
AcDbLine
 10
200.8216833652
 20
385.0317135027
 30
0.0
 11
207.2672104419
 21
385.0317135027
 31
0.0
  0
LINE
  5
122
330
1F
100
AcDbEntity
  8
0
  6
Continuous
 62
     8
370
    15
100
AcDbLine
 10
250.5172105462
 20
351.0346546343
 30
0.0
 11
196.0172118575
 21
351.0346546343
 31
0.0
  0
LINE
  5
123
330
1F
100
AcDbEntity
  8
0
  6
Continuous
 62
     8
370
    15
100
AcDbLine
 10
218.7672113956
 20
356.5078064373
 30
0.0
 11
202.2376792461
 21
356.5078064373
 31
0.0
  0
LINE
  5
124
330
1F
100
AcDbEntity
  8
0
  6
Continuous
 62
     8
370
    15
100
AcDbLine
 10
244.2967431576
 20
356.5078064373
 30
0.0
 11
227.7672110082
 21
356.5078064373
 31
0.0
  0
LINE
  5
125
330
1F
100
AcDbEntity
  8
FORMAT
  6
CENTERX2
370
     0
100
AcDbLine
 10
322.0774055753
 20
213.0317076614
 30
0.0
 11
127.1458199695
 21
213.0317076614
 31
0.0
  0
LINE
  5
126
330
1F
100
AcDbEntity
  8
FORMAT
  6
CENTERX2
370
     0
100
AcDbLine
 10
223.2672112019
 20
429.5061706916
 30
0.0
 11
223.2672112019
 21
168.8707523609
 31
0.0
  0
LINE
  5
127
330
1F
100
AcDbEntity
  8
0
  6
Continuous
 62
     7
370
    15
100
AcDbLine
 10
427.716569242
 20
313.0317091516
 30
0.0
 11
429.02564836
 21
283.0488740972
 31
0.0
  0
LINE
  5
128
330
1F
100
AcDbEntity
  8
0
  6
Continuous
 62
     7
370
    15
100
AcDbLine
 10
451.4074904964
 20
283.0488740972
 30
0.0
 11
452.7165696145
 21
313.0317091516
 31
0.0
  0
LINE
  5
129
330
1F
100
AcDbEntity
  8
0
  6
Continuous
 62
     7
370
    15
100
AcDbLine
 10
400.2380242691
 20
324.9252944759
 30
0.0
 11
399.8798823104
 21
320.8317070773
 31
0.0
  0
LINE
  5
12A
330
1F
100
AcDbEntity
  8
0
  6
Continuous
 62
     7
370
    15
100
AcDbLine
 10
480.5532565461
 20
320.8317070773
 30
0.0
 11
480.1951145873
 21
324.9252944759
 31
0.0
  0
LINE
  5
12B
330
1F
100
AcDbEntity
  8
0
  6
Continuous
 62
     7
370
    15
100
AcDbLine
 10
412.9665700839
 20
332.2741224936
 30
0.0
 11
400.2380242691
 21
324.9252944759
 31
0.0
  0
LINE
  5
12C
330
1F
100
AcDbEntity
  8
0
  6
Continuous
 62
     7
370
    15
100
AcDbLine
 10
480.1951145873
 20
324.9252944759
 30
0.0
 11
467.4665687726
 21
332.2741224936
 31
0.0
  0
ARC
  5
12D
330
1F
100
AcDbEntity
  8
0
  6
Continuous
 62
     7
370
    15
100
AcDbCircle
 10
464.4665694282
 20
351.0346582642
 30
0.0
 40
3.0
100
AcDbArc
 50
0.0
 51
33.5573097619
  0
ARC
  5
12E
330
1F
100
AcDbEntity
  8
0
  6
Continuous
 62
     7
370
    15
100
AcDbCircle
 10
415.9665694282
 20
351.0346582642
 30
0.0
 40
3.0
100
AcDbArc
 50
90.0
 51
180.0
  0
LINE
  5
12F
330
1F
100
AcDbEntity
  8
0
  6
Continuous
 62
     7
370
    15
100
AcDbLine
 10
423.1350647406
 20
354.034660714
 30
0.0
 11
415.966568713
 21
354.034660714
 31
0.0
  0
LINE
  5
130
330
1F
100
AcDbEntity
  8
0
  6
Continuous
 62
     7
370
    15
100
AcDbLine
 10
464.0451746182
 20
354.034660714
 30
0.0
 11
432.1996748568
 21
354.034660714
 31
0.0
  0
LINE
  5
131
330
1F
100
AcDbEntity
  8
0
  6
Continuous
 62
     7
370
    15
100
AcDbLine
 10
467.4665687726
 20
332.2741224936
 30
0.0
 11
467.4665687726
 21
351.0346546343
 31
0.0
  0
LINE
  5
132
330
1F
100
AcDbEntity
  8
0
  6
Continuous
 62
     7
370
    15
100
AcDbLine
 10
412.9665700839
 20
351.0346546343
 30
0.0
 11
412.9665700839
 21
332.2741224936
 31
0.0
  0
ARC
  5
133
330
1F
100
AcDbEntity
  8
0
  6
Continuous
 62
     7
370
    15
100
AcDbCircle
 10
416.2326138619
 20
357.0287570587
 30
0.0
 40
2.999999999999989
100
AcDbArc
 50
273.5943352744
 51
350.0
  0
LINE
  5
134
330
1F
100
AcDbEntity
  8
0
  6
Continuous
 62
     7
370
    15
100
AcDbLine
 10
424.2165686683
 20
385.0317135027
 30
0.0
 11
423.9811787502
 21
383.6967482737
 31
0.0
  0
LINE
  5
135
330
1F
100
AcDbEntity
  8
0
  6
Continuous
 62
     7
370
    15
100
AcDbLine
 10
423.1586067126
 20
379.0317013434
 30
0.0
 11
419.1870374725
 21
356.5078064373
 31
0.0
  0
LINE
  5
136
330
1F
100
AcDbEntity
  8
0
  6
Continuous
 62
     7
370
    15
100
AcDbLine
 10
449.2165690408
 20
385.0317135027
 30
0.0
 11
449.2165690408
 21
389.8204400709
 31
0.0
  0
LINE
  5
137
330
1F
100
AcDbEntity
  8
0
  6
Continuous
 62
     7
370
    15
100
AcDbLine
 10
431.2165698157
 20
389.8204400709
 30
0.0
 11
431.2165698157
 21
385.0317135027
 31
0.0
  0
LINE
  5
138
330
1F
100
AcDbEntity
  8
0
  6
Continuous
 62
     7
370
    15
100
AcDbLine
 10
466.966569622
 20
382.031707423
 30
0.0
 11
463.9665691302
 21
385.0317135027
 31
0.0
  0
LINE
  5
139
330
1F
100
AcDbEntity
  8
0
  6
Continuous
 62
     7
370
    15
100
AcDbLine
 10
466.966569622
 20
379.0317013434
 30
0.0
 11
466.966569622
 21
382.031707423
 31
0.0
  0
LINE
  5
13A
330
1F
100
AcDbEntity
  8
0
  6
Continuous
 62
     7
370
    15
100
AcDbLine
 10
466.966569622
 20
352.6929750612
 30
0.0
 11
466.966569622
 21
373.0317040852
 31
0.0
  0
LINE
  5
13B
330
1F
100
AcDbEntity
  8
0
  6
Continuous
 62
     7
370
    15
100
AcDbLine
 10
463.7165686236
 20
373.0317040852
 30
0.0
 11
463.7165686236
 21
379.0317013434
 31
0.0
  0
LINE
  5
13C
330
1F
100
AcDbEntity
  8
0
  6
Continuous
 62
     7
370
    15
100
AcDbLine
 10
418.5659347222
 20
175.5317061713
 30
0.0
 11
461.8672041343
 21
175.5317061713
 31
0.0
  0
LINE
  5
13D
330
1F
100
AcDbEntity
  8
0
  6
Continuous
 62
     7
370
    15
100
AcDbLine
 10
461.8672041343
 20
250.5317091516
 30
0.0
 11
418.5659347222
 21
250.5317091516
 31
0.0
  0
LINE
  5
13E
330
1F
100
AcDbEntity
  8
0
  6
Continuous
 62
     7
370
    15
100
AcDbLine
 10
483.5178388403
 20
213.0317076614
 30
0.0
 11
461.8672041343
 21
250.5317091516
 31
0.0
  0
LINE
  5
13F
330
1F
100
AcDbEntity
  8
0
  6
Continuous
 62
     7
370
    15
100
AcDbLine
 10
461.8672041343
 20
175.5317061713
 30
0.0
 11
483.5178388403
 21
213.0317076614
 31
0.0
  0
CIRCLE
  5
140
330
1F
100
AcDbEntity
  8
0
  6
Continuous
 62
     7
370
    15
100
AcDbCircle
 10
440.2165694282
 20
213.0317076614
 30
0.0
 40
28.35000000000002
  0
LINE
  5
141
330
1F
100
AcDbEntity
  8
0
  6
Continuous
 62
     7
370
    15
100
AcDbLine
 10
418.5659347222
 20
175.5317061713
 30
0.0
 11
396.9153000162
 21
213.0317076614
 31
0.0
  0
LINE
  5
142
330
1F
100
AcDbEntity
  8
0
  6
Continuous
 62
     7
370
    15
100
AcDbLine
 10
396.9153000162
 20
213.0317076614
 30
0.0
 11
418.5659347222
 21
250.5317091516
 31
0.0
  0
LINE
  5
143
330
1F
100
AcDbEntity
  8
0
  6
Continuous
 62
     7
370
    15
100
AcDbLine
 10
434.716569458
 20
313.0317091516
 30
0.0
 11
427.716569242
 21
313.0317091516
 31
0.0
  0
LINE
  5
144
330
1F
100
AcDbEntity
  8
0
  6
Continuous
 62
     7
370
    15
100
AcDbLine
 10
428.3974032969
 20
339.031709688
 30
0.0
 11
427.716569242
 21
313.0317091516
 31
0.0
  0
LINE
  5
145
330
1F
100
AcDbEntity
  8
0
  6
Continuous
 62
     7
370
    15
100
AcDbLine
 10
452.0357355596
 20
339.031709688
 30
0.0
 11
428.3974032969
 21
339.031709688
 31
0.0
  0
LINE
  5
146
330
1F
100
AcDbEntity
  8
0
  6
Continuous
 62
     7
370
    15
100
AcDbLine
 10
452.0357355596
 20
339.031709688
 30
0.0
 11
452.7165696145
 21
313.0317091516
 31
0.0
  0
LINE
  5
147
330
1F
100
AcDbEntity
  8
0
  6
Continuous
 62
     7
370
    15
100
AcDbLine
 10
445.7165693984
 20
313.0317091516
 30
0.0
 11
452.7165696145
 21
313.0317091516
 31
0.0
  0
LINE
  5
148
330
1F
100
AcDbEntity
  8
0
  6
Continuous
 62
     7
370
    15
100
AcDbLine
 10
445.7165693984
 20
313.0317091516
 30
0.0
 11
445.7165693984
 21
250.5317091516
 31
0.0
  0
LINE
  5
149
330
1F
100
AcDbEntity
  8
0
  6
Continuous
 62
     7
370
    15
100
AcDbLine
 10
440.2165694282
 20
313.0317091516
 30
0.0
 11
445.7165693984
 21
313.0317091516
 31
0.0
  0
LINE
  5
14A
330
1F
100
AcDbEntity
  8
0
  6
Continuous
 62
     7
370
    15
100
AcDbLine
 10
434.716569458
 20
313.0317091516
 30
0.0
 11
434.716569458
 21
250.5317091516
 31
0.0
  0
LINE
  5
14B
330
1F
100
AcDbEntity
  8
0
  6
Continuous
 62
     7
370
    15
100
AcDbLine
 10
434.716569458
 20
313.0317091516
 30
0.0
 11
440.2165694282
 21
313.0317091516
 31
0.0
  0
SPLINE
  5
14C
330
1F
100
AcDbEntity
  8
0
  6
Continuous
 62
     7
370
    15
100
AcDbSpline
210
0.0
220
0.0
230
1.0
 70
     8
 71
     3
 72
    16
 73
    12
 74
     0
 42
0.00000001
 43
0.00000001
 12
1.0
 22
0.0
 32
0.0
 13
1.0
 23
0.0
 33
0.0
 40
0.0
 40
0.0
 40
0.0
 40
0.0
 40
0.2500000000000006
 40
0.2500000000000006
 40
0.5000000000000012
 40
0.5000000000000012
 40
0.7500000000000018
 40
0.7500000000000018
 40
0.8750000000000009
 40
0.8750000000000009
 40
1.0
 40
1.0
 40
1.0
 40
1.0
 10
434.716569428238
 20
284.9763389599479
 30
0.0
 10
434.4099084604441
 20
284.8084572334154
 30
0.0
 10
434.1078385818615
 20
284.6502018376557
 30
0.0
 10
433.5125993934457
 20
284.3576172484829
 30
0.0
 10
433.2176013875251
 20
284.2225482763492
 30
0.0
 10
432.6483696292823
 20
283.98847944696
 30
0.0
 10
432.373665697544
 20
283.8890438885711
 30
0.0
 10
431.9766130660701
 20
283.7723628528846
 30
0.0
 10
431.8467668487551
 20
283.7389100816986
 30
0.0
 10
431.5921558428529
 20
283.6843931557209
 30
0.0
 10
431.4668401498329
 20
283.6632879781849
 30
0.0
 10
431.345976216546
 20
283.6495399864264
 30
0.0
  0
ELLIPSE
  5
14D
330
1F
100
AcDbEntity
  8
0
  6
Continuous
 62
     7
370
    15
100
AcDbEllipse
 10
440.2165694282
 20
283.0526146324
 30
0.0
 11
11.19100288506769
 21
0.0
 31
0.0
210
0.0
220
0.0
230
1.0
 40
0.0874893018
 41
2.485946252038924
 42
3.860064259164727
  0
ELLIPSE
  5
14E
330
1F
100
AcDbEntity
  8
0
  6
Continuous
 62
     7
370
    15
100
AcDbEllipse
 10
440.2165694282
 20
283.0526146324
 30
0.0
 11
11.19100288506769
 21
0.0
 31
0.0
210
0.0
220
0.0
230
1.0
 40
0.0874893018
 41
5.564713701604893
 42
6.9388317087304
  0
SPLINE
  5
14F
330
1F
100
AcDbEntity
  8
0
  6
Continuous
 62
     7
370
    15
100
AcDbSpline
210
0.0
220
0.0
230
1.0
 70
     8
 71
     3
 72
    16
 73
    12
 74
     0
 42
0.00000001
 43
0.00000001
 12
1.0
 22
0.0
 32
0.0
 13
1.0
 23
0.0
 33
0.0
 40
0.0
 40
0.0
 40
0.0
 40
0.0
 40
0.2500000000000006
 40
0.2500000000000006
 40
0.5000000000000012
 40
0.5000000000000012
 40
0.7500000000000018
 40
0.7500000000000018
 40
0.8750000000000009
 40
0.8750000000000009
 40
1.0
 40
1.0
 40
1.0
 40
1.0
 10
445.716569428238
 20
284.9763389599479
 30
0.0
 10
446.0232303960318
 20
284.8084572334154
 30
0.0
 10
446.3253002746144
 20
284.6502018376557
 30
0.0
 10
446.9205394630302
 20
284.3576172484829
 30
0.0
 10
447.2155374689508
 20
284.2225482763492
 30
0.0
 10
447.7847692271936
 20
283.98847944696
 30
0.0
 10
448.0594731589318
 20
283.8890438885711
 30
0.0
 10
448.4565257904058
 20
283.7723628528846
 30
0.0
 10
448.5863720077209
 20
283.7389100816986
 30
0.0
 10
448.840983013623
 20
283.6843931557209
 30
0.0
 10
448.9662987066429
 20
283.6632879781849
 30
0.0
 10
449.0871626399299
 20
283.6495399864264
 30
0.0
  0
LINE
  5
150
330
1F
100
AcDbEntity
  8
0
  6
Continuous
 62
     7
370
    15
100
AcDbLine
 10
434.716569458
 20
283.6495399049
 30
0.0
 11
431.3459761561
 21
283.6495399049
 31
0.0
  0
LINE
  5
151
330
1F
100
AcDbEntity
  8
0
  6
Continuous
 62
     7
370
    15
100
AcDbLine
 10
445.7165693984
 20
283.6495399049
 30
0.0
 11
449.0871627004
 21
283.6495399049
 31
0.0
  0
ELLIPSE
  5
152
330
1F
100
AcDbEntity
  8
0
  6
Continuous
 62
     7
370
    15
100
AcDbEllipse
 10
440.2165694282
 20
278.6744414798
 30
0.0
 11
43.49999999999994
 21
0.0
 31
0.0
210
0.0
220
0.0
230
1.0
 40
0.0874886635
 41
1.697572430342191
 42
1.765699885489941
  0
ELLIPSE
  5
153
330
1F
100
AcDbEntity
  8
0
  6
Continuous
 62
     7
370
    15
100
AcDbEllipse
 10
440.2165694282
 20
278.6744414798
 30
0.0
 11
43.49999999999994
 21
0.0
 31
0.0
210
0.0
220
0.0
230
1.0
 40
0.0874886635
 41
1.375892768099855
 42
1.444020223247604
  0
CIRCLE
  5
154
330
1F
100
AcDbEntity
  8
0
  6
Continuous
 62
     7
370
    15
100
AcDbCircle
 10
440.2165694282
 20
213.0317076614
 30
0.0
 40
24.88743663806775
  0
LINE
  5
155
330
1F
100
AcDbEntity
  8
0
  6
Continuous
 62
     7
370
    15
100
AcDbLine
 10
395.6531791137
 20
303.0317112377
 30
0.0
 11
428.1531788529
 21
303.0317112377
 31
0.0
  0
LINE
  5
156
330
1F
100
AcDbEntity
  8
0
  6
Continuous
 62
     7
370
    15
100
AcDbLine
 10
395.6531791137
 20
303.0317112377
 30
0.0
 11
395.2165676401
 21
313.0317091516
 31
0.0
  0
LINE
  5
157
330
1F
100
AcDbEntity
  8
0
  6
Continuous
 62
     7
370
    15
100
AcDbLine
 10
395.2165676401
 20
313.0317091516
 30
0.0
 11
427.716569242
 21
313.0317091516
 31
0.0
  0
LINE
  5
158
330
1F
100
AcDbEntity
  8
0
  6
Continuous
 62
     7
370
    15
100
AcDbLine
 10
485.2165712164
 20
313.0317091516
 30
0.0
 11
452.7165696145
 21
313.0317091516
 31
0.0
  0
LINE
  5
159
330
1F
100
AcDbEntity
  8
0
  6
Continuous
 62
     7
370
    15
100
AcDbLine
 10
484.7799597428
 20
303.0317112377
 30
0.0
 11
485.2165712164
 21
313.0317091516
 31
0.0
  0
LINE
  5
15A
330
1F
100
AcDbEntity
  8
0
  6
Continuous
 62
     7
370
    15
100
AcDbLine
 10
484.7799597428
 20
303.0317112377
 30
0.0
 11
452.2799600036
 21
303.0317112377
 31
0.0
  0
LINE
  5
15B
330
1F
100
AcDbEntity
  8
0
  6
Continuous
 62
     7
370
    15
100
AcDbLine
 10
395.2165676401
 20
313.0317091516
 30
0.0
 11
395.4208178566
 21
320.8317070773
 31
0.0
  0
LINE
  5
15C
330
1F
100
AcDbEntity
  8
0
  6
Continuous
 62
     7
370
    15
100
AcDbLine
 10
395.4208178566
 20
320.8317070773
 30
0.0
 11
427.9208194585
 21
320.8317070773
 31
0.0
  0
LINE
  5
15D
330
1F
100
AcDbEntity
  8
0
  6
Continuous
 62
     7
370
    15
100
AcDbLine
 10
485.0123209999
 20
320.8317070773
 30
0.0
 11
452.512319398
 21
320.8317070773
 31
0.0
  0
LINE
  5
15E
330
1F
100
AcDbEntity
  8
0
  6
Continuous
 62
     7
370
    15
100
AcDbLine
 10
485.2165712164
 20
313.0317091516
 30
0.0
 11
485.0123209999
 21
320.8317070773
 31
0.0
  0
SPLINE
  5
15F
330
1F
100
AcDbEntity
  8
0
  6
Continuous
 62
     7
370
    15
100
AcDbSpline
210
0.0
220
0.0
230
1.0
 70
    24
 71
     3
 72
     8
 73
     4
 74
     0
 42
0.00000001
 43
0.00000001
 12
1.0
 22
0.0
 32
0.0
 13
1.0
 23
0.0
 33
0.0
 40
0.0
 40
0.0
 40
0.0
 40
0.0
 40
1.0
 40
1.0
 40
1.0
 40
1.0
 10
402.716569428238
 20
301.1390778621459
 30
0.0
 10
400.3664060529099
 20
301.7688022406463
 30
0.0
 10
398.0116169139338
 20
302.3997660887805
 30
0.0
 10
395.6531788573231
 20
303.0317076614481
 30
0.0
  0
LINE
  5
160
330
1F
100
AcDbEntity
  8
0
  6
Continuous
 62
     7
370
    15
100
AcDbLine
 10
402.7165679381
 20
301.6749754122
 30
0.0
 11
428.2124146939
 21
301.6749754122
 31
0.0
  0
LINE
  5
161
330
1F
100
AcDbEntity
  8
0
  6
Continuous
 62
     7
370
    15
100
AcDbLine
 10
477.7165709184
 20
301.6749754122
 30
0.0
 11
452.2207241626
 21
301.6749754122
 31
0.0
  0
SPLINE
  5
162
330
1F
100
AcDbEntity
  8
0
  6
Continuous
 62
     7
370
    15
100
AcDbSpline
210
0.0
220
0.0
230
1.0
 70
    24
 71
     3
 72
     8
 73
     4
 74
     0
 42
0.00000001
 43
0.00000001
 12
1.0
 22
0.0
 32
0.0
 13
1.0
 23
0.0
 33
0.0
 40
0.0
 40
0.0
 40
0.0
 40
0.0
 40
1.0
 40
1.0
 40
1.0
 40
1.0
 10
477.7165694282379
 20
301.1390778621459
 30
0.0
 10
480.066732803566
 20
301.7688022406463
 30
0.0
 10
482.4215219425421
 20
302.3997660887805
 30
0.0
 10
484.7799599991528
 20
303.0317076614481
 30
0.0
  0
LWPOLYLINE
  5
163
330
1F
100
AcDbEntity
  8
0
  6
Continuous
 62
     7
370
    15
100
AcDbPolyline
 90
        4
 70
   128
 43
0.0
 10
404.5686891423
 20
226.2966077349
 10
404.0097875641
 20
228.382455515
 10
403.3487161742
 20
230.8496091089
 10
402.7165679381
 20
233.2088112405
  0
LINE
  5
164
330
1F
100
AcDbEntity
  8
0
  6
Continuous
 62
     7
370
    15
100
AcDbLine
 10
402.7165679381
 20
233.2088112405
 30
0.0
 11
402.7165679381
 21
301.6749754122
 31
0.0
  0
LINE
  5
165
330
1F
100
AcDbEntity
  8
0
  6
Continuous
 62
     7
370
    15
100
AcDbLine
 10
477.7165709184
 20
233.2088112405
 30
0.0
 11
477.7165709184
 21
301.6749754122
 31
0.0
  0
LWPOLYLINE
  5
166
330
1F
100
AcDbEntity
  8
0
  6
Continuous
 62
     7
370
    15
100
AcDbPolyline
 90
        4
 70
   128
 43
0.0
 10
475.8628329382
 20
226.2905690393
 10
476.2727601574
 20
227.8204349375
 10
477.0124798761
 20
230.5811106732
 10
477.7165709184
 20
233.2088112405
  0
LINE
  5
167
330
1F
100
AcDbEntity
  8
0
  6
Continuous
 62
     7
370
    15
100
AcDbLine
 10
400.2380242691
 20
324.9252944759
 30
0.0
 11
428.0280137555
 21
324.9252944759
 31
0.0
  0
LINE
  5
168
330
1F
100
AcDbEntity
  8
0
  6
Continuous
 62
     7
370
    15
100
AcDbLine
 10
480.1951145873
 20
324.9252944759
 30
0.0
 11
452.405125101
 21
324.9252944759
 31
0.0
  0
LINE
  5
169
330
1F
100
AcDbEntity
  8
0
  6
Continuous
 62
     7
370
    15
100
AcDbLine
 10
428.2204501451
 20
332.2741224936
 30
0.0
 11
412.9665700839
 21
332.2741224936
 31
0.0
  0
LINE
  5
16A
330
1F
100
AcDbEntity
  8
0
  6
Continuous
 62
     7
370
    15
100
AcDbLine
 10
452.2126887114
 20
332.2741224936
 30
0.0
 11
467.4665687726
 21
332.2741224936
 31
0.0
  0
LINE
  5
16B
330
1F
100
AcDbEntity
  8
0
  6
Continuous
 62
     7
370
    15
100
AcDbLine
 10
430.9292940543
 20
352.6929750612
 30
0.0
 11
423.1350647406
 21
352.6929750612
 31
0.0
  0
SPLINE
  5
16C
330
1F
100
AcDbEntity
  8
0
  6
Continuous
 62
     7
370
    15
100
AcDbSpline
210
0.0
220
0.0
230
1.0
 70
     8
 71
     3
 72
    19
 73
    15
 74
     0
 42
0.00000001
 43
0.00000001
 12
1.0
 22
0.0
 32
0.0
 13
1.0
 23
0.0
 33
0.0
 40
0.0
 40
0.0
 40
0.0
 40
0.0
 40
0.0294016711970725
 40
0.103732236388897
 40
0.1900700290889081
 40
0.2764062545496428
 40
0.3652868047190105
 40
0.4541657803709906
 40
0.5398883504222655
 40
0.6256090772120064
 40
0.7138897525751543
 40
0.802171253451976
 40
0.9006060993862837
 40
1.0
 40
1.0
 40
1.0
 40
1.0
 10
432.2003351644602
 20
354.0327682664973
 30
0.0
 10
432.185674824637
 20
354.0332591829518
 30
0.0
 10
432.1339515798634
 20
354.0349911886382
 30
0.0
 10
432.0392900855551
 20
354.0205481429736
 30
0.0
 10
431.9172220667809
 20
353.9867777755995
 30
0.0
 10
431.7899283644507
 20
353.9284819762519
 30
0.0
 10
431.6643601874399
 20
353.8482025690973
 30
0.0
 10
431.5429851377294
 20
353.7468204631362
 30
0.0
 10
431.4277999117137
 20
353.6265171277009
 30
0.0
 10
431.3182987193781
 20
353.4877188824249
 30
0.0
 10
431.2140845415812
 20
353.3291207645029
 30
0.0
 10
431.1126469051168
 20
353.1442629651385
 30
0.0
 10
431.0155872597388
 20
352.9342180731895
 30
0.0
 10
430.9581512708256
 20
352.7736488732178
 30
0.0
 10
430.9292940543023
 20
352.692975061236
 30
0.0
  0
SPLINE
  5
16D
330
1F
100
AcDbEntity
  8
0
  6
Continuous
 62
     7
370
    15
100
AcDbSpline
210
0.0
220
0.0
230
1.0
 70
     8
 71
     3
 72
    19
 73
    15
 74
     0
 42
0.00000001
 43
0.00000001
 12
1.0
 22
0.0
 32
0.0
 13
1.0
 23
0.0
 33
0.0
 40
0.0
 40
0.0
 40
0.0
 40
0.0
 40
0.1076714973765992
 40
0.2166061398792464
 40
0.2998369834561243
 40
0.3830678908452502
 40
0.4686477822778403
 40
0.5542279478639965
 40
0.6386607320528765
 40
0.7230953299815638
 40
0.809914842501896
 40
0.8967344884253748
 40
0.9697154096144409
 40
1.0
 40
1.0
 40
1.0
 40
1.0
 10
466.5853476271954
 20
352.692975061236
 30
0.0
 10
466.5225169825062
 20
352.780350495576
 30
0.0
 10
466.3961185971967
 20
352.9561264066925
 30
0.0
 10
466.1891150956059
 20
353.1737329161942
 30
0.0
 10
465.9826855090841
 20
353.355725736463
 30
0.0
 10
465.7803910112524
 20
353.5060002496487
 30
0.0
 10
465.5643592644929
 20
353.6401974133623
 30
0.0
 10
465.3367909223176
 20
353.7564254172552
 30
0.0
 10
465.1013993906675
 20
353.8528609638598
 30
0.0
 10
464.8577398721507
 20
353.9300392295698
 30
0.0
 10
464.6061383060423
 20
353.9874615928509
 30
0.0
 10
464.3619766187646
 20
354.0208734122849
 30
0.0
 10
464.1723658864947
 20
354.0350622219851
 30
0.0
 10
464.0692384567847
 20
354.0332884570572
 30
0.0
 10
464.0389943615523
 20
354.0327682664973
 30
0.0
  0
LINE
  5
16E
330
1F
100
AcDbEntity
  8
0
  6
Continuous
 62
     7
370
    15
100
AcDbLine
 10
466.966569622
 20
352.6929750612
 30
0.0
 11
466.5853476272
 21
352.6929750612
 31
0.0
  0
LINE
  5
16F
330
1F
100
AcDbEntity
  8
0
  6
Continuous
 62
     7
370
    15
100
AcDbLine
 10
423.1350647406
 20
352.6929750612
 30
0.0
 11
423.1350647406
 21
373.0317040852
 31
0.0
  0
LINE
  5
170
330
1F
100
AcDbEntity
  8
0
  6
Continuous
 62
     7
370
    15
100
AcDbLine
 10
430.9292940543
 20
373.0317040852
 30
0.0
 11
423.1350647406
 21
373.0317040852
 31
0.0
  0
LINE
  5
171
330
1F
100
AcDbEntity
  8
0
  6
Continuous
 62
     7
370
    15
100
AcDbLine
 10
430.9292940543
 20
352.6929750612
 30
0.0
 11
430.9292940543
 21
373.0317040852
 31
0.0
  0
LINE
  5
172
330
1F
100
AcDbEntity
  8
0
  6
Continuous
 62
     7
370
    15
100
AcDbLine
 10
430.9292940543
 20
382.031707423
 30
0.0
 11
423.1350647406
 21
382.031707423
 31
0.0
  0
LINE
  5
173
330
1F
100
AcDbEntity
  8
0
  6
Continuous
 62
     7
370
    15
100
AcDbLine
 10
430.9292940543
 20
379.0317013434
 30
0.0
 11
430.9292940543
 21
382.031707423
 31
0.0
  0
LINE
  5
174
330
1F
100
AcDbEntity
  8
0
  6
Continuous
 62
     7
370
    15
100
AcDbLine
 10
423.1350647406
 20
379.0317013434
 30
0.0
 11
423.1350647406
 21
382.031707423
 31
0.0
  0
LINE
  5
175
330
1F
100
AcDbEntity
  8
0
  6
Continuous
 62
     7
370
    15
100
AcDbLine
 10
423.1350647406
 20
379.0317013434
 30
0.0
 11
430.9292940543
 21
379.0317013434
 31
0.0
  0
LINE
  5
176
330
1F
100
AcDbEntity
  8
0
  6
Continuous
 62
     7
370
    15
100
AcDbLine
 10
424.6595615641
 20
385.0317135027
 30
0.0
 11
432.4537899465
 21
385.0317135027
 31
0.0
  0
SPLINE
  5
177
330
1F
100
AcDbEntity
  8
0
  6
Continuous
 62
     7
370
    15
100
AcDbSpline
210
0.0
220
0.0
230
1.0
 70
     8
 71
     3
 72
     8
 73
     4
 74
     0
 42
0.00000001
 43
0.00000001
 12
1.0
 22
0.0
 32
0.0
 13
1.0
 23
0.0
 33
0.0
 40
0.0
 40
0.0
 40
0.0
 40
0.0
 40
0.0042774229446188
 40
0.0042774229446188
 40
0.0042774229446188
 40
0.0042774229446188
 10
432.4537898778461
 20
385.0317076614481
 30
0.0
 10
431.9451045900602
 20
384.0327659406035
 30
0.0
 10
431.436998157435
 20
383.0326445370997
 30
0.0
 10
430.9292943016873
 20
382.0317076614082
 30
0.0
  0
SPLINE
  5
178
330
1F
100
AcDbEntity
  8
0
  6
Continuous
 62
     7
370
    15
100
AcDbSpline
210
0.0
220
0.0
230
1.0
 70
     8
 71
     3
 72
     8
 73
     4
 74
     0
 42
0.00000001
 43
0.00000001
 12
1.0
 22
0.0
 32
0.0
 13
1.0
 23
0.0
 33
0.0
 40
0.0
 40
0.0
 40
0.0
 40
0.0
 40
0.0042774229446188
 40
0.0042774229446188
 40
0.0042774229446188
 40
0.0042774229446188
 10
423.1350656676274
 20
382.0317076614082
 30
0.0
 10
423.642769523375
 20
383.0326445370997
 30
0.0
 10
424.1508759560003
 20
384.0327659406035
 30
0.0
 10
424.6595612437862
 20
385.0317076614481
 30
0.0
  0
LINE
  5
179
330
1F
100
AcDbEntity
  8
0
  6
Continuous
 62
     7
370
    15
100
AcDbLine
 10
432.4537899465
 20
385.0317135027
 30
0.0
 11
436.4366074678
 21
385.0317135027
 31
0.0
  0
SPLINE
  5
17A
330
1F
100
AcDbEntity
  8
0
  6
Continuous
 62
     7
370
    15
100
AcDbSpline
210
0.0
220
0.0
230
1.0
 70
     8
 71
     3
 72
     8
 73
     4
 74
     0
 42
0.00000001
 43
0.00000001
 12
1.0
 22
0.0
 32
0.0
 13
1.0
 23
0.0
 33
0.0
 40
0.0
 40
0.0
 40
0.0
 40
0.0
 40
1.0
 40
1.0
 40
1.0
 40
1.0
 10
436.4366074788759
 20
385.0317076614481
 30
0.0
 10
435.5633769438592
 20
375.5268414910387
 30
0.0
 10
434.7008126702122
 20
366.018095102166
 30
0.0
 10
433.8424711943471
 20
356.5078125257433
 30
0.0
  0
SPLINE
  5
17B
330
1F
100
AcDbEntity
  8
0
  6
Continuous
 62
     7
370
    15
100
AcDbSpline
210
0.0
220
0.0
230
1.0
 70
     8
 71
     3
 72
    19
 73
    15
 74
     0
 42
0.00000001
 43
0.00000001
 12
1.0
 22
0.0
 32
0.0
 13
1.0
 23
0.0
 33
0.0
 40
0.0
 40
0.0
 40
0.0
 40
0.0
 40
0.0824228696083887
 40
0.1651142149561129
 40
0.2475454368461062
 40
0.3299287116483097
 40
0.4125706689247859
 40
0.4949622297697145
 40
0.5785502606331877
 40
0.6623978812819135
 40
0.7459921385442908
 40
0.8312631741344884
 40
0.9168023645635416
 40
1.0
 40
1.0
 40
1.0
 40
1.0
 10
433.8424710676995
 20
356.5078064373118
 30
0.0
 10
433.8307342378087
 20
356.3989082299783
 30
0.0
 10
433.8072223476902
 20
356.1807571015424
 30
0.0
 10
433.7488838931603
 20
355.8664368433043
 30
0.0
 10
433.6747951955159
 20
355.5663054635526
 30
0.0
 10
433.5836774527759
 20
355.2853707484292
 30
0.0
 10
433.4778432885004
 20
355.0261356500841
 30
0.0
 10
433.3579093970459
 20
354.7903328816818
 30
0.0
 10
433.2248179864985
 20
354.5820173454663
 30
0.0
 10
433.0804996027593
 20
354.4031760948503
 30
0.0
 10
432.9262983671892
 20
354.2554648778064
 30
0.0
 10
432.7636410447057
 20
354.1435281757865
 30
0.0
 10
432.5961681449441
 20
354.0651191550296
 30
0.0
 10
432.4826032908388
 20
354.0447191643382
 30
0.0
 10
432.4266088315275
 20
354.0346607139689
 30
0.0
  0
LINE
  5
17C
330
1F
100
AcDbEntity
  8
0
  6
Continuous
 62
     7
370
    15
100
AcDbLine
 10
432.5811213003
 20
379.0317013434
 30
0.0
 11
432.5811213003
 21
373.0317040852
 31
0.0
  0
LINE
  5
17D
330
1F
100
AcDbEntity
  8
0
  6
Continuous
 62
     7
370
    15
100
AcDbLine
 10
432.5811213003
 20
373.0317040852
 30
0.0
 11
430.9292940543
 21
373.0317040852
 31
0.0
  0
LINE
  5
17E
330
1F
100
AcDbEntity
  8
0
  6
Continuous
 62
     7
370
    15
100
AcDbLine
 10
430.9292940543
 20
379.0317013434
 30
0.0
 11
432.5811213003
 21
379.0317013434
 31
0.0
  0
LINE
  5
17F
330
1F
100
AcDbEntity
  8
0
  6
Continuous
 62
     7
370
    15
100
AcDbLine
 10
460.7589936004
 20
356.5078064373
 30
0.0
 11
433.8424710677
 21
356.5078064373
 31
0.0
  0
SPLINE
  5
180
330
1F
100
AcDbEntity
  8
0
  6
Continuous
 62
     7
370
    15
100
AcDbSpline
210
0.0
220
0.0
230
1.0
 70
     8
 71
     3
 72
    21
 73
    17
 74
     0
 42
0.00000001
 43
0.00000001
 12
1.0
 22
0.0
 32
0.0
 13
1.0
 23
0.0
 33
0.0
 40
0.0
 40
0.0
 40
0.0
 40
0.0
 40
0.0554501071679384
 40
0.1492152444542187
 40
0.210529659850958
 40
0.2718439012987934
 40
0.3349489572654086
 40
0.3980534649455726
 40
0.4591711948386759
 40
0.52028991004242
 40
0.5832375168549743
 40
0.6461856988374763
 40
0.7250239479248083
 40
0.8048511844832923
 40
0.9014757261288127
 40
1.0
 40
1.0
 40
1.0
 40
1.0
 10
463.7547956899729
 20
354.0346607139689
 30
0.0
 10
463.6768234013925
 20
354.0345627893275
 30
0.0
 10
463.4670013704641
 20
354.0342992758727
 30
0.0
 10
463.1735520579006
 20
354.0822978402894
 30
0.0
 10
462.8787005363854
 20
354.1566380084057
 30
0.0
 10
462.6318222465561
 20
354.2423137532787
 30
0.0
 10
462.3907700758841
 20
354.3493526357189
 30
0.0
 10
462.1600011401708
 20
354.4765704620442
 30
0.0
 10
461.9432646489847
 20
354.6214266891537
 30
0.0
 10
461.7395648182959
 20
354.7837556627404
 30
0.0
 10
461.5486694126213
 20
354.9647819117347
 30
0.0
 10
461.3577730189771
 20
355.1803749815825
 30
0.0
 10
461.174924608919
 20
355.4332803181867
 30
0.0
 10
460.9989424638966
 20
355.7463665852123
 30
0.0
 10
460.8489297854005
 20
356.1044510555026
 30
0.0
 10
460.7891662571476
 20
356.3724848925709
 30
0.0
 10
460.758993600401
 20
356.5078064373118
 30
0.0
  0
LINE
  5
181
330
1F
100
AcDbEntity
  8
0
  6
Continuous
 62
     7
370
    15
100
AcDbLine
 10
424.7868929178
 20
373.0317040852
 30
0.0
 11
424.7868929178
 21
379.0317013434
 31
0.0
  0
SPLINE
  5
182
330
1F
100
AcDbEntity
  8
0
  6
Continuous
 62
     7
370
    15
100
AcDbSpline
210
0.0
220
0.0
230
1.0
 70
     8
 71
     3
 72
     8
 73
     4
 74
     0
 42
0.00000001
 43
0.00000001
 12
1.0
 22
0.0
 32
0.0
 13
1.0
 23
0.0
 33
0.0
 40
0.0
 40
0.0
 40
0.0
 40
0.0
 40
1.0
 40
1.0
 40
1.0
 40
1.0
 10
460.7589945300795
 20
356.5078125257434
 30
0.0
 10
459.0423109256874
 20
366.0180987178589
 30
0.0
 10
457.3171803075308
 20
375.5268563134339
 30
0.0
 10
455.570721961022
 20
385.0317076614481
 30
0.0
  0
LINE
  5
183
330
1F
100
AcDbEntity
  8
0
  6
Continuous
 62
     7
370
    15
100
AcDbLine
 10
455.5707221971
 20
385.0317135027
 30
0.0
 11
436.4366074678
 21
385.0317135027
 31
0.0
  0
LINE
  5
184
330
1F
100
AcDbEntity
  8
0
  6
Continuous
 62
     7
370
    15
100
AcDbLine
 10
424.6595615641
 20
385.0317135027
 30
0.0
 11
424.2165686683
 21
385.0317135027
 31
0.0
  0
LWPOLYLINE
  5
185
330
1F
100
AcDbEntity
  8
0
  6
Continuous
 62
     7
370
    15
100
AcDbPolyline
 90
       16
 70
   128
 43
0.0
 10
432.5384364584
 20
391.0317107609
 10
432.3718121395
 20
390.8790185621
 10
432.2156889484
 20
390.7359674147
 10
432.0702759669
 20
390.6027212313
 10
431.9357687728
 20
390.4794588259
 10
431.8123471112
 20
390.3663739136
 10
431.700174895
 20
390.2635857037
 10
431.5994039298
 20
390.1712432078
 10
431.5101692573
 20
390.0894805363
 10
431.4325882242
 20
390.0183870962
 10
431.3667670012
 20
389.9580671957
 10
431.3127922014
 20
389.9086102417
 10
431.2707373993
 20
389.8700758389
 10
431.2406575427
 20
389.8425086907
 10
431.2225936101
 20
389.8259535006
 10
431.2165698157
 20
389.8204400709
  0
LWPOLYLINE
  5
186
330
1F
100
AcDbEntity
  8
0
  6
Continuous
 62
     7
370
    15
100
AcDbPolyline
 90
       10
 70
   128
 43
0.0
 10
432.5384364584
 20
391.0317107609
 10
432.6644835182
 20
393.9186617306
 10
432.7957469159
 20
396.9250902107
 10
432.9321367786
 20
400.0489249399
 10
433.0735585772
 20
403.288020151
 10
433.2199145229
 20
406.6401257685
 10
433.371103567
 20
410.1029172114
 10
433.5270209358
 20
413.6740251949
 10
433.6875595273
 20
417.3509612253
 10
433.8526085139
 20
421.1311921051
  0
ELLIPSE
  5
187
330
1F
100
AcDbEntity
  8
0
  6
Continuous
 62
     7
370
    15
100
AcDbEllipse
 10
440.2165694282
 20
566.8898657843
 30
0.0
 11
0.0
 21
206.1338899358803
 31
0.0
210
0.0
220
0.0
230
1.0
 40
0.0436609429
 41
2.356194490192345
 42
2.592744264804702
  0
ELLIPSE
  5
188
330
1F
100
AcDbEntity
  8
0
  6
Continuous
 62
     7
370
    15
100
AcDbEllipse
 10
440.2165694282
 20
398.0674202892
 30
0.0
 11
9.0
 21
-5.684341886080801E-14
 31
0.0
210
0.0
220
0.0
230
1.0
 40
0.916331174
 41
4.16354059159962
 42
5.261237369169797
  0
ELLIPSE
  5
189
330
1F
100
AcDbEntity
  8
0
  6
Continuous
 62
     7
370
    15
100
AcDbEllipse
 10
440.2165694282
 20
566.8898657843
 30
0.0
 11
0.0
 21
206.1338899358803
 31
0.0
210
0.0
220
0.0
230
1.0
 40
0.0436609429
 41
3.690441042375117
 42
3.926990816987401
  0
LWPOLYLINE
  5
18A
330
1F
100
AcDbEntity
  8
0
  6
Continuous
 62
     7
370
    15
100
AcDbPolyline
 90
       10
 70
   128
 43
0.0
 10
446.5805303426
 20
421.1311921051
 10
446.7455793292
 20
417.3509612253
 10
446.9061179207
 20
413.6740251949
 10
447.0620352895
 20
410.1029172114
 10
447.2132243336
 20
406.6401257685
 10
447.3595802792
 20
403.288020151
 10
447.5010020779
 20
400.0489249399
 10
447.6373919406
 20
396.9250902107
 10
447.7686553382
 20
393.9186617306
 10
447.8947023981
 20
391.0317107609
  0
LWPOLYLINE
  5
18B
330
1F
100
AcDbEntity
  8
0
  6
Continuous
 62
     7
370
    15
100
AcDbPolyline
 90
       16
 70
   128
 43
0.0
 10
449.2165690408
 20
389.8204400709
 10
449.2105452464
 20
389.8259535006
 10
449.1924813137
 20
389.8425086907
 10
449.1624014572
 20
389.8700758389
 10
449.120346655
 20
389.9086102417
 10
449.0663718552
 20
389.9580671957
 10
449.0005506323
 20
390.0183870962
 10
448.9229695992
 20
390.0894805363
 10
448.8337349267
 20
390.1712432078
 10
448.7329639615
 20
390.2635857037
 10
448.6207917453
 20
390.3663739136
 10
448.4973700837
 20
390.4794588259
 10
448.3628628896
 20
390.6027212313
 10
448.2174499081
 20
390.7359674147
 10
448.0613267169
 20
390.8790185621
 10
447.8947023981
 20
391.0317107609
  0
LINE
  5
18C
330
1F
100
AcDbEntity
  8
0
  6
Continuous
 62
     7
370
    15
100
AcDbLine
 10
435.5212233149
 20
391.0317107609
 30
0.0
 11
444.9119155415
 21
391.0317107609
 31
0.0
  0
LINE
  5
18D
330
1F
100
AcDbEntity
  8
0
  6
Continuous
 62
     7
370
    15
100
AcDbLine
 10
479.2165702329
 20
294.8245614341
 30
0.0
 11
479.2165702329
 21
296.6031342319
 31
0.0
  0
LINE
  5
18E
330
1F
100
AcDbEntity
  8
0
  6
Continuous
 62
     7
370
    15
100
AcDbLine
 10
479.2165702329
 20
294.8245614341
 30
0.0
 11
477.7165709184
 21
294.8245614341
 31
0.0
  0
LINE
  5
18F
330
1F
100
AcDbEntity
  8
0
  6
Continuous
 62
     7
370
    15
100
AcDbLine
 10
479.2165702329
 20
296.6031342319
 30
0.0
 11
477.7165709184
 21
296.6031342319
 31
0.0
  0
LINE
  5
190
330
1F
100
AcDbEntity
  8
0
  6
Continuous
 62
     7
370
    15
100
AcDbLine
 10
479.2165702329
 20
294.1388472489
 30
0.0
 11
477.7165709184
 21
294.1388472489
 31
0.0
  0
LINE
  5
191
330
1F
100
AcDbEntity
  8
0
  6
Continuous
 62
     7
370
    15
100
AcDbLine
 10
479.2165702329
 20
292.424565511
 30
0.0
 11
479.2165702329
 21
294.1388472489
 31
0.0
  0
LINE
  5
192
330
1F
100
AcDbEntity
  8
0
  6
Continuous
 62
     7
370
    15
100
AcDbLine
 10
479.2165702329
 20
292.424565511
 30
0.0
 11
477.7165709184
 21
292.424565511
 31
0.0
  0
LINE
  5
193
330
1F
100
AcDbEntity
  8
0
  6
Continuous
 62
     7
370
    15
100
AcDbLine
 10
479.2165702329
 20
288.0317106417
 30
0.0
 11
479.2165702329
 21
292.424565511
 31
0.0
  0
LINE
  5
194
330
1F
100
AcDbEntity
  8
0
  6
Continuous
 62
     7
370
    15
100
AcDbLine
 10
479.2165702329
 20
288.0317106417
 30
0.0
 11
477.7165709184
 21
288.0317106417
 31
0.0
  0
LINE
  5
195
330
1F
100
AcDbEntity
  8
0
  6
Continuous
 62
     7
370
    15
100
AcDbLine
 10
433.8526085139
 20
421.1311921051
 30
0.0
 11
434.0665696309
 21
426.0317071846
 31
0.0
  0
LINE
  5
196
330
1F
100
AcDbEntity
  8
0
  6
Continuous
 62
     7
370
    15
100
AcDbLine
 10
434.0665696309
 20
426.0317071846
 30
0.0
 11
446.3665692256
 21
426.0317071846
 31
0.0
  0
LINE
  5
197
330
1F
100
AcDbEntity
  8
0
  6
Continuous
 62
     7
370
    15
100
AcDbLine
 10
446.5805303426
 20
421.1311921051
 30
0.0
 11
446.3665692256
 21
426.0317071846
 31
0.0
  0
LINE
  5
198
330
1F
100
AcDbEntity
  8
0
  6
Continuous
 62
     7
370
    15
100
AcDbLine
 10
466.5853476272
 20
373.0317040852
 30
0.0
 11
463.2816949979
 21
373.0317040852
 31
0.0
  0
LINE
  5
199
330
1F
100
AcDbEntity
  8
0
  6
Continuous
 62
     7
370
    15
100
AcDbLine
 10
466.5853476272
 20
352.6929750612
 30
0.0
 11
466.5853476272
 21
373.0317040852
 31
0.0
  0
SPLINE
  5
19A
330
1F
100
AcDbEntity
  8
0
  6
Continuous
 62
     7
370
    15
100
AcDbSpline
210
0.0
220
0.0
230
1.0
 70
     8
 71
     3
 72
     8
 73
     4
 74
     0
 42
0.00000001
 43
0.00000001
 12
1.0
 22
0.0
 32
0.0
 13
1.0
 23
0.0
 33
0.0
 40
0.0
 40
0.0
 40
0.0
 40
0.0
 40
0.0042774229445205
 40
0.0042774229445205
 40
0.0042774229445205
 40
0.0042774229445205
 10
466.5853483153991
 20
382.031707661465
 30
0.0
 10
465.5699406039311
 20
383.0326445371376
 30
0.0
 10
464.5537277387079
 20
384.0327659406224
 30
0.0
 10
463.5363571631634
 20
385.0317076614481
 30
0.0
  0
LINE
  5
19B
330
1F
100
AcDbEntity
  8
0
  6
Continuous
 62
     7
370
    15
100
AcDbLine
 10
466.5853476272
 20
379.0317013434
 30
0.0
 11
466.5853476272
 21
382.031707423
 31
0.0
  0
LINE
  5
19C
330
1F
100
AcDbEntity
  8
0
  6
Continuous
 62
     7
370
    15
100
AcDbLine
 10
463.2816949979
 20
379.0317013434
 30
0.0
 11
466.5853476272
 21
379.0317013434
 31
0.0
  0
LINE
  5
19D
330
1F
100
AcDbEntity
  8
0
  6
Continuous
 62
     7
370
    15
100
AcDbLine
 10
463.2816949979
 20
373.0317040852
 30
0.0
 11
463.2816949979
 21
379.0317013434
 31
0.0
  0
LINE
  5
19E
330
1F
100
AcDbEntity
  8
0
  6
Continuous
 62
     7
370
    15
100
AcDbLine
 10
455.5707221971
 20
385.0317135027
 30
0.0
 11
463.5363577054
 21
385.0317135027
 31
0.0
  0
LINE
  5
19F
330
1F
100
AcDbEntity
  8
0
  6
Continuous
 62
     7
370
    15
100
AcDbLine
 10
466.966569622
 20
382.031707423
 30
0.0
 11
466.5853476272
 21
382.031707423
 31
0.0
  0
LINE
  5
1A0
330
1F
100
AcDbEntity
  8
0
  6
Continuous
 62
     7
370
    15
100
AcDbLine
 10
463.5363577054
 20
385.0317135027
 30
0.0
 11
463.9665691302
 21
385.0317135027
 31
0.0
  0
LINE
  5
1A1
330
1F
100
AcDbEntity
  8
0
  6
Continuous
 62
     7
370
    15
100
AcDbLine
 10
466.5853476272
 20
379.0317013434
 30
0.0
 11
466.966569622
 21
379.0317013434
 31
0.0
  0
LINE
  5
1A2
330
1F
100
AcDbEntity
  8
0
  6
Continuous
 62
     7
370
    15
100
AcDbLine
 10
466.966569622
 20
373.0317040852
 30
0.0
 11
466.5853476272
 21
373.0317040852
 31
0.0
  0
LINE
  5
1A3
330
1F
100
AcDbEntity
  8
0
  6
Continuous
 62
     7
370
    15
100
AcDbLine
 10
479.2165702329
 20
294.1388472489
 30
0.0
 11
479.2165702329
 21
294.8245614341
 31
0.0
  0
LINE
  5
1A4
330
1F
100
AcDbEntity
  8
0
  6
Continuous
 62
     8
370
    15
100
AcDbLine
 10
467.4665687726
 20
351.0346546343
 30
0.0
 11
412.9665700839
 21
351.0346546343
 31
0.0
  0
LINE
  5
1A5
330
1F
100
AcDbEntity
  8
0
  6
Continuous
 62
     8
370
    15
100
AcDbLine
 10
423.1350647406
 20
356.5078064373
 30
0.0
 11
419.1870374725
 21
356.5078064373
 31
0.0
  0
INSERT
  5
1B1
330
1F
100
AcDbEntity
  8
FORMAT
100
AcDbBlockReference
  2
SW_CENTERMARKSYMBOL_0
 10
440.2165694282
 20
213.0317076614
 30
0.0
  0
ARC
  5
1B2
330
1F
100
AcDbEntity
  8
0
  6
Continuous
 62
     7
370
    15
100
AcDbCircle
 10
269.0240654514
 20
113.7802800467
 30
0.0
 40
4.000000000000012
100
AcDbArc
 50
90.0
 51
135.0
  0
ARC
  5
1B3
330
1F
100
AcDbEntity
  8
0
  6
Continuous
 62
     7
370
    15
100
AcDbCircle
 10
177.5103569524
 20
113.7802800467
 30
0.0
 40
4.0
100
AcDbArc
 50
45.0
 51
90.0
  0
ARC
  5
1B4
330
1F
100
AcDbEntity
  8
0
  6
Continuous
 62
     7
370
    15
100
AcDbCircle
 10
269.0240654514
 20
46.7802800467
 30
0.0
 40
4.000000000000012
100
AcDbArc
 50
225.0
 51
270.0
  0
ARC
  5
1B5
330
1F
100
AcDbEntity
  8
0
  6
Continuous
 62
     7
370
    15
100
AcDbCircle
 10
177.5103569524
 20
46.7802800467
 30
0.0
 40
4.0
100
AcDbArc
 50
270.0
 51
315.0
  0
LINE
  5
1B6
330
1F
100
AcDbEntity
  8
0
  6
Continuous
 62
     7
370
    15
100
AcDbLine
 10
177.510357085
 20
117.7802815368
 30
0.0
 11
165.2672128708
 21
117.7802815368
 31
0.0
  0
LINE
  5
1B7
330
1F
100
AcDbEntity
  8
0
  6
Continuous
 62
     7
370
    15
100
AcDbLine
 10
281.2672095329
 20
117.7802815368
 30
0.0
 11
269.0240653188
 21
117.7802815368
 31
0.0
  0
LINE
  5
1B8
330
1F
100
AcDbEntity
  8
0
  6
Continuous
 62
     7
370
    15
100
AcDbLine
 10
165.2672128708
 20
42.7802785566
 30
0.0
 11
177.510357085
 21
42.7802785566
 31
0.0
  0
LINE
  5
1B9
330
1F
100
AcDbEntity
  8
0
  6
Continuous
 62
     7
370
    15
100
AcDbLine
 10
269.0240653188
 20
42.7802785566
 30
0.0
 11
281.2672095329
 21
42.7802785566
 31
0.0
  0
LINE
  5
1BA
330
1F
100
AcDbEntity
  8
0
  6
Continuous
 62
     7
370
    15
100
AcDbLine
 10
184.4956377477
 20
112.4518535366
 30
0.0
 11
180.3387837441
 21
116.6087075402
 31
0.0
  0
LINE
  5
1BB
330
1F
100
AcDbEntity
  8
0
  6
Continuous
 62
     7
370
    15
100
AcDbLine
 10
266.1956386597
 20
116.6087075402
 30
0.0
 11
262.038784656
 21
112.4518535366
 31
0.0
  0
LINE
  5
1BC
330
1F
100
AcDbEntity
  8
0
  6
Continuous
 62
     7
370
    15
100
AcDbLine
 10
180.3387837441
 20
43.9518525531
 30
0.0
 11
184.4956377477
 21
48.1087065568
 31
0.0
  0
LINE
  5
1BD
330
1F
100
AcDbEntity
  8
0
  6
Continuous
 62
     7
370
    15
100
AcDbLine
 10
262.038784656
 20
48.1087065568
 30
0.0
 11
266.1956386597
 21
43.9518525531
 31
0.0
  0
ARC
  5
1BE
330
1F
100
AcDbEntity
  8
0
  6
Continuous
 62
     7
370
    15
100
AcDbCircle
 10
259.2103569524
 20
115.2802800467
 30
0.0
 40
4.000000000000016
100
AcDbArc
 50
295.0505864814
 51
315.0
  0
ARC
  5
1BF
330
1F
100
AcDbEntity
  8
0
  6
Continuous
 62
     7
370
    15
100
AcDbCircle
 10
187.3240654514
 20
115.2802800467
 30
0.0
 40
4.000000000000012
100
AcDbArc
 50
225.0
 51
244.9494135186
  0
ARC
  5
1C0
330
1F
100
AcDbEntity
  8
0
  6
Continuous
 62
     7
370
    15
100
AcDbCircle
 10
187.3240654514
 20
45.2802800467
 30
0.0
 40
4.000000000000012
100
AcDbArc
 50
115.0505864814
 51
135.0
  0
ARC
  5
1C1
330
1F
100
AcDbEntity
  8
0
  6
Continuous
 62
     7
370
    15
100
AcDbCircle
 10
259.2103569524
 20
45.2802800467
 30
0.0
 40
4.000000000000012
100
AcDbArc
 50
45.0
 51
64.9494135186
  0
LINE
  5
1C2
330
1F
100
AcDbEntity
  8
0
  6
Continuous
 62
     7
370
    15
100
AcDbLine
 10
287.0684849054
 20
123.5815494587
 30
0.0
 11
281.2672095329
 21
117.7802815368
 31
0.0
  0
LINE
  5
1C3
330
1F
100
AcDbEntity
  8
0
  6
Continuous
 62
     7
370
    15
100
AcDbLine
 10
165.2672128708
 20
117.7802815368
 30
0.0
 11
159.4659374983
 21
123.5815494587
 31
0.0
  0
LINE
  5
1C4
330
1F
100
AcDbEntity
  8
0
  6
Continuous
 62
     7
370
    15
100
AcDbLine
 10
159.4659374983
 20
36.9790106346
 30
0.0
 11
165.2672128708
 21
42.7802785566
 31
0.0
  0
LINE
  5
1C5
330
1F
100
AcDbEntity
  8
0
  6
Continuous
 62
     7
370
    15
100
AcDbLine
 10
281.2672095329
 20
42.7802785566
 30
0.0
 11
287.0684849054
 21
36.9790106346
 31
0.0
  0
LINE
  5
1C6
330
1F
100
AcDbEntity
  8
0
  6
Continuous
 62
     7
370
    15
100
AcDbLine
 10
186.267210725
 20
48.15552228
 30
0.0
 11
186.267210725
 21
42.2802812686
 31
0.0
  0
LINE
  5
1C7
330
1F
100
AcDbEntity
  8
0
  6
Continuous
 62
     7
370
    15
100
AcDbLine
 10
227.9625573152
 20
87.9584130166
 30
0.0
 11
218.5718650886
 21
87.9584130166
 31
0.0
  0
ARC
  5
1C8
330
1F
100
AcDbEntity
  8
0
  6
Continuous
 62
     7
370
    15
100
AcDbCircle
 10
223.2672112019
 20
80.2802800467
 30
0.0
 40
9.000000000000012
100
AcDbArc
 50
45.0
 51
58.5533037301
  0
LINE
  5
1C9
330
1F
100
AcDbEntity
  8
0
  6
Continuous
 62
     7
370
    15
100
AcDbLine
 10
229.6311721162
 20
86.644240961
 30
0.0
 11
229.4172109992
 21
86.430279844
 31
0.0
  0
LINE
  5
1CA
330
1F
100
AcDbEntity
  8
0
  6
Continuous
 62
     7
370
    15
100
AcDbLine
 10
229.4172109992
 20
86.430279844
 30
0.0
 11
217.1172114045
 21
86.430279844
 31
0.0
  0
LINE
  5
1CB
330
1F
100
AcDbEntity
  8
0
  6
Continuous
 62
     7
370
    15
100
AcDbLine
 10
216.9032502876
 20
86.644240961
 30
0.0
 11
217.1172114045
 21
86.430279844
 31
0.0
  0
ARC
  5
1CC
330
1F
100
AcDbEntity
  8
0
  6
Continuous
 62
     7
370
    15
100
AcDbCircle
 10
223.2672112019
 20
80.2802800467
 30
0.0
 40
8.999999999999993
100
AcDbArc
 50
121.4466962699
 51
135.0
  0
LINE
  5
1CD
330
1F
100
AcDbEntity
  8
0
  6
Continuous
 62
     7
370
    15
100
AcDbLine
 10
230.9453441718
 20
75.5849339334
 30
0.0
 11
230.9453441718
 21
84.97562616
 31
0.0
  0
ARC
  5
1CE
330
1F
100
AcDbEntity
  8
0
  6
Continuous
 62
     7
370
    15
100
AcDbCircle
 10
223.2672112019
 20
80.2802800467
 30
0.0
 40
9.000000000000021
100
AcDbArc
 50
315.0
 51
328.5533037301
  0
LINE
  5
1CF
330
1F
100
AcDbEntity
  8
0
  6
Continuous
 62
     7
370
    15
100
AcDbLine
 10
229.6311721162
 20
73.9163191324
 30
0.0
 11
229.4172109992
 21
74.1302802493
 31
0.0
  0
LINE
  5
1D0
330
1F
100
AcDbEntity
  8
0
  6
Continuous
 62
     7
370
    15
100
AcDbLine
 10
229.4172109992
 20
74.1302802493
 30
0.0
 11
229.4172109992
 21
86.430279844
 31
0.0
  0
ARC
  5
1D1
330
1F
100
AcDbEntity
  8
0
  6
Continuous
 62
     7
370
    15
100
AcDbCircle
 10
223.2672112019
 20
80.2802800467
 30
0.0
 40
9.000000000000012
100
AcDbArc
 50
31.4466962699
 51
45.0
  0
LINE
  5
1D2
330
1F
100
AcDbEntity
  8
0
  6
Continuous
 62
     7
370
    15
100
AcDbLine
 10
215.589078232
 20
84.97562616
 30
0.0
 11
215.589078232
 21
75.5849339334
 31
0.0
  0
ARC
  5
1D3
330
1F
100
AcDbEntity
  8
0
  6
Continuous
 62
     7
370
    15
100
AcDbCircle
 10
223.2672112019
 20
80.2802800467
 30
0.0
 40
8.999999999999998
100
AcDbArc
 50
135.0
 51
148.5533037301
  0
LINE
  5
1D4
330
1F
100
AcDbEntity
  8
0
  6
Continuous
 62
     7
370
    15
100
AcDbLine
 10
217.1172114045
 20
86.430279844
 30
0.0
 11
217.1172114045
 21
74.1302802493
 31
0.0
  0
LINE
  5
1D5
330
1F
100
AcDbEntity
  8
0
  6
Continuous
 62
     7
370
    15
100
AcDbLine
 10
216.9032502876
 20
73.9163191324
 30
0.0
 11
217.1172114045
 21
74.1302802493
 31
0.0
  0
ARC
  5
1D6
330
1F
100
AcDbEntity
  8
0
  6
Continuous
 62
     7
370
    15
100
AcDbCircle
 10
223.2672112019
 20
80.2802800467
 30
0.0
 40
9.000000000000005
100
AcDbArc
 50
211.4466962699
 51
225.0
  0
LINE
  5
1D7
330
1F
100
AcDbEntity
  8
0
  6
Continuous
 62
     7
370
    15
100
AcDbLine
 10
217.1172114045
 20
74.1302802493
 30
0.0
 11
229.4172109992
 21
74.1302802493
 31
0.0
  0
LINE
  5
1D8
330
1F
100
AcDbEntity
  8
0
  6
Continuous
 62
     7
370
    15
100
AcDbLine
 10
218.5718650886
 20
72.6021470768
 30
0.0
 11
227.9625573152
 21
72.6021470768
 31
0.0
  0
ARC
  5
1D9
330
1F
100
AcDbEntity
  8
0
  6
Continuous
 62
     7
370
    15
100
AcDbCircle
 10
223.2672112019
 20
80.2802800467
 30
0.0
 40
9.000000000000005
100
AcDbArc
 50
225.0
 51
238.5533037301
  0
ARC
  5
1DA
330
1F
100
AcDbEntity
  8
0
  6
Continuous
 62
     7
370
    15
100
AcDbCircle
 10
223.2672112019
 20
80.2802800467
 30
0.0
 40
9.000000000000021
100
AcDbArc
 50
301.4466962699
 51
315.0
  0
ARC
  5
1DB
330
1F
100
AcDbEntity
  8
0
  6
Continuous
 62
     7
370
    15
100
AcDbCircle
 10
223.2672112019
 20
80.2802800467
 30
0.0
 40
9.000000000000005
100
AcDbArc
 50
148.5533037301
 51
211.4466962699
  0
ARC
  5
1DC
330
1F
100
AcDbEntity
  8
0
  6
Continuous
 62
     7
370
    15
100
AcDbCircle
 10
223.2672112019
 20
80.2802800467
 30
0.0
 40
8.999999999999993
100
AcDbArc
 50
58.5533037301
 51
121.4466962699
  0
ARC
  5
1DD
330
1F
100
AcDbEntity
  8
0
  6
Continuous
 62
     7
370
    15
100
AcDbCircle
 10
223.2672112019
 20
80.2802800467
 30
0.0
 40
9.000000000000005
100
AcDbArc
 50
328.5533037301
 51
31.4466962699
  0
ARC
  5
1DE
330
1F
100
AcDbEntity
  8
0
  6
Continuous
 62
     7
370
    15
100
AcDbCircle
 10
223.2672112019
 20
80.2802800467
 30
0.0
 40
9.000000000000005
100
AcDbArc
 50
238.5533037301
 51
301.4466962699
  0
ARC
  5
1DF
330
1F
100
AcDbEntity
  8
0
  6
Continuous
 62
     7
370
    15
100
AcDbCircle
 10
223.2672112019
 20
80.2802800467
 30
0.0
 40
16.0
100
AcDbArc
 50
46.3348227807
 51
133.6651772193
  0
ARC
  5
1E0
330
1F
100
AcDbEntity
  8
0
  6
Continuous
 62
     7
370
    15
100
AcDbCircle
 10
223.2672112019
 20
80.2802800467
 30
0.0
 40
21.02953230732376
100
AcDbArc
 50
42.3559738372
 51
137.6440261628
  0
ARC
  5
1E1
330
1F
100
AcDbEntity
  8
0
  6
Continuous
 62
     7
370
    15
100
AcDbCircle
 10
223.2672112019
 20
80.2802800467
 30
0.0
 40
16.00000000000001
100
AcDbArc
 50
166.3348227807
 51
253.6651772193
  0
LINE
  5
1E2
330
1F
100
AcDbEntity
  8
0
  6
Continuous
 62
     7
370
    15
100
AcDbLine
 10
200.8216833652
 20
88.0430595284
 30
0.0
 11
207.7201247171
 21
84.0602420071
 31
0.0
  0
ARC
  5
1E3
330
1F
100
AcDbEntity
  8
0
  6
Continuous
 62
     7
370
    15
100
AcDbCircle
 10
223.2672112019
 20
80.2802800467
 30
0.0
 40
23.7499999999613
100
AcDbArc
 50
139.0779293878
 51
160.9220706122
  0
LINE
  5
1E4
330
1F
100
AcDbEntity
  8
0
  6
Continuous
 62
     7
370
    15
100
AcDbLine
 10
241.2127392323
 20
95.8372879108
 30
0.0
 11
234.314296949
 21
91.854471088
 31
0.0
  0
ARC
  5
1E5
330
1F
100
AcDbEntity
  8
0
  6
Continuous
 62
     7
370
    15
100
AcDbCircle
 10
223.2672112019
 20
80.2802800467
 30
0.0
 40
23.74999999996139
100
AcDbArc
 50
19.0779293878
 51
40.9220706122
  0
LINE
  5
1E6
330
1F
100
AcDbEntity
  8
0
  6
Continuous
 62
     7
370
    15
100
AcDbLine
 10
238.8142976866
 20
84.0602420071
 30
0.0
 11
245.7127390385
 21
88.0430595284
 31
0.0
  0
ARC
  5
1E7
330
1F
100
AcDbEntity
  8
0
  6
Continuous
 62
     7
370
    15
100
AcDbCircle
 10
223.2672112019
 20
80.2802800467
 30
0.0
 40
16.00000000000001
100
AcDbArc
 50
286.3348227807
 51
13.6651772193
  0
LINE
  5
1E8
330
1F
100
AcDbEntity
  8
0
  6
Continuous
 62
     7
370
    15
100
AcDbLine
 10
227.7672110082
 20
56.9604917695
 30
0.0
 11
227.7672110082
 21
64.9261272778
 31
0.0
  0
ARC
  5
1E9
330
1F
100
AcDbEntity
  8
0
  6
Continuous
 62
     7
370
    15
100
AcDbCircle
 10
223.2672112019
 20
80.2802800467
 30
0.0
 40
23.75000000004172
100
AcDbArc
 50
259.0779293878
 51
280.9220706122
  0
LINE
  5
1EA
330
1F
100
AcDbEntity
  8
0
  6
Continuous
 62
     7
370
    15
100
AcDbLine
 10
218.7672113956
 20
64.9261272778
 30
0.0
 11
218.7672113956
 21
56.9604917695
 31
0.0
  0
LINE
  5
1EB
330
1F
100
AcDbEntity
  8
0
  6
Continuous
 62
     7
370
    15
100
AcDbLine
 10
212.2201254547
 20
91.854471088
 30
0.0
 11
205.3216831715
 21
95.8372879108
 31
0.0
  0
SPLINE
  5
1EC
330
1F
100
AcDbEntity
  8
0
  6
Continuous
 62
     7
370
    15
100
AcDbSpline
210
0.0
220
0.0
230
1.0
 70
    24
 71
     3
 72
     8
 73
     4
 74
     0
 42
0.00000001
 43
0.00000001
 12
1.0
 22
0.0
 32
0.0
 13
1.0
 23
0.0
 33
0.0
 40
0.0
 40
0.0
 40
0.0
 40
0.0
 40
0.0042774229446187
 40
0.0042774229446187
 40
0.0042774229446187
 40
0.0042774229446187
 10
241.2127397911024
 20
95.83728823112646
 30
0.0
 10
242.0938085546104
 20
96.34597351891236
 30
0.0
 10
242.9738747115698
 20
96.85407995153759
 30
0.0
 10
243.8532435849234
 20
97.36178380728522
 30
0.0
  0
ARC
  5
1ED
330
1F
100
AcDbEntity
  8
0
  6
Continuous
 62
     7
370
    15
100
AcDbCircle
 10
223.2672112019
 20
80.2802800467
 30
0.0
 40
26.75
100
AcDbArc
 50
20.3154079248
 51
39.6845920752
  0
SPLINE
  5
1EE
330
1F
100
AcDbEntity
  8
0
  6
Continuous
 62
     7
370
    15
100
AcDbSpline
210
0.0
220
0.0
230
1.0
 70
    24
 71
     3
 72
     8
 73
     4
 74
     0
 42
0.00000001
 43
0.00000001
 12
1.0
 22
0.0
 32
0.0
 13
1.0
 23
0.0
 33
0.0
 40
0.0
 40
0.0
 40
0.0
 40
0.0
 40
0.0042774229446187
 40
0.0042774229446187
 40
0.0042774229446187
 40
0.0042774229446187
 10
248.3532435849233
 20
89.56755517322524
 30
0.0
 10
247.4738747115698
 20
89.0598513174776
 30
0.0
 10
246.5938085546103
 20
88.55174488485238
 30
0.0
 10
245.7127397911023
 20
88.04305959706649
 30
0.0
  0
SPLINE
  5
1EF
330
1F
100
AcDbEntity
  8
0
  6
Continuous
 62
     7
370
    15
100
AcDbSpline
210
0.0
220
0.0
230
1.0
 70
    24
 71
     3
 72
     8
 73
     4
 74
     0
 42
0.00000001
 43
0.00000001
 12
1.0
 22
0.0
 32
0.0
 13
1.0
 23
0.0
 33
0.0
 40
0.0
 40
0.0
 40
0.0
 40
0.0
 40
0.0042774229446188
 40
0.0042774229446188
 40
0.0042774229446188
 40
0.0042774229446188
 10
200.8216826126316
 20
88.04305959706655
 30
0.0
 10
199.9406138491236
 20
88.55174488485248
 30
0.0
 10
199.0605476921641
 20
89.05985131747771
 30
0.0
 10
198.1811788188105
 20
89.56755517322537
 30
0.0
  0
ARC
  5
1F0
330
1F
100
AcDbEntity
  8
0
  6
Continuous
 62
     7
370
    15
100
AcDbCircle
 10
223.2672112019
 20
80.2802800467
 30
0.0
 40
26.74999999999999
100
AcDbArc
 50
140.3154079248
 51
159.6845920752
  0
SPLINE
  5
1F1
330
1F
100
AcDbEntity
  8
0
  6
Continuous
 62
     7
370
    15
100
AcDbSpline
210
0.0
220
0.0
230
1.0
 70
    24
 71
     3
 72
     8
 73
     4
 74
     0
 42
0.00000001
 43
0.00000001
 12
1.0
 22
0.0
 32
0.0
 13
1.0
 23
0.0
 33
0.0
 40
0.0
 40
0.0
 40
0.0
 40
0.0
 40
0.0042774229446188
 40
0.0042774229446188
 40
0.0042774229446188
 40
0.0042774229446188
 10
202.6811788188105
 20
97.36178380728533
 30
0.0
 10
203.5605476921641
 20
96.85407995153766
 30
0.0
 10
204.4406138491236
 20
96.34597351891243
 30
0.0
 10
205.3216826126316
 20
95.8372882311265
 30
0.0
  0
ARC
  5
1F2
330
1F
100
AcDbEntity
  8
0
  6
Continuous
 62
     7
370
    15
100
AcDbCircle
 10
223.2672112019
 20
80.2802800467
 30
0.0
 40
21.02953230732375
100
AcDbArc
 50
162.3559738372
 51
257.6440261628
  0
ARC
  5
1F3
330
1F
100
AcDbEntity
  8
0
  6
Continuous
 62
     7
370
    15
100
AcDbCircle
 10
223.2672112019
 20
80.2802800467
 30
0.0
 40
21.02953230732375
100
AcDbArc
 50
282.3559738372
 51
17.6440261628
  0
ARC
  5
1F4
330
1F
100
AcDbEntity
  8
0
  6
Continuous
 62
     7
370
    15
100
AcDbCircle
 10
223.2672112019
 20
80.2802800467
 30
0.0
 40
26.75
100
AcDbArc
 50
260.3154079248
 51
279.6845920752
  0
SPLINE
  5
1F5
330
1F
100
AcDbEntity
  8
0
  6
Continuous
 62
     7
370
    15
100
AcDbSpline
210
0.0
220
0.0
230
1.0
 70
    24
 71
     3
 72
     8
 73
     4
 74
     0
 42
0.00000001
 43
0.00000001
 12
1.0
 22
0.0
 32
0.0
 13
1.0
 23
0.0
 33
0.0
 40
0.0
 40
0.0
 40
0.0
 40
0.0
 40
0.0042774229445205
 40
0.0042774229445205
 40
0.0042774229445205
 40
0.0042774229445205
 10
227.7672112018667
 20
56.9604923117492
 30
0.0
 10
227.7672112018667
 20
55.9431217362047
 30
0.0
 10
227.7672112018667
 20
54.92690887098153
 30
0.0
 10
227.7672112018667
 20
53.91150115951345
 30
0.0
  0
SPLINE
  5
1F6
330
1F
100
AcDbEntity
  8
0
  6
Continuous
 62
     7
370
    15
100
AcDbSpline
210
0.0
220
0.0
230
1.0
 70
    24
 71
     3
 72
     8
 73
     4
 74
     0
 42
0.00000001
 43
0.00000001
 12
1.0
 22
0.0
 32
0.0
 13
1.0
 23
0.0
 33
0.0
 40
0.0
 40
0.0
 40
0.0
 40
0.0
 40
0.0042774229445205
 40
0.0042774229445205
 40
0.0042774229445205
 40
0.0042774229445205
 10
218.7672112018666
 20
53.91150115951354
 30
0.0
 10
218.7672112018666
 20
54.92690887098162
 30
0.0
 10
218.7672112018667
 20
55.94312173620479
 30
0.0
 10
218.7672112018667
 20
56.96049231174929
 30
0.0
  0
ARC
  5
1F7
330
1F
100
AcDbEntity
  8
0
  6
Continuous
 62
     7
370
    15
100
AcDbCircle
 10
223.2672112019
 20
80.2802800467
 30
0.0
 40
24.11697778318019
100
AcDbArc
 50
160.7538787116
 51
259.2461212884
  0
ARC
  5
1F8
330
1F
100
AcDbEntity
  8
0
  6
Continuous
 62
     7
370
    15
100
AcDbCircle
 10
223.2672112019
 20
80.2802800467
 30
0.0
 40
24.1169777831802
100
AcDbArc
 50
40.7538787116
 51
139.2461212884
  0
ARC
  5
1F9
330
1F
100
AcDbEntity
  8
0
  6
Continuous
 62
     7
370
    15
100
AcDbCircle
 10
223.2672112019
 20
80.2802800467
 30
0.0
 40
24.11697778318019
100
AcDbArc
 50
280.7538787116
 51
19.2461212884
  0
CIRCLE
  5
1FA
330
1F
100
AcDbEntity
  8
0
  6
Continuous
 62
     7
370
    15
100
AcDbCircle
 10
223.2672112019
 20
80.2802800467
 30
0.0
 40
27.24999999999999
  0
LINE
  5
1FB
330
1F
100
AcDbEntity
  8
0
  6
Continuous
 62
     7
370
    15
100
AcDbLine
 10
273.2672119469
 20
68.4611139154
 30
0.0
 11
273.2672119469
 21
67.7802798604
 31
0.0
  0
ARC
  5
1FC
330
1F
100
AcDbEntity
  8
0
  6
Continuous
 62
     7
370
    15
100
AcDbCircle
 10
273.2672112019
 20
80.2802800467
 30
0.0
 40
11.81916603920114
100
AcDbArc
 50
270.0
 51
90.0
  0
LINE
  5
1FD
330
1F
100
AcDbEntity
  8
0
  6
Continuous
 62
     7
370
    15
100
AcDbLine
 10
273.2672119469
 20
92.099446178
 30
0.0
 11
273.2672119469
 21
92.7802802329
 31
0.0
  0
ARC
  5
1FE
330
1F
100
AcDbEntity
  8
0
  6
Continuous
 62
     7
370
    15
100
AcDbCircle
 10
273.2672112019
 20
80.2802800467
 30
0.0
 40
12.5
100
AcDbArc
 50
26.1038811373
 51
90.0
  0
ARC
  5
1FF
330
1F
100
AcDbEntity
  8
0
  6
Continuous
 62
     7
370
    15
100
AcDbCircle
 10
273.2672112019
 20
80.2802800467
 30
0.0
 40
12.49999999999996
100
AcDbArc
 50
0.0
 51
26.1038811373
  0
ARC
  5
200
330
1F
100
AcDbEntity
  8
0
  6
Continuous
 62
     7
370
    15
100
AcDbCircle
 10
273.2672112019
 20
80.2802800467
 30
0.0
 40
12.49999999999996
100
AcDbArc
 50
333.8961188627
 51
0.0
  0
ARC
  5
201
330
1F
100
AcDbEntity
  8
0
  6
Continuous
 62
     7
370
    15
100
AcDbCircle
 10
273.2672112019
 20
80.2802800467
 30
0.0
 40
12.5
100
AcDbArc
 50
270.0
 51
333.8961188627
  0
ARC
  5
202
330
1F
100
AcDbEntity
  8
0
  6
Continuous
 62
     7
370
    15
100
AcDbCircle
 10
173.2672112019
 20
80.2802800467
 30
0.0
 40
12.5
100
AcDbArc
 50
180.0
 51
206.1038811373
  0
ARC
  5
203
330
1F
100
AcDbEntity
  8
0
  6
Continuous
 62
     7
370
    15
100
AcDbCircle
 10
173.2672112019
 20
80.2802800467
 30
0.0
 40
12.5
100
AcDbArc
 50
153.8961188627
 51
180.0
  0
ARC
  5
204
330
1F
100
AcDbEntity
  8
0
  6
Continuous
 62
     7
370
    15
100
AcDbCircle
 10
173.2672112019
 20
80.2802800467
 30
0.0
 40
12.5
100
AcDbArc
 50
90.0
 51
153.8961188627
  0
LINE
  5
205
330
1F
100
AcDbEntity
  8
0
  6
Continuous
 62
     7
370
    15
100
AcDbLine
 10
173.2672104568
 20
92.099446178
 30
0.0
 11
173.2672104568
 21
92.7802802329
 31
0.0
  0
ARC
  5
206
330
1F
100
AcDbEntity
  8
0
  6
Continuous
 62
     7
370
    15
100
AcDbCircle
 10
173.2672112019
 20
80.2802800467
 30
0.0
 40
11.81916603920114
100
AcDbArc
 50
90.0
 51
270.0
  0
LINE
  5
207
330
1F
100
AcDbEntity
  8
0
  6
Continuous
 62
     7
370
    15
100
AcDbLine
 10
173.2672104568
 20
68.4611139154
 30
0.0
 11
173.2672104568
 21
67.7802798604
 31
0.0
  0
ARC
  5
208
330
1F
100
AcDbEntity
  8
0
  6
Continuous
 62
     7
370
    15
100
AcDbCircle
 10
173.2672112019
 20
80.2802800467
 30
0.0
 40
12.5
100
AcDbArc
 50
206.1038811373
 51
270.0
  0
SPLINE
  5
209
330
1F
100
AcDbEntity
  8
0
  6
Continuous
 62
     7
370
    15
100
AcDbSpline
210
0.0
220
0.0
230
1.0
 70
     8
 71
     3
 72
    10
 73
     6
 74
     0
 42
0.00000001
 43
0.00000001
 12
1.0
 22
0.0
 32
0.0
 13
1.0
 23
0.0
 33
0.0
 40
0.0
 40
0.0
 40
0.0
 40
0.0
 40
0.5
 40
0.5
 40
1.0
 40
1.0
 40
1.0
 40
1.0
 10
261.3424420381083
 20
92.4688355708214
 30
0.0
 10
259.086021361854
 20
92.43619563676224
 30
0.0
 10
256.8258850585241
 20
92.40373828677039
 30
0.0
 10
252.2926733787529
 20
92.33945940640679
 30
0.0
 10
250.0198041698936
 20
92.30762774506259
 30
0.0
 10
247.734651056809
 20
92.27639970866514
 30
0.0
  0
LINE
  5
20A
330
1F
100
AcDbEntity
  8
0
  6
Continuous
 62
     7
370
    15
100
AcDbLine
 10
261.6841705472
 20
92.5760300165
 30
0.0
 11
261.3424422175
 21
92.4688357194
 31
0.0
  0
LINE
  5
20B
330
1F
100
AcDbEntity
  8
0
  6
Continuous
 62
     7
370
    15
100
AcDbLine
 10
270.4883912534
 20
92.5760300165
 30
0.0
 11
261.6841705472
 21
92.5760300165
 31
0.0
  0
LINE
  5
20C
330
1F
100
AcDbEntity
  8
0
  6
Continuous
 62
     7
370
    15
100
AcDbLine
 10
270.6460045607
 20
92.7802802329
 30
0.0
 11
270.4883912534
 21
92.5760300165
 31
0.0
  0
LINE
  5
20D
330
1F
100
AcDbEntity
  8
0
  6
Continuous
 62
     7
370
    15
100
AcDbLine
 10
273.2672119469
 20
92.7802802329
 30
0.0
 11
270.6460045607
 21
92.7802802329
 31
0.0
  0
LINE
  5
20E
330
1F
100
AcDbEntity
  8
0
  6
Continuous
 62
     7
370
    15
100
AcDbLine
 10
273.2672119469
 20
92.099446178
 30
0.0
 11
247.8206181855
 21
92.099446178
 31
0.0
  0
LINE
  5
20F
330
1F
100
AcDbEntity
  8
0
  6
Continuous
 62
     7
370
    15
100
AcDbLine
 10
173.2672104568
 20
92.099446178
 30
0.0
 11
198.7138042183
 21
92.099446178
 31
0.0
  0
LINE
  5
210
330
1F
100
AcDbEntity
  8
0
  6
Continuous
 62
     7
370
    15
100
AcDbLine
 10
173.2672104568
 20
92.7802802329
 30
0.0
 11
175.8884178431
 21
92.7802802329
 31
0.0
  0
LINE
  5
211
330
1F
100
AcDbEntity
  8
0
  6
Continuous
 62
     7
370
    15
100
AcDbLine
 10
175.8884178431
 20
92.7802802329
 30
0.0
 11
176.0460311503
 21
92.5760300165
 31
0.0
  0
LINE
  5
212
330
1F
100
AcDbEntity
  8
0
  6
Continuous
 62
     7
370
    15
100
AcDbLine
 10
176.0460311503
 20
92.5760300165
 30
0.0
 11
184.8502518565
 21
92.5760300165
 31
0.0
  0
LINE
  5
213
330
1F
100
AcDbEntity
  8
0
  6
Continuous
 62
     7
370
    15
100
AcDbLine
 10
184.8502518565
 20
92.5760300165
 30
0.0
 11
185.1919801862
 21
92.4688357194
 31
0.0
  0
SPLINE
  5
214
330
1F
100
AcDbEntity
  8
0
  6
Continuous
 62
     7
370
    15
100
AcDbSpline
210
0.0
220
0.0
230
1.0
 70
     8
 71
     3
 72
    10
 73
     6
 74
     0
 42
0.00000001
 43
0.00000001
 12
1.0
 22
0.0
 32
0.0
 13
1.0
 23
0.0
 33
0.0
 40
0.0
 40
0.0
 40
0.0
 40
0.0
 40
0.5
 40
0.5
 40
1.0
 40
1.0
 40
1.0
 40
1.0
 10
185.1919803656255
 20
92.4688355708214
 30
0.0
 10
187.4484010418798
 20
92.43619563676224
 30
0.0
 10
189.7085373452097
 20
92.40373828677039
 30
0.0
 10
194.2417490249809
 20
92.33945940640679
 30
0.0
 10
196.5146182338402
 20
92.30762774506259
 30
0.0
 10
198.7997713469249
 20
92.27639970866514
 30
0.0
  0
SPLINE
  5
215
330
1F
100
AcDbEntity
  8
0
  6
Continuous
 62
     7
370
    15
100
AcDbSpline
210
0.0
220
0.0
230
1.0
 70
     8
 71
     3
 72
    10
 73
     6
 74
     0
 42
0.00000001
 43
0.00000001
 12
1.0
 22
0.0
 32
0.0
 13
1.0
 23
0.0
 33
0.0
 40
0.0
 40
0.0
 40
0.0
 40
0.0
 40
0.5
 40
0.5
 40
1.0
 40
1.0
 40
1.0
 40
1.0
 10
185.1919803656255
 20
68.09172452252807
 30
0.0
 10
187.4484010418798
 20
68.12436445658722
 30
0.0
 10
189.7085373452097
 20
68.15682180657907
 30
0.0
 10
194.2417490249809
 20
68.22110068694266
 30
0.0
 10
196.5146182338402
 20
68.25293234828688
 30
0.0
 10
198.7997713469249
 20
68.28416038468433
 30
0.0
  0
LINE
  5
216
330
1F
100
AcDbEntity
  8
0
  6
Continuous
 62
     7
370
    15
100
AcDbLine
 10
184.8502518565
 20
67.9845300769
 30
0.0
 11
185.1919801862
 21
68.0917243739
 31
0.0
  0
LINE
  5
217
330
1F
100
AcDbEntity
  8
0
  6
Continuous
 62
     7
370
    15
100
AcDbLine
 10
176.0460311503
 20
67.9845300769
 30
0.0
 11
184.8502518565
 21
67.9845300769
 31
0.0
  0
LINE
  5
218
330
1F
100
AcDbEntity
  8
0
  6
Continuous
 62
     7
370
    15
100
AcDbLine
 10
175.8884178431
 20
67.7802798604
 30
0.0
 11
176.0460311503
 21
67.9845300769
 31
0.0
  0
LINE
  5
219
330
1F
100
AcDbEntity
  8
0
  6
Continuous
 62
     7
370
    15
100
AcDbLine
 10
173.2672104568
 20
67.7802798604
 30
0.0
 11
175.8884178431
 21
67.7802798604
 31
0.0
  0
LINE
  5
21A
330
1F
100
AcDbEntity
  8
0
  6
Continuous
 62
     7
370
    15
100
AcDbLine
 10
173.2672104568
 20
68.4611139154
 30
0.0
 11
198.7138042183
 21
68.4611139154
 31
0.0
  0
LINE
  5
21B
330
1F
100
AcDbEntity
  8
0
  6
Continuous
 62
     7
370
    15
100
AcDbLine
 10
273.2672119469
 20
68.4611139154
 30
0.0
 11
247.8206181855
 21
68.4611139154
 31
0.0
  0
LINE
  5
21C
330
1F
100
AcDbEntity
  8
0
  6
Continuous
 62
     7
370
    15
100
AcDbLine
 10
273.2672119469
 20
67.7802798604
 30
0.0
 11
270.6460045607
 21
67.7802798604
 31
0.0
  0
LINE
  5
21D
330
1F
100
AcDbEntity
  8
0
  6
Continuous
 62
     7
370
    15
100
AcDbLine
 10
270.6460045607
 20
67.7802798604
 30
0.0
 11
270.4883912534
 21
67.9845300769
 31
0.0
  0
LINE
  5
21E
330
1F
100
AcDbEntity
  8
0
  6
Continuous
 62
     7
370
    15
100
AcDbLine
 10
270.4883912534
 20
67.9845300769
 30
0.0
 11
261.6841705472
 21
67.9845300769
 31
0.0
  0
LINE
  5
21F
330
1F
100
AcDbEntity
  8
0
  6
Continuous
 62
     7
370
    15
100
AcDbLine
 10
261.6841705472
 20
67.9845300769
 30
0.0
 11
261.3424422175
 21
68.0917243739
 31
0.0
  0
SPLINE
  5
220
330
1F
100
AcDbEntity
  8
0
  6
Continuous
 62
     7
370
    15
100
AcDbSpline
210
0.0
220
0.0
230
1.0
 70
     8
 71
     3
 72
    10
 73
     6
 74
     0
 42
0.00000001
 43
0.00000001
 12
1.0
 22
0.0
 32
0.0
 13
1.0
 23
0.0
 33
0.0
 40
0.0
 40
0.0
 40
0.0
 40
0.0
 40
0.5
 40
0.5
 40
1.0
 40
1.0
 40
1.0
 40
1.0
 10
261.3424420381083
 20
68.09172452252807
 30
0.0
 10
259.086021361854
 20
68.12436445658722
 30
0.0
 10
256.8258850585241
 20
68.15682180657907
 30
0.0
 10
252.2926733787529
 20
68.22110068694266
 30
0.0
 10
250.0198041698936
 20
68.25293234828688
 30
0.0
 10
247.734651056809
 20
68.28416038468433
 30
0.0
  0
ARC
  5
221
330
1F
100
AcDbEntity
  8
0
  6
Continuous
 62
     7
370
    15
100
AcDbCircle
 10
223.2672112019
 20
80.2802800467
 30
0.0
 40
39.978545358708
100
AcDbArc
 50
17.7507889932
 51
162.2492110068
  0
ARC
  5
222
330
1F
100
AcDbEntity
  8
0
  6
Continuous
 62
     7
370
    15
100
AcDbCircle
 10
223.2672112019
 20
80.2802800467
 30
0.0
 40
39.978545358708
100
AcDbArc
 50
197.7507889932
 51
342.2492110068
  0
ARC
  5
223
330
1F
100
AcDbEntity
  8
0
  6
Continuous
 62
     7
370
    15
100
AcDbCircle
 10
223.2672112019
 20
80.2802800467
 30
0.0
 40
40.33668761221453
100
AcDbArc
 50
17.7478132948
 51
162.2521867052
  0
ARC
  5
224
330
1F
100
AcDbEntity
  8
0
  6
Continuous
 62
     7
370
    15
100
AcDbCircle
 10
223.2672112019
 20
80.2802800467
 30
0.0
 40
40.33668761221453
100
AcDbArc
 50
197.7478132948
 51
342.2521867052
  0
ARC
  5
225
330
1F
100
AcDbEntity
  8
0
  6
Continuous
 62
     7
370
    15
100
AcDbCircle
 10
223.2672112019
 20
80.2802800467
 30
0.0
 40
48.7957498117604
100
AcDbArc
 50
14.5949481283
 51
66.6391306763
  0
LINE
  5
226
330
1F
100
AcDbEntity
  8
0
  6
Continuous
 62
     7
370
    15
100
AcDbLine
 10
242.6579302133
 20
125.2802818348
 30
0.0
 11
242.6157506139
 21
125.0760316183
 31
0.0
  0
ARC
  5
227
330
1F
100
AcDbEntity
  8
0
  6
Continuous
 62
     7
370
    15
100
AcDbCircle
 10
223.2672112019
 20
80.2802800467
 30
0.0
 40
49.00000000000002
100
AcDbArc
 50
14.7796316306
 51
66.6885543185
  0
ARC
  5
228
330
1F
100
AcDbEntity
  8
0
  6
Continuous
 62
     7
370
    15
100
AcDbCircle
 10
223.2672112019
 20
80.2802800467
 30
0.0
 40
49.00000000000002
100
AcDbArc
 50
113.3114456815
 51
165.2203683694
  0
LINE
  5
229
330
1F
100
AcDbEntity
  8
0
  6
Continuous
 62
     7
370
    15
100
AcDbLine
 10
203.8764921904
 20
125.2802818348
 30
0.0
 11
203.9186717898
 21
125.0760316183
 31
0.0
  0
ARC
  5
22A
330
1F
100
AcDbEntity
  8
0
  6
Continuous
 62
     7
370
    15
100
AcDbCircle
 10
223.2672112019
 20
80.2802800467
 30
0.0
 40
48.7957498117604
100
AcDbArc
 50
113.3608693237
 51
165.4050518717
  0
ARC
  5
22B
330
1F
100
AcDbEntity
  8
0
  6
Continuous
 62
     7
370
    15
100
AcDbCircle
 10
223.2672112019
 20
80.2802800467
 30
0.0
 40
49.00000000000001
100
AcDbArc
 50
293.3114456815
 51
345.2203683694
  0
LINE
  5
22C
330
1F
100
AcDbEntity
  8
0
  6
Continuous
 62
     7
370
    15
100
AcDbLine
 10
242.6579302133
 20
35.2802782585
 30
0.0
 11
242.6157506139
 21
35.484528475
 31
0.0
  0
ARC
  5
22D
330
1F
100
AcDbEntity
  8
0
  6
Continuous
 62
     7
370
    15
100
AcDbCircle
 10
223.2672112019
 20
80.2802800467
 30
0.0
 40
48.79574981176039
100
AcDbArc
 50
293.3608693237
 51
345.4050518717
  0
ARC
  5
22E
330
1F
100
AcDbEntity
  8
0
  6
Continuous
 62
     7
370
    15
100
AcDbCircle
 10
223.2672112019
 20
80.2802800467
 30
0.0
 40
48.79574981176039
100
AcDbArc
 50
194.5949481283
 51
246.6391306763
  0
LINE
  5
22F
330
1F
100
AcDbEntity
  8
0
  6
Continuous
 62
     7
370
    15
100
AcDbLine
 10
203.8764921904
 20
35.2802782585
 30
0.0
 11
203.9186717898
 21
35.484528475
 31
0.0
  0
ARC
  5
230
330
1F
100
AcDbEntity
  8
0
  6
Continuous
 62
     7
370
    15
100
AcDbCircle
 10
223.2672112019
 20
80.2802800467
 30
0.0
 40
49.00000000000001
100
AcDbArc
 50
194.7796316306
 51
246.6885543185
  0
LINE
  5
231
330
1F
100
AcDbEntity
  8
0
  6
Continuous
 62
     7
370
    15
100
AcDbLine
 10
203.9186717898
 20
125.0760316183
 30
0.0
 11
242.6157506139
 21
125.0760316183
 31
0.0
  0
LINE
  5
232
330
1F
100
AcDbEntity
  8
0
  6
Continuous
 62
     7
370
    15
100
AcDbLine
 10
242.6579302133
 20
125.2802818348
 30
0.0
 11
203.8764921904
 21
125.2802818348
 31
0.0
  0
LINE
  5
233
330
1F
100
AcDbEntity
  8
0
  6
Continuous
 62
     7
370
    15
100
AcDbLine
 10
203.9186717898
 20
35.484528475
 30
0.0
 11
242.6157506139
 21
35.484528475
 31
0.0
  0
LINE
  5
234
330
1F
100
AcDbEntity
  8
0
  6
Continuous
 62
     7
370
    15
100
AcDbLine
 10
242.6579302133
 20
35.2802782585
 30
0.0
 11
203.8764921904
 21
35.2802782585
 31
0.0
  0
LINE
  5
235
330
1F
100
AcDbEntity
  8
0
  6
Continuous
 62
     7
370
    15
100
AcDbLine
 10
160.7672112019
 20
85.7802800169
 30
0.0
 11
160.7672112019
 21
80.2802800467
 31
0.0
  0
LINE
  5
236
330
1F
100
AcDbEntity
  8
0
  6
Continuous
 62
     7
370
    15
100
AcDbLine
 10
160.7672112019
 20
85.7802800169
 30
0.0
 11
162.0422402353
 21
85.7802800169
 31
0.0
  0
LINE
  5
237
330
1F
100
AcDbEntity
  8
0
  6
Continuous
 62
     7
370
    15
100
AcDbLine
 10
285.7672112019
 20
80.2802800467
 30
0.0
 11
285.7672112019
 21
85.7802800169
 31
0.0
  0
LINE
  5
238
330
1F
100
AcDbEntity
  8
0
  6
Continuous
 62
     7
370
    15
100
AcDbLine
 10
285.7672112019
 20
85.7802800169
 30
0.0
 11
284.4921821684
 21
85.7802800169
 31
0.0
  0
LINE
  5
239
330
1F
100
AcDbEntity
  8
0
  6
Continuous
 62
     7
370
    15
100
AcDbLine
 10
285.7672112019
 20
74.7802800765
 30
0.0
 11
285.7672112019
 21
80.2802800467
 31
0.0
  0
LINE
  5
23A
330
1F
100
AcDbEntity
  8
0
  6
Continuous
 62
     7
370
    15
100
AcDbLine
 10
285.7672112019
 20
74.7802800765
 30
0.0
 11
284.4921821684
 21
74.7802800765
 31
0.0
  0
LINE
  5
23B
330
1F
100
AcDbEntity
  8
0
  6
Continuous
 62
     7
370
    15
100
AcDbLine
 10
160.7672112019
 20
80.2802800467
 30
0.0
 11
160.7672112019
 21
74.7802800765
 31
0.0
  0
LINE
  5
23C
330
1F
100
AcDbEntity
  8
0
  6
Continuous
 62
     7
370
    15
100
AcDbLine
 10
160.7672112019
 20
74.7802800765
 30
0.0
 11
162.0422402353
 21
74.7802800765
 31
0.0
  0
LINE
  5
23D
330
1F
100
AcDbEntity
  8
0
  6
Continuous
 62
     7
370
    15
100
AcDbLine
 10
313.2672147781
 20
123.5815494587
 30
0.0
 11
313.2672147781
 21
101.9309147527
 31
0.0
  0
LINE
  5
23E
330
1F
100
AcDbEntity
  8
0
  6
Continuous
 62
     7
370
    15
100
AcDbLine
 10
287.0684849054
 20
101.9309147527
 30
0.0
 11
313.2672147781
 21
101.9309147527
 31
0.0
  0
SPLINE
  5
23F
330
1F
100
AcDbEntity
  8
0
  6
Continuous
 62
     7
370
    15
100
AcDbSpline
210
0.0
220
0.0
230
1.0
 70
     8
 71
     3
 72
    14
 73
    10
 74
     0
 42
0.00000001
 43
0.00000001
 12
1.0
 22
0.0
 32
0.0
 13
1.0
 23
0.0
 33
0.0
 40
0.0
 40
0.0
 40
0.0
 40
0.0
 40
0.2500000000000002
 40
0.2500000000000002
 40
0.5000000000000003
 40
0.5000000000000003
 40
0.7500000000000001
 40
0.7500000000000001
 40
1.0
 40
1.0
 40
1.0
 40
1.0
 10
281.2672112018669
 20
112.7562326885912
 30
0.0
 10
281.2672112018669
 20
111.8147542940841
 30
0.0
 10
281.4096889615388
 20
110.8811982285122
 30
0.0
 10
281.957152727092
 20
109.0286825977592
 30
0.0
 10
282.3618789493169
 20
108.1097085875756
 30
0.0
 10
283.3995648225842
 20
106.2844512517145
 30
0.0
 10
284.0243878027418
 20
105.3913781275387
 30
0.0
 10
285.4347292666657
 20
103.6388574546199
 30
0.0
 10
286.2206807799872
 20
102.7787157523874
 30
0.0
 10
287.0684813910888
 20
101.9309151412857
 30
0.0
  0
SPLINE
  5
240
330
1F
100
AcDbEntity
  8
0
  6
Continuous
 62
     7
370
    15
100
AcDbSpline
210
0.0
220
0.0
230
1.0
 70
     8
 71
     3
 72
    16
 73
    12
 74
     0
 42
0.00000001
 43
0.00000001
 12
1.0
 22
0.0
 32
0.0
 13
1.0
 23
0.0
 33
0.0
 40
0.0
 40
0.0
 40
0.0
 40
0.0
 40
0.25
 40
0.25
 40
0.5
 40
0.5
 40
0.7499999999999999
 40
0.7499999999999999
 40
0.875
 40
0.875
 40
1.0
 40
1.0
 40
1.0
 40
1.0
 10
287.0684813910887
 20
123.5815502358966
 30
0.0
 10
286.2196976271919
 20
122.7327664719998
 30
0.0
 10
285.4356529999577
 20
121.8742319680195
 30
0.0
 10
284.0329543612643
 20
120.1322525119156
 30
0.0
 10
283.4143294688761
 20
119.2488031739985
 30
0.0
 10
282.3861387152438
 20
117.4504168945308
 30
0.0
 10
281.9767171661277
 20
116.5354582172865
 30
0.0
 10
281.5562164213175
 20
115.133856216622
 30
0.0
 10
281.4483504538977
 20
114.6617905150744
 30
0.0
 10
281.3033213348387
 20
113.7070101472974
 30
0.0
 10
281.2672112018669
 20
113.2302920975537
 30
0.0
 10
281.2672112018669
 20
112.7562326885912
 30
0.0
  0
LINE
  5
241
330
1F
100
AcDbEntity
  8
0
  6
Continuous
 62
     7
370
    15
100
AcDbLine
 10
287.0684849054
 20
123.5815494587
 30
0.0
 11
313.2672147781
 21
123.5815494587
 31
0.0
  0
SPLINE
  5
242
330
1F
100
AcDbEntity
  8
0
  6
Continuous
 62
     7
370
    15
100
AcDbSpline
210
0.0
220
0.0
230
1.0
 70
     8
 71
     3
 72
    16
 73
    12
 74
     0
 42
0.00000001
 43
0.00000001
 12
1.0
 22
0.0
 32
0.0
 13
1.0
 23
0.0
 33
0.0
 40
0.0
 40
0.0
 40
0.0
 40
0.0
 40
0.25
 40
0.25
 40
0.5
 40
0.5
 40
0.7499999999999999
 40
0.7499999999999999
 40
0.875
 40
0.875
 40
1.0
 40
1.0
 40
1.0
 40
1.0
 10
159.4659410126451
 20
123.5815502358966
 30
0.0
 10
160.3147247765419
 20
122.7327664719998
 30
0.0
 10
161.0987694037761
 20
121.8742319680195
 30
0.0
 10
162.5014680424695
 20
120.1322525119156
 30
0.0
 10
163.1200929348578
 20
119.2488031739985
 30
0.0
 10
164.14828368849
 20
117.4504168945308
 30
0.0
 10
164.5577052376061
 20
116.5354582172865
 30
0.0
 10
164.9782059824164
 20
115.133856216622
 30
0.0
 10
165.0860719498361
 20
114.6617905150744
 30
0.0
 10
165.2311010688951
 20
113.7070101472974
 30
0.0
 10
165.2672112018669
 20
113.2302920975537
 30
0.0
 10
165.2672112018669
 20
112.7562326885912
 30
0.0
  0
SPLINE
  5
243
330
1F
100
AcDbEntity
  8
0
  6
Continuous
 62
     7
370
    15
100
AcDbSpline
210
0.0
220
0.0
230
1.0
 70
     8
 71
     3
 72
    14
 73
    10
 74
     0
 42
0.00000001
 43
0.00000001
 12
1.0
 22
0.0
 32
0.0
 13
1.0
 23
0.0
 33
0.0
 40
0.0
 40
0.0
 40
0.0
 40
0.0
 40
0.2500000000000002
 40
0.2500000000000002
 40
0.5000000000000003
 40
0.5000000000000003
 40
0.7500000000000001
 40
0.7500000000000001
 40
1.0
 40
1.0
 40
1.0
 40
1.0
 10
165.2672112018669
 20
112.7562326885912
 30
0.0
 10
165.2672112018669
 20
111.8147542940841
 30
0.0
 10
165.124733442195
 20
110.8811982285122
 30
0.0
 10
164.5772696766419
 20
109.0286825977592
 30
0.0
 10
164.1725434544169
 20
108.1097085875756
 30
0.0
 10
163.1348575811496
 20
106.2844512517145
 30
0.0
 10
162.510034600992
 20
105.3913781275387
 30
0.0
 10
161.099693137068
 20
103.6388574546199
 30
0.0
 10
160.3137416237467
 20
102.7787157523874
 30
0.0
 10
159.465941012645
 20
101.9309151412857
 30
0.0
  0
LINE
  5
244
330
1F
100
AcDbEntity
  8
0
  6
Continuous
 62
     7
370
    15
100
AcDbLine
 10
159.4659374983
 20
101.9309147527
 30
0.0
 11
133.2672076256
 21
101.9309147527
 31
0.0
  0
LINE
  5
245
330
1F
100
AcDbEntity
  8
0
  6
Continuous
 62
     7
370
    15
100
AcDbLine
 10
133.2672076256
 20
123.5815494587
 30
0.0
 11
133.2672076256
 21
101.9309147527
 31
0.0
  0
LINE
  5
246
330
1F
100
AcDbEntity
  8
0
  6
Continuous
 62
     7
370
    15
100
AcDbLine
 10
159.4659374983
 20
123.5815494587
 30
0.0
 11
133.2672076256
 21
123.5815494587
 31
0.0
  0
LINE
  5
247
330
1F
100
AcDbEntity
  8
0
  6
Continuous
 62
     7
370
    15
100
AcDbLine
 10
281.2672095329
 20
89.8849659865
 30
0.0
 11
281.2672095329
 21
112.7562321057
 31
0.0
  0
SPLINE
  5
248
330
1F
100
AcDbEntity
  8
0
  6
Continuous
 62
     7
370
    15
100
AcDbSpline
210
0.0
220
0.0
230
1.0
 70
     8
 71
     3
 72
    16
 73
    12
 74
     0
 42
0.00000001
 43
0.00000001
 12
1.0
 22
0.0
 32
0.0
 13
1.0
 23
0.0
 33
0.0
 40
0.0
 40
0.0
 40
0.0
 40
0.0
 40
0.1318439040215573
 40
0.263766704091389
 40
0.3838001126684722
 40
0.5038818615546173
 40
0.6239496366762847
 40
0.7439640160480184
 40
0.841619646477318
 40
0.939346589748132
 40
1.0
 40
1.0
 40
1.0
 40
1.0
 10
287.068484905442
 20
101.9309147526951
 30
0.0
 10
286.7993099614088
 20
101.3836499269706
 30
0.0
 10
286.2607989977164
 20
100.2887927895264
 30
0.0
 10
285.5267406574087
 20
98.67205420030115
 30
0.0
 10
284.8535216731178
 20
97.08815712724073
 30
0.0
 10
284.2435971316397
 20
95.5375152172134
 30
0.0
 10
283.6788288721511
 20
93.96996755910115
 30
0.0
 10
283.1946390174723
 20
92.4843237787425
 30
0.0
 10
282.7868688021271
 20
91.08348194608456
 30
0.0
 10
282.4831017204063
 20
89.93845305407866
 30
0.0
 10
282.3230374079546
 20
89.22351269483926
 30
0.0
 10
282.2617391080463
 20
88.94971881857825
 30
0.0
  0
SPLINE
  5
249
330
1F
100
AcDbEntity
  8
0
  6
Continuous
 62
     7
370
    15
100
AcDbSpline
210
0.0
220
0.0
230
1.0
 70
     8
 71
     3
 72
    16
 73
    12
 74
     0
 42
0.00000001
 43
0.00000001
 12
1.0
 22
0.0
 32
0.0
 13
1.0
 23
0.0
 33
0.0
 40
0.0
 40
0.0
 40
0.0
 40
0.0
 40
0.1318439040215573
 40
0.263766704091389
 40
0.3838001126684722
 40
0.5038818615546173
 40
0.6239496366762847
 40
0.7439640160480184
 40
0.841619646477318
 40
0.939346589748132
 40
1.0
 40
1.0
 40
1.0
 40
1.0
 10
159.4659374982918
 20
101.9309147526951
 30
0.0
 10
159.735112442325
 20
101.3836499269706
 30
0.0
 10
160.2736234060174
 20
100.2887927895264
 30
0.0
 10
161.0076817463252
 20
98.67205420030115
 30
0.0
 10
161.680900730616
 20
97.08815712724073
 30
0.0
 10
162.2908252720941
 20
95.5375152172134
 30
0.0
 10
162.8555935315827
 20
93.96996755910115
 30
0.0
 10
163.3397833862615
 20
92.4843237787425
 30
0.0
 10
163.7475536016067
 20
91.08348194608456
 30
0.0
 10
164.0513206833275
 20
89.93845305407866
 30
0.0
 10
164.2113849957792
 20
89.22351269483926
 30
0.0
 10
164.2726832956875
 20
88.94971881857825
 30
0.0
  0
LINE
  5
24A
330
1F
100
AcDbEntity
  8
0
  6
Continuous
 62
     7
370
    15
100
AcDbLine
 10
165.2672128708
 20
89.8849659865
 30
0.0
 11
165.2672128708
 21
112.7562321057
 31
0.0
  0
SPLINE
  5
24B
330
1F
100
AcDbEntity
  8
0
  6
Continuous
 62
     7
370
    15
100
AcDbSpline
210
0.0
220
0.0
230
1.0
 70
     8
 71
     3
 72
    16
 73
    12
 74
     0
 42
0.00000001
 43
0.00000001
 12
1.0
 22
0.0
 32
0.0
 13
1.0
 23
0.0
 33
0.0
 40
0.0
 40
0.0
 40
0.0
 40
0.0
 40
0.1318439040215573
 40
0.263766704091389
 40
0.3838001126684722
 40
0.5038818615546173
 40
0.6239496366762847
 40
0.7439640160480184
 40
0.841619646477318
 40
0.939346589748132
 40
1.0
 40
1.0
 40
1.0
 40
1.0
 10
159.4659374982918
 20
58.62964534065437
 30
0.0
 10
159.735112442325
 20
59.17691016637888
 30
0.0
 10
160.2736234060174
 20
60.27176730382305
 30
0.0
 10
161.0076817463252
 20
61.88850589304831
 30
0.0
 10
161.680900730616
 20
63.47240296610872
 30
0.0
 10
162.2908252720941
 20
65.02304487613607
 30
0.0
 10
162.8555935315827
 20
66.59059253424832
 30
0.0
 10
163.3397833862615
 20
68.07623631460694
 30
0.0
 10
163.7475536016067
 20
69.47707814726489
 30
0.0
 10
164.0513206833275
 20
70.6221070392708
 30
0.0
 10
164.2113849957792
 20
71.3370473985102
 30
0.0
 10
164.2726832956875
 20
71.61084127477122
 30
0.0
  0
LINE
  5
24C
330
1F
100
AcDbEntity
  8
0
  6
Continuous
 62
     7
370
    15
100
AcDbLine
 10
159.4659374983
 20
58.6296453407
 30
0.0
 11
133.2672076256
 21
58.6296453407
 31
0.0
  0
LINE
  5
24D
330
1F
100
AcDbEntity
  8
0
  6
Continuous
 62
     7
370
    15
100
AcDbLine
 10
133.2672076256
 20
58.6296453407
 30
0.0
 11
133.2672076256
 21
101.9309147527
 31
0.0
  0
LINE
  5
24E
330
1F
100
AcDbEntity
  8
0
  6
Continuous
 62
     7
370
    15
100
AcDbLine
 10
287.0684849054
 20
58.6296453407
 30
0.0
 11
313.2672147781
 21
58.6296453407
 31
0.0
  0
SPLINE
  5
24F
330
1F
100
AcDbEntity
  8
0
  6
Continuous
 62
     7
370
    15
100
AcDbSpline
210
0.0
220
0.0
230
1.0
 70
     8
 71
     3
 72
    16
 73
    12
 74
     0
 42
0.00000001
 43
0.00000001
 12
1.0
 22
0.0
 32
0.0
 13
1.0
 23
0.0
 33
0.0
 40
0.0
 40
0.0
 40
0.0
 40
0.0
 40
0.1318439040215573
 40
0.263766704091389
 40
0.3838001126684722
 40
0.5038818615546173
 40
0.6239496366762847
 40
0.7439640160480184
 40
0.841619646477318
 40
0.939346589748132
 40
1.0
 40
1.0
 40
1.0
 40
1.0
 10
287.068484905442
 20
58.62964534065437
 30
0.0
 10
286.7993099614088
 20
59.17691016637888
 30
0.0
 10
286.2607989977164
 20
60.27176730382305
 30
0.0
 10
285.5267406574087
 20
61.88850589304831
 30
0.0
 10
284.8535216731178
 20
63.47240296610872
 30
0.0
 10
284.2435971316397
 20
65.02304487613607
 30
0.0
 10
283.6788288721511
 20
66.59059253424832
 30
0.0
 10
283.1946390174723
 20
68.07623631460694
 30
0.0
 10
282.7868688021271
 20
69.47707814726489
 30
0.0
 10
282.4831017204063
 20
70.6221070392708
 30
0.0
 10
282.3230374079546
 20
71.3370473985102
 30
0.0
 10
282.2617391080463
 20
71.61084127477122
 30
0.0
  0
LINE
  5
250
330
1F
100
AcDbEntity
  8
0
  6
Continuous
 62
     7
370
    15
100
AcDbLine
 10
313.2672147781
 20
101.9309147527
 30
0.0
 11
313.2672147781
 21
58.6296453407
 31
0.0
  0
SPLINE
  5
251
330
1F
100
AcDbEntity
  8
0
  6
Continuous
 62
     7
370
    15
100
AcDbSpline
210
0.0
220
0.0
230
1.0
 70
     8
 71
     3
 72
    14
 73
    10
 74
     0
 42
0.00000001
 43
0.00000001
 12
1.0
 22
0.0
 32
0.0
 13
1.0
 23
0.0
 33
0.0
 40
0.0
 40
0.0
 40
0.0
 40
0.0
 40
0.2500000000000002
 40
0.2500000000000002
 40
0.5000000000000003
 40
0.5000000000000003
 40
0.7500000000000001
 40
0.7500000000000001
 40
1.0
 40
1.0
 40
1.0
 40
1.0
 10
281.2672112018669
 20
47.80432740475824
 30
0.0
 10
281.2672112018669
 20
48.7458057992654
 30
0.0
 10
281.4096889615388
 20
49.67936186483723
 30
0.0
 10
281.957152727092
 20
51.53187749559027
 30
0.0
 10
282.3618789493169
 20
52.45085150577386
 30
0.0
 10
283.3995648225842
 20
54.27610884163493
 30
0.0
 10
284.0243878027418
 20
55.16918196581076
 30
0.0
 10
285.4347292666657
 20
56.92170263872955
 30
0.0
 10
286.2206807799872
 20
57.78184434096208
 30
0.0
 10
287.0684813910888
 20
58.62964495206374
 30
0.0
  0
LINE
  5
252
330
1F
100
AcDbEntity
  8
0
  6
Continuous
 62
     7
370
    15
100
AcDbLine
 10
281.2672095329
 20
70.6755941068
 30
0.0
 11
281.2672095329
 21
47.8043279876
 31
0.0
  0
LINE
  5
253
330
1F
100
AcDbEntity
  8
0
  6
Continuous
 62
     7
370
    15
100
AcDbLine
 10
165.2672128708
 20
70.6755941068
 30
0.0
 11
165.2672128708
 21
47.8043279876
 31
0.0
  0
SPLINE
  5
254
330
1F
100
AcDbEntity
  8
0
  6
Continuous
 62
     7
370
    15
100
AcDbSpline
210
0.0
220
0.0
230
1.0
 70
     8
 71
     3
 72
    14
 73
    10
 74
     0
 42
0.00000001
 43
0.00000001
 12
1.0
 22
0.0
 32
0.0
 13
1.0
 23
0.0
 33
0.0
 40
0.0
 40
0.0
 40
0.0
 40
0.0
 40
0.2500000000000002
 40
0.2500000000000002
 40
0.5000000000000003
 40
0.5000000000000003
 40
0.7500000000000001
 40
0.7500000000000001
 40
1.0
 40
1.0
 40
1.0
 40
1.0
 10
165.2672112018669
 20
47.80432740475824
 30
0.0
 10
165.2672112018669
 20
48.7458057992654
 30
0.0
 10
165.124733442195
 20
49.67936186483723
 30
0.0
 10
164.5772696766419
 20
51.53187749559027
 30
0.0
 10
164.1725434544169
 20
52.45085150577386
 30
0.0
 10
163.1348575811496
 20
54.27610884163493
 30
0.0
 10
162.510034600992
 20
55.16918196581076
 30
0.0
 10
161.099693137068
 20
56.92170263872955
 30
0.0
 10
160.3137416237467
 20
57.78184434096208
 30
0.0
 10
159.465941012645
 20
58.62964495206374
 30
0.0
  0
SPLINE
  5
255
330
1F
100
AcDbEntity
  8
0
  6
Continuous
 62
     7
370
    15
100
AcDbSpline
210
0.0
220
0.0
230
1.0
 70
     8
 71
     3
 72
    16
 73
    12
 74
     0
 42
0.00000001
 43
0.00000001
 12
1.0
 22
0.0
 32
0.0
 13
1.0
 23
0.0
 33
0.0
 40
0.0
 40
0.0
 40
0.0
 40
0.0
 40
0.25
 40
0.25
 40
0.5
 40
0.5
 40
0.7499999999999999
 40
0.7499999999999999
 40
0.875
 40
0.875
 40
1.0
 40
1.0
 40
1.0
 40
1.0
 10
159.4659410126451
 20
36.97900985745286
 30
0.0
 10
160.3147247765419
 20
37.82779362134965
 30
0.0
 10
161.0987694037761
 20
38.68632812532994
 30
0.0
 10
162.5014680424695
 20
40.42830758143382
 30
0.0
 10
163.1200929348578
 20
41.31175691935098
 30
0.0
 10
164.14828368849
 20
43.11014319881867
 30
0.0
 10
164.5577052376061
 20
44.025101876063
 30
0.0
 10
164.9782059824164
 20
45.42670387672741
 30
0.0
 10
165.0860719498361
 20
45.89876957827502
 30
0.0
 10
165.2311010688951
 20
46.85354994605203
 30
0.0
 10
165.2672112018669
 20
47.33026799579574
 30
0.0
 10
165.2672112018669
 20
47.80432740475824
 30
0.0
  0
LINE
  5
256
330
1F
100
AcDbEntity
  8
0
  6
Continuous
 62
     7
370
    15
100
AcDbLine
 10
159.4659374983
 20
36.9790106346
 30
0.0
 11
133.2672076256
 21
36.9790106346
 31
0.0
  0
LINE
  5
257
330
1F
100
AcDbEntity
  8
0
  6
Continuous
 62
     7
370
    15
100
AcDbLine
 10
133.2672076256
 20
36.9790106346
 30
0.0
 11
133.2672076256
 21
58.6296453407
 31
0.0
  0
SPLINE
  5
258
330
1F
100
AcDbEntity
  8
0
  6
Continuous
 62
     7
370
    15
100
AcDbSpline
210
0.0
220
0.0
230
1.0
 70
     8
 71
     3
 72
    16
 73
    12
 74
     0
 42
0.00000001
 43
0.00000001
 12
1.0
 22
0.0
 32
0.0
 13
1.0
 23
0.0
 33
0.0
 40
0.0
 40
0.0
 40
0.0
 40
0.0
 40
0.25
 40
0.25
 40
0.5
 40
0.5
 40
0.7499999999999999
 40
0.7499999999999999
 40
0.875
 40
0.875
 40
1.0
 40
1.0
 40
1.0
 40
1.0
 10
287.0684813910887
 20
36.97900985745286
 30
0.0
 10
286.2196976271919
 20
37.82779362134965
 30
0.0
 10
285.4356529999577
 20
38.68632812532994
 30
0.0
 10
284.0329543612643
 20
40.42830758143382
 30
0.0
 10
283.4143294688761
 20
41.31175691935098
 30
0.0
 10
282.3861387152438
 20
43.11014319881867
 30
0.0
 10
281.9767171661277
 20
44.025101876063
 30
0.0
 10
281.5562164213175
 20
45.42670387672741
 30
0.0
 10
281.4483504538977
 20
45.89876957827502
 30
0.0
 10
281.3033213348387
 20
46.85354994605203
 30
0.0
 10
281.2672112018669
 20
47.33026799579574
 30
0.0
 10
281.2672112018669
 20
47.80432740475824
 30
0.0
  0
LINE
  5
259
330
1F
100
AcDbEntity
  8
0
  6
Continuous
 62
     7
370
    15
100
AcDbLine
 10
287.0684849054
 20
36.9790106346
 30
0.0
 11
313.2672147781
 21
36.9790106346
 31
0.0
  0
LINE
  5
25A
330
1F
100
AcDbEntity
  8
0
  6
Continuous
 62
     7
370
    15
100
AcDbLine
 10
313.2672147781
 20
36.9790106346
 30
0.0
 11
313.2672147781
 21
58.6296453407
 31
0.0
  0
LINE
  5
25B
330
1F
100
AcDbEntity
  8
0
  6
Continuous
 62
     7
370
    15
100
AcDbLine
 10
165.2672128708
 20
112.7562321057
 30
0.0
 11
165.2672128708
 21
117.7802815368
 31
0.0
  0
LINE
  5
25C
330
1F
100
AcDbEntity
  8
0
  6
Continuous
 62
     7
370
    15
100
AcDbLine
 10
281.2672095329
 20
112.7562321057
 30
0.0
 11
281.2672095329
 21
117.7802815368
 31
0.0
  0
LINE
  5
25D
330
1F
100
AcDbEntity
  8
0
  6
Continuous
 62
     7
370
    15
100
AcDbLine
 10
165.2672128708
 20
47.8043279876
 30
0.0
 11
165.2672128708
 21
42.7802785566
 31
0.0
  0
LINE
  5
25E
330
1F
100
AcDbEntity
  8
0
  6
Continuous
 62
     7
370
    15
100
AcDbLine
 10
281.2672095329
 20
47.8043279876
 30
0.0
 11
281.2672095329
 21
42.7802785566
 31
0.0
  0
LINE
  5
25F
330
1F
100
AcDbEntity
  8
0
  6
Continuous
 62
     7
370
    15
100
AcDbLine
 10
192.3317952038
 20
42.2802812686
 30
0.0
 11
186.267210725
 21
42.2802812686
 31
0.0
  0
LINE
  5
260
330
1F
100
AcDbEntity
  8
0
  6
Continuous
 62
     8
370
    15
100
AcDbLine
 10
266.1956386597
 20
103.905480661
 30
0.0
 11
266.1956386597
 21
116.6087075402
 31
0.0
  0
LINE
  5
261
330
1F
100
AcDbEntity
  8
0
  6
Continuous
 62
     8
370
    15
100
AcDbLine
 10
269.0240653188
 20
97.8105481049
 30
0.0
 11
269.0240653188
 21
117.7802815368
 31
0.0
  0
LINE
  5
262
330
1F
100
AcDbEntity
  8
0
  6
Continuous
 62
     8
370
    15
100
AcDbLine
 10
177.510357085
 20
97.8105481049
 30
0.0
 11
177.510357085
 21
117.7802815368
 31
0.0
  0
LINE
  5
263
330
1F
100
AcDbEntity
  8
0
  6
Continuous
 62
     8
370
    15
100
AcDbLine
 10
180.3387837441
 20
103.905480661
 30
0.0
 11
180.3387837441
 21
116.6087075402
 31
0.0
  0
LINE
  5
264
330
1F
100
AcDbEntity
  8
0
  6
Continuous
 62
     8
370
    15
100
AcDbLine
 10
269.0240653188
 20
62.7500119885
 30
0.0
 11
269.0240653188
 21
42.7802785566
 31
0.0
  0
LINE
  5
265
330
1F
100
AcDbEntity
  8
0
  6
Continuous
 62
     8
370
    15
100
AcDbLine
 10
266.1956386597
 20
56.6550794323
 30
0.0
 11
266.1956386597
 21
43.9518525531
 31
0.0
  0
LINE
  5
266
330
1F
100
AcDbEntity
  8
0
  6
Continuous
 62
     8
370
    15
100
AcDbLine
 10
180.3387837441
 20
56.6550794323
 30
0.0
 11
180.3387837441
 21
43.9518525531
 31
0.0
  0
LINE
  5
267
330
1F
100
AcDbEntity
  8
0
  6
Continuous
 62
     8
370
    15
100
AcDbLine
 10
177.510357085
 20
62.7500119885
 30
0.0
 11
177.510357085
 21
42.7802785566
 31
0.0
  0
LINE
  5
268
330
1F
100
AcDbEntity
  8
0
  6
Continuous
 62
     8
370
    15
100
AcDbLine
 10
184.4956377477
 20
110.2430097093
 30
0.0
 11
184.4956377477
 21
112.4518535366
 31
0.0
  0
LINE
  5
269
330
1F
100
AcDbEntity
  8
0
  6
Continuous
 62
     8
370
    15
100
AcDbLine
 10
262.038784656
 20
110.2430097093
 30
0.0
 11
262.038784656
 21
112.4518535366
 31
0.0
  0
LINE
  5
26A
330
1F
100
AcDbEntity
  8
0
  6
Continuous
 62
     8
370
    15
100
AcDbLine
 10
184.4956377477
 20
50.317550384
 30
0.0
 11
184.4956377477
 21
48.1087065568
 31
0.0
  0
LINE
  5
26B
330
1F
100
AcDbEntity
  8
0
  6
Continuous
 62
     8
370
    15
100
AcDbLine
 10
262.038784656
 20
50.317550384
 30
0.0
 11
262.038784656
 21
48.1087065568
 31
0.0
  0
INSERT
  5
277
330
1F
100
AcDbEntity
  8
FORMAT
100
AcDbBlockReference
  2
SW_CENTERMARKSYMBOL_1
 10
223.2672112019
 20
80.2802800467
 30
0.0
  0
ENDSEC
  0
SECTION
  2
OBJECTS
  0
DICTIONARY
  5
C
330
0
100
AcDbDictionary
281
     1
  3
ACAD_GROUP
350
D
  3
ACAD_LAYOUT
350
1A
  3
ACAD_MLINESTYLE
350
17
  3
ACAD_PLOTSETTINGS
350
19
  3
ACAD_PLOTSTYLENAME
350
E
  0
DICTIONARY
  5
D
102
{ACAD_REACTORS
330
C
102
}
330
C
100
AcDbDictionary
281
     1
  0
DICTIONARY
  5
1A
102
{ACAD_REACTORS
330
C
102
}
330
C
100
AcDbDictionary
281
     1
  3
Layout1
350
1E
  3
Layout2
350
26
  3
Model
350
22
  0
DICTIONARY
  5
17
102
{ACAD_REACTORS
330
C
102
}
330
C
100
AcDbDictionary
281
     1
  3
Standard
350
18
  0
DICTIONARY
  5
19
102
{ACAD_REACTORS
330
C
102
}
330
C
100
AcDbDictionary
281
     1
  0
ACDBDICTIONARYWDFLT
  5
E
102
{ACAD_REACTORS
330
C
102
}
330
C
100
AcDbDictionary
281
     1
  3
Normal
350
F
100
AcDbDictionaryWithDefault
340
F
  0
LAYOUT
  5
1E
102
{ACAD_REACTORS
330
1A
102
}
330
1A
100
AcDbPlotSettings
  1

  2
none_device
  4

  6

 40
0.0
 41
0.0
 42
0.0
 43
0.0
 44
0.0
 45
0.0
 46
0.0
 47
0.0
 48
0.0
 49
0.0
140
0.0
141
0.0
142
1.0
143
1.0
 70
   688
 72
     0
 73
     0
 74
     5
  7

 75
    16
147
1.0
148
0.0
149
0.0
100
AcDbLayout
  1
Layout1
 70
     1
 71
     1
 10
0.0
 20
0.0
 11
420.0
 21
297.0
 12
0.0
 22
0.0
 32
0.0
 14
1.0000000000E+20
 24
1.0000000000E+20
 34
1.0000000000E+20
 15
-1.0000000000E+20
 25
-1.0000000000E+20
 35
-1.0000000000E+20
146
0.0
 13
0.0
 23
0.0
 33
0.0
 16
1.0
 26
0.0
 36
0.0
 17
0.0
 27
1.0
 37
0.0
 76
     0
330
1B
  0
LAYOUT
  5
26
102
{ACAD_REACTORS
330
1A
102
}
330
1A
100
AcDbPlotSettings
  1

  2
none_device
  4

  6

 40
0.0
 41
0.0
 42
0.0
 43
0.0
 44
0.0
 45
0.0
 46
0.0
 47
0.0
 48
0.0
 49
0.0
140
0.0
141
0.0
142
1.0
143
1.0
 70
   688
 72
     0
 73
     0
 74
     5
  7

 75
    16
147
1.0
148
0.0
149
0.0
100
AcDbLayout
  1
Layout2
 70
     1
 71
     2
 10
0.0
 20
0.0
 11
0.0
 21
0.0
 12
0.0
 22
0.0
 32
0.0
 14
0.0
 24
0.0
 34
0.0
 15
0.0
 25
0.0
 35
0.0
146
0.0
 13
0.0
 23
0.0
 33
0.0
 16
1.0
 26
0.0
 36
0.0
 17
0.0
 27
1.0
 37
0.0
 76
     0
330
23
  0
LAYOUT
  5
22
102
{ACAD_REACTORS
330
1A
102
}
330
1A
100
AcDbPlotSettings
  1

  2
none_device
  4

  6

 40
0.0
 41
0.0
 42
0.0
 43
0.0
 44
0.0
 45
0.0
 46
0.0
 47
0.0
 48
0.0
 49
0.0
140
0.0
141
0.0
142
1.0
143
1.0
 70
  1712
 72
     0
 73
     0
 74
     0
  7

 75
     0
147
1.0
148
0.0
149
0.0
100
AcDbLayout
  1
Model
 70
     1
 71
     0
 10
0.0
 20
0.0
 11
594.0
 21
420.0
 12
0.0
 22
0.0
 32
0.0
 14
0.0
 24
0.0
 34
0.0
 15
594.0
 25
420.0
 35
0.0
146
0.0
 13
0.0
 23
0.0
 33
0.0
 16
1.0
 26
0.0
 36
0.0
 17
0.0
 27
1.0
 37
0.0
 76
     0
330
1F
331
29
  0
MLINESTYLE
  5
18
102
{ACAD_REACTORS
330
17
102
}
330
17
100
AcDbMlineStyle
  2
Standard
 70
     0
  3

 62
   256
 51
90.0
 52
90.0
 71
     2
 49
0.5
 62
   256
  6
BYLAYER
 49
-0.5
 62
   256
  6
BYLAYER
  0
ACDBPLACEHOLDER
  5
F
102
{ACAD_REACTORS
330
E
102
}
330
E
  0
ENDSEC
  0
EOF
